ISO-10303-21;
HEADER;
FILE_DESCRIPTION ((), '1');
FILE_NAME ('D:\\OneDrive - MAFord Europe\\Desktop\\250\\STEP\\250M06062B.STP', '2021-01-26T09:57:35', ('Unknown'), ('M. A. Ford Europe Ltd.'), 'OneCNC-XR8 Mill 3D Expert', 'OneCNC-XR8 Mill 3D Expert', '');
FILE_SCHEMA (('CONFIG_CONTROL_DESIGN'));
ENDSEC;

DATA;
#1 = CARTESIAN_POINT ('', (-74.75, 3., -7.34788079488411E-16));
#2 = VERTEX_POINT ('', #1);
#3 = CARTESIAN_POINT ('', (-3., 3., -7.34788079488412E-16));
#4 = VERTEX_POINT ('', #3);
#5 = CARTESIAN_POINT ('', (-74.75, 3., -7.34788079488411E-16));
#6 = CARTESIAN_POINT ('', (-50.8333333333334, 3., -7.34788079488411E-16));
#7 = CARTESIAN_POINT ('', (-26.9166666666667, 3., -7.34788079488411E-16));
#8 = CARTESIAN_POINT ('', (-3., 3., -7.34788079488412E-16));
#9 = B_SPLINE_CURVE_WITH_KNOTS ('', 3, (#5, #6, #7, #8), .UNSPECIFIED., .F., .U., (4, 4), (0., 1.), .UNSPECIFIED.);
#10 = EDGE_CURVE ('', #2, #4, #9, .T.);
#11 = ORIENTED_EDGE ('', *, *, #10, .F.);
#12 = CARTESIAN_POINT ('', (-74.75, 3., -7.34788079488411E-16));
#13 = CARTESIAN_POINT ('', (-74.75, 2.99999999999998, 12.));
#14 = CARTESIAN_POINT ('', (-74.75, -8.99999999999999, 5.99999999999998));
#15 = CARTESIAN_POINT ('', (-74.75, -8.99999999999997, -6.00000000000001));
#16 = CARTESIAN_POINT ('', (-74.75, 3.00000000000002, -12.));
#17 = CARTESIAN_POINT ('', (-74.75, 3., -7.34788079488411E-16));
#18 = (
   BOUNDED_CURVE ()
   B_SPLINE_CURVE (5, (#12, #13, #14, #15, #16, #17), .UNSPECIFIED., .T., .U.)
   B_SPLINE_CURVE_WITH_KNOTS ((6, 6), (0., 1.), .UNSPECIFIED.)
   CURVE ()
   GEOMETRIC_REPRESENTATION_ITEM ()
   RATIONAL_B_SPLINE_CURVE ((5., 1., 1., 1., 1., 5.))
   REPRESENTATION_ITEM ('')
);
#19 = EDGE_CURVE ('', #2, #2, #18, .T.);
#20 = ORIENTED_EDGE ('', *, *, #19, .T.);
#21 = ORIENTED_EDGE ('', *, *, #10, .T.);
#22 = CARTESIAN_POINT ('', (-3., 3., -7.34788079488412E-16));
#23 = CARTESIAN_POINT ('', (-3., 3., 12.));
#24 = CARTESIAN_POINT ('', (-3., -9., 6.));
#25 = CARTESIAN_POINT ('', (-3., -9., -6.));
#26 = CARTESIAN_POINT ('', (-3., 3., -12.));
#27 = CARTESIAN_POINT ('', (-3., 3., -7.34788079488412E-16));
#28 = (
   BOUNDED_CURVE ()
   B_SPLINE_CURVE (5, (#22, #23, #24, #25, #26, #27), .UNSPECIFIED., .T., .U.)
   B_SPLINE_CURVE_WITH_KNOTS ((6, 6), (0., 1.), .UNSPECIFIED.)
   CURVE ()
   GEOMETRIC_REPRESENTATION_ITEM ()
   RATIONAL_B_SPLINE_CURVE ((5., 1., 1., 1., 1., 5.))
   REPRESENTATION_ITEM ('')
);
#29 = EDGE_CURVE ('', #4, #4, #28, .T.);
#30 = ORIENTED_EDGE ('', *, *, #29, .F.);
#31 = EDGE_LOOP ('', (#11, #20, #21, #30));
#32 = FACE_OUTER_BOUND ('', #31, .T.);
#33 = CARTESIAN_POINT ('', (-74.75, 3., -7.34788079488411E-16));
#34 = CARTESIAN_POINT ('', (-50.8333333333334, 3., -7.34788079488411E-16));
#35 = CARTESIAN_POINT ('', (-26.9166666666667, 3., -7.34788079488411E-16));
#36 = CARTESIAN_POINT ('', (-3., 3., -7.34788079488412E-16));
#37 = CARTESIAN_POINT ('', (-74.75, 2.99999999999998, 12.));
#38 = CARTESIAN_POINT ('', (-50.8333333333334, 2.99999999999999, 12.));
#39 = CARTESIAN_POINT ('', (-26.9166666666667, 3., 12.));
#40 = CARTESIAN_POINT ('', (-3., 3., 12.));
#41 = CARTESIAN_POINT ('', (-74.75, -8.99999999999999, 5.99999999999998));
#42 = CARTESIAN_POINT ('', (-50.8333333333334, -8.99999999999999, 5.99999999999998));
#43 = CARTESIAN_POINT ('', (-26.9166666666667, -9., 5.99999999999999));
#44 = CARTESIAN_POINT ('', (-3., -9., 6.));
#45 = CARTESIAN_POINT ('', (-74.75, -8.99999999999997, -6.00000000000001));
#46 = CARTESIAN_POINT ('', (-50.8333333333334, -8.99999999999998, -6.));
#47 = CARTESIAN_POINT ('', (-26.9166666666667, -8.99999999999999, -6.));
#48 = CARTESIAN_POINT ('', (-3., -9., -6.));
#49 = CARTESIAN_POINT ('', (-74.75, 3.00000000000002, -12.));
#50 = CARTESIAN_POINT ('', (-50.8333333333334, 3.00000000000001, -12.));
#51 = CARTESIAN_POINT ('', (-26.9166666666667, 3., -12.));
#52 = CARTESIAN_POINT ('', (-3., 3., -12.));
#53 = CARTESIAN_POINT ('', (-74.75, 3., -7.34788079488411E-16));
#54 = CARTESIAN_POINT ('', (-50.8333333333334, 3., -7.34788079488411E-16));
#55 = CARTESIAN_POINT ('', (-26.9166666666667, 3., -7.34788079488411E-16));
#56 = CARTESIAN_POINT ('', (-3., 3., -7.34788079488412E-16));
#57 = (
   BOUNDED_SURFACE ()
   B_SPLINE_SURFACE (5, 3, ((#33, #34, #35, #36), (#37, #38, #39, #40), (#41, #42, #43, #44), (#45, #46, #47, #48), (#49, #50, #51, #52), (#53, #54, #55, #56)), .UNSPECIFIED., .T., .F., .U.)
   B_SPLINE_SURFACE_WITH_KNOTS ((6, 6), (4, 4), (0., 1.), (0., 1.), .UNSPECIFIED.)
   SURFACE ()
   GEOMETRIC_REPRESENTATION_ITEM ()
   RATIONAL_B_SPLINE_SURFACE (((5., 5., 5., 5.), (1., 1., 1., 1.), (1., 1., 1., 1.), (1., 1., 1., 1.), (1., 1., 1., 1.), (5., 5., 5., 5.)))
   REPRESENTATION_ITEM ('')
);
#58 = ADVANCED_FACE ('', (#32), #57, .T.);
#59 = CARTESIAN_POINT ('', (-75., 4.59242549680257E-15, -4.59242549680257E-15));
#60 = VERTEX_POINT ('', #59);
#61 = CARTESIAN_POINT ('', (-75., 2.75, -6.73555739531043E-16));
#62 = VERTEX_POINT ('', #61);
#63 = CARTESIAN_POINT ('', (-75., 4.59242549680257E-15, -4.59242549680257E-15));
#64 = CARTESIAN_POINT ('', (-75., 2.75, -6.73555739531043E-16));
#65 = B_SPLINE_CURVE_WITH_KNOTS ('', 1, (#63, #64), .UNSPECIFIED., .F., .U., (2, 2), (0., 1.), .UNSPECIFIED.);
#66 = EDGE_CURVE ('', #60, #62, #65, .T.);
#67 = ORIENTED_EDGE ('', *, *, #66, .F.);
#68 = ORIENTED_EDGE ('', *, *, #66, .T.);
#69 = CARTESIAN_POINT ('', (-75., 2.75, -6.73555739531043E-16));
#70 = CARTESIAN_POINT ('', (-75., 2.74999999999998, 11.));
#71 = CARTESIAN_POINT ('', (-75., -8.24999999999999, 5.49999999999998));
#72 = CARTESIAN_POINT ('', (-75., -8.24999999999997, -5.50000000000001));
#73 = CARTESIAN_POINT ('', (-75., 2.75000000000002, -11.));
#74 = CARTESIAN_POINT ('', (-75., 2.75, -6.73555739531043E-16));
#75 = (
   BOUNDED_CURVE ()
   B_SPLINE_CURVE (5, (#69, #70, #71, #72, #73, #74), .UNSPECIFIED., .T., .U.)
   B_SPLINE_CURVE_WITH_KNOTS ((6, 6), (0., 1.), .UNSPECIFIED.)
   CURVE ()
   GEOMETRIC_REPRESENTATION_ITEM ()
   RATIONAL_B_SPLINE_CURVE ((5., 1., 1., 1., 1., 5.))
   REPRESENTATION_ITEM ('')
);
#76 = EDGE_CURVE ('', #62, #62, #75, .T.);
#77 = ORIENTED_EDGE ('', *, *, #76, .F.);
#78 = EDGE_LOOP ('', (#67, #68, #77));
#79 = FACE_OUTER_BOUND ('', #78, .T.);
#80 = CARTESIAN_POINT ('', (-75., 4.59242549680257E-15, -4.59242549680257E-15));
#81 = CARTESIAN_POINT ('', (-75., 2.75, -6.73555739531043E-16));
#82 = CARTESIAN_POINT ('', (-75., 4.59242549680257E-15, -4.59242549680257E-15));
#83 = CARTESIAN_POINT ('', (-75., 2.74999999999998, 11.));
#84 = CARTESIAN_POINT ('', (-75., 4.59242549680257E-15, -4.59242549680257E-15));
#85 = CARTESIAN_POINT ('', (-75., -8.24999999999999, 5.49999999999998));
#86 = CARTESIAN_POINT ('', (-75., 4.59242549680257E-15, -4.59242549680257E-15));
#87 = CARTESIAN_POINT ('', (-75., -8.24999999999997, -5.50000000000001));
#88 = CARTESIAN_POINT ('', (-75., 4.59242549680257E-15, -4.59242549680257E-15));
#89 = CARTESIAN_POINT ('', (-75., 2.75000000000002, -11.));
#90 = CARTESIAN_POINT ('', (-75., 4.59242549680257E-15, -4.59242549680257E-15));
#91 = CARTESIAN_POINT ('', (-75., 2.75, -6.73555739531043E-16));
#92 = (
   BOUNDED_SURFACE ()
   B_SPLINE_SURFACE (5, 1, ((#80, #81), (#82, #83), (#84, #85), (#86, #87), (#88, #89), (#90, #91)), .UNSPECIFIED., .T., .F., .U.)
   B_SPLINE_SURFACE_WITH_KNOTS ((6, 6), (2, 2), (0., 1.), (0., 1.), .UNSPECIFIED.)
   SURFACE ()
   GEOMETRIC_REPRESENTATION_ITEM ()
   RATIONAL_B_SPLINE_SURFACE (((5., 5.), (1., 1.), (1., 1.), (1., 1.), (1., 1.), (5., 5.)))
   REPRESENTATION_ITEM ('')
);
#93 = ADVANCED_FACE ('', (#79), #92, .T.);
#94 = CARTESIAN_POINT ('', (-75., 2.75, -6.73555739531043E-16));
#95 = CARTESIAN_POINT ('', (-74.9166666666665, 2.83333333333333, -6.93966519516831E-16));
#96 = CARTESIAN_POINT ('', (-74.8333333333333, 2.91666666666666, -7.14377299502621E-16));
#97 = CARTESIAN_POINT ('', (-74.75, 3., -7.34788079488411E-16));
#98 = B_SPLINE_CURVE_WITH_KNOTS ('', 3, (#94, #95, #96, #97), .UNSPECIFIED., .F., .U., (4, 4), (0., 1.), .UNSPECIFIED.);
#99 = EDGE_CURVE ('', #62, #2, #98, .T.);
#100 = ORIENTED_EDGE ('', *, *, #99, .F.);
#101 = ORIENTED_EDGE ('', *, *, #76, .T.);
#102 = ORIENTED_EDGE ('', *, *, #99, .T.);
#103 = ORIENTED_EDGE ('', *, *, #19, .F.);
#104 = EDGE_LOOP ('', (#100, #101, #102, #103));
#105 = FACE_OUTER_BOUND ('', #104, .T.);
#106 = CARTESIAN_POINT ('', (-75., 2.75, -6.73555739531043E-16));
#107 = CARTESIAN_POINT ('', (-74.9166666666665, 2.83333333333333, -6.93966519516831E-16));
#108 = CARTESIAN_POINT ('', (-74.8333333333333, 2.91666666666666, -7.14377299502621E-16));
#109 = CARTESIAN_POINT ('', (-74.75, 3., -7.34788079488411E-16));
#110 = CARTESIAN_POINT ('', (-75., 2.74999999999998, 11.));
#111 = CARTESIAN_POINT ('', (-74.9166666666665, 2.83333333333331, 11.3333333333333));
#112 = CARTESIAN_POINT ('', (-74.8333333333333, 2.91666666666665, 11.6666666666666));
#113 = CARTESIAN_POINT ('', (-74.75, 2.99999999999998, 12.));
#114 = CARTESIAN_POINT ('', (-75., -8.24999999999999, 5.49999999999998));
#115 = CARTESIAN_POINT ('', (-74.9166666666665, -8.49999999999998, 5.66666666666663));
#116 = CARTESIAN_POINT ('', (-74.8333333333333, -8.74999999999998, 5.83333333333331));
#117 = CARTESIAN_POINT ('', (-74.75, -8.99999999999999, 5.99999999999998));
#118 = CARTESIAN_POINT ('', (-75., -8.24999999999997, -5.50000000000001));
#119 = CARTESIAN_POINT ('', (-74.9166666666665, -8.49999999999996, -5.66666666666667));
#120 = CARTESIAN_POINT ('', (-74.8333333333333, -8.74999999999997, -5.83333333333334));
#121 = CARTESIAN_POINT ('', (-74.75, -8.99999999999997, -6.00000000000001));
#122 = CARTESIAN_POINT ('', (-75., 2.75000000000002, -11.));
#123 = CARTESIAN_POINT ('', (-74.9166666666665, 2.83333333333334, -11.3333333333333));
#124 = CARTESIAN_POINT ('', (-74.8333333333333, 2.91666666666668, -11.6666666666666));
#125 = CARTESIAN_POINT ('', (-74.75, 3.00000000000002, -12.));
#126 = CARTESIAN_POINT ('', (-75., 2.75, -6.73555739531043E-16));
#127 = CARTESIAN_POINT ('', (-74.9166666666665, 2.83333333333333, -6.93966519516831E-16));
#128 = CARTESIAN_POINT ('', (-74.8333333333333, 2.91666666666666, -7.14377299502621E-16));
#129 = CARTESIAN_POINT ('', (-74.75, 3., -7.34788079488411E-16));
#130 = (
   BOUNDED_SURFACE ()
   B_SPLINE_SURFACE (5, 3, ((#106, #107, #108, #109), (#110, #111, #112, #113), (#114, #115, #116, #117), (#118, #119, #120, #121), (#122, #123, #124, #125), (#126, #127, #128, #129)), .UNSPECIFIED., .T., .F., .U.)
   B_SPLINE_SURFACE_WITH_KNOTS ((6, 6), (4, 4), (0., 1.), (0., 1.), .UNSPECIFIED.)
   SURFACE ()
   GEOMETRIC_REPRESENTATION_ITEM ()
   RATIONAL_B_SPLINE_SURFACE (((5., 5., 5., 5.), (1., 1., 1., 1.), (1., 1., 1., 1.), (1., 1., 1., 1.), (1., 1., 1., 1.), (5., 5., 5., 5.)))
   REPRESENTATION_ITEM ('')
);
#131 = ADVANCED_FACE ('', (#105), #130, .T.);
#132 = CARTESIAN_POINT ('', (0., 0., 0.));
#133 = VERTEX_POINT ('', #132);
#134 = CARTESIAN_POINT ('', (-3., 3., -7.34788079488412E-16));
#135 = CARTESIAN_POINT ('', (-2.67223386666082, 3., -7.34788079488412E-16));
#136 = CARTESIAN_POINT ('', (-1.93877419916663, 2.87841461887293, -7.05008249924336E-16));
#137 = CARTESIAN_POINT ('', (-1.02090020810345, 2.33983709939422, -5.73094802859872E-16));
#138 = CARTESIAN_POINT ('', (-0.436645053847222, 1.62116904246166, -3.9707189574549E-16));
#139 = CARTESIAN_POINT ('', (-0.0875129073392734, 0.855684764045563, -2.09582321473511E-16));
#140 = CARTESIAN_POINT ('', (3.08148791101958E-33, 0.32776613333918, -8.02795492125462E-17));
#141 = CARTESIAN_POINT ('', (0., 0., 0.));
#142 = B_SPLINE_CURVE_WITH_KNOTS ('', 3, (#134, #135, #136, #137, #138, #139, #140, #141), .UNSPECIFIED., .F., .U., (4, 1, 1, 1, 1, 4), (0., 0.208662401196191, 0.467060336615637, 0.66382629571742, 0.791337598803809, 1.), .UNSPECIFIED.);
#143 = EDGE_CURVE ('', #4, #133, #142, .T.);
#144 = ORIENTED_EDGE ('', *, *, #143, .F.);
#145 = ORIENTED_EDGE ('', *, *, #29, .T.);
#146 = ORIENTED_EDGE ('', *, *, #143, .T.);
#147 = EDGE_LOOP ('', (#144, #145, #146));
#148 = FACE_OUTER_BOUND ('', #147, .T.);
#149 = CARTESIAN_POINT ('', (-3., 3., -7.34788079488412E-16));
#150 = CARTESIAN_POINT ('', (-2.67223386666082, 3., -7.34788079488412E-16));
#151 = CARTESIAN_POINT ('', (-1.93877419916663, 2.87841461887293, -7.05008249924336E-16));
#152 = CARTESIAN_POINT ('', (-1.02090020810345, 2.33983709939422, -5.73094802859872E-16));
#153 = CARTESIAN_POINT ('', (-0.436645053847222, 1.62116904246166, -3.9707189574549E-16));
#154 = CARTESIAN_POINT ('', (-0.0875129073392734, 0.855684764045563, -2.09582321473511E-16));
#155 = CARTESIAN_POINT ('', (3.08148791101958E-33, 0.32776613333918, -8.02795492125462E-17));
#156 = CARTESIAN_POINT ('', (0., 0., 0.));
#157 = CARTESIAN_POINT ('', (-3., 3., 12.));
#158 = CARTESIAN_POINT ('', (-2.67223386666082, 3., 12.));
#159 = CARTESIAN_POINT ('', (-1.93877419916663, 2.87841461887293, 11.5136584754917));
#160 = CARTESIAN_POINT ('', (-1.02090020810345, 2.33983709939422, 9.35934839757689));
#161 = CARTESIAN_POINT ('', (-0.436645053847222, 1.62116904246166, 6.48467616984663));
#162 = CARTESIAN_POINT ('', (-0.0875129073392736, 0.855684764045563, 3.42273905618225));
#163 = CARTESIAN_POINT ('', (-8.02795492125462E-17, 0.32776613333918, 1.31106453335672));
#164 = CARTESIAN_POINT ('', (0., 0., 0.));
#165 = CARTESIAN_POINT ('', (-3., -9., 6.));
#166 = CARTESIAN_POINT ('', (-2.67223386666082, -8.99999999999999, 6.));
#167 = CARTESIAN_POINT ('', (-1.93877419916663, -8.63524385661879, 5.75682923774586));
#168 = CARTESIAN_POINT ('', (-1.02090020810345, -7.01951129818266, 4.67967419878844));
#169 = CARTESIAN_POINT ('', (-0.436645053847223, -4.86350712738497, 3.24233808492332));
#170 = CARTESIAN_POINT ('', (-0.0875129073392737, -2.56705429213669, 1.71136952809113));
#171 = CARTESIAN_POINT ('', (-1.20419323818819E-16, -0.98329840001754, 0.65553226667836));
#172 = CARTESIAN_POINT ('', (0., 0., 0.));
#173 = CARTESIAN_POINT ('', (-3., -9., -6.));
#174 = CARTESIAN_POINT ('', (-2.67223386666082, -9., -6.));
#175 = CARTESIAN_POINT ('', (-1.93877419916663, -8.63524385661879, -5.75682923774586));
#176 = CARTESIAN_POINT ('', (-1.02090020810345, -7.01951129818266, -4.67967419878844));
#177 = CARTESIAN_POINT ('', (-0.436645053847222, -4.86350712738497, -3.24233808492331));
#178 = CARTESIAN_POINT ('', (-0.0875129073392735, -2.56705429213669, -1.71136952809112));
#179 = CARTESIAN_POINT ('', (-4.01397746062732E-17, -0.98329840001754, -0.65553226667836));
#180 = CARTESIAN_POINT ('', (0., 0., 0.));
#181 = CARTESIAN_POINT ('', (-3., 3., -12.));
#182 = CARTESIAN_POINT ('', (-2.67223386666082, 3., -12.));
#183 = CARTESIAN_POINT ('', (-1.93877419916663, 2.87841461887293, -11.5136584754917));
#184 = CARTESIAN_POINT ('', (-1.02090020810345, 2.33983709939422, -9.35934839757689));
#185 = CARTESIAN_POINT ('', (-0.436645053847222, 1.62116904246166, -6.48467616984663));
#186 = CARTESIAN_POINT ('', (-0.0875129073392732, 0.855684764045562, -3.42273905618225));
#187 = CARTESIAN_POINT ('', (8.02795492125462E-17, 0.32776613333918, -1.31106453335672));
#188 = CARTESIAN_POINT ('', (0., 0., 0.));
#189 = CARTESIAN_POINT ('', (-3., 3., -7.34788079488412E-16));
#190 = CARTESIAN_POINT ('', (-2.67223386666082, 3., -7.34788079488412E-16));
#191 = CARTESIAN_POINT ('', (-1.93877419916663, 2.87841461887293, -7.05008249924336E-16));
#192 = CARTESIAN_POINT ('', (-1.02090020810345, 2.33983709939422, -5.73094802859872E-16));
#193 = CARTESIAN_POINT ('', (-0.436645053847222, 1.62116904246166, -3.9707189574549E-16));
#194 = CARTESIAN_POINT ('', (-0.0875129073392734, 0.855684764045563, -2.09582321473511E-16));
#195 = CARTESIAN_POINT ('', (3.08148791101958E-33, 0.32776613333918, -8.02795492125462E-17));
#196 = CARTESIAN_POINT ('', (0., 0., 0.));
#197 = (
   BOUNDED_SURFACE ()
   B_SPLINE_SURFACE (5, 3, ((#149, #150, #151, #152, #153, #154, #155, #156), (#157, #158, #159, #160, #161, #162, #163, #164), (#165, #166, #167, #168, #169, #170, #171, #172), (#173, #174, #175, #176, #177, #178, #179, #180), (#181, #182, #183, #184, #185, #186, #187, #188), (#189, #190, #191, #192, #193, #194, #195, #196)), .UNSPECIFIED., .T., .F., .U.)
   B_SPLINE_SURFACE_WITH_KNOTS ((6, 6), (4, 1, 1, 1, 1, 4), (0., 1.), (0., 0.208662401196191, 0.467060336615637, 0.66382629571742, 0.791337598803809, 1.), .UNSPECIFIED.)
   SURFACE ()
   GEOMETRIC_REPRESENTATION_ITEM ()
   RATIONAL_B_SPLINE_SURFACE (((5., 5., 5., 5., 5., 5., 5., 5.), (1., 1., 1., 1., 1., 1., 1., 1.), (1., 1., 1., 1., 1., 1., 1., 1.), (1., 1., 1., 1., 1., 1., 1., 1.), (1., 1., 1., 1., 1., 1., 1., 1.), (5., 5., 5., 5., 5., 5., 5., 5.)))
   REPRESENTATION_ITEM ('')
);
#198 = ADVANCED_FACE ('', (#148), #197, .T.);
#199 = CLOSED_SHELL ('', (#58, #93, #131, #198));
#200 = MANIFOLD_SOLID_BREP ('', #199);
#201 = (
   LENGTH_UNIT ()
   NAMED_UNIT (*)
   SI_UNIT (.MILLI., .METRE.)
);
#202 = (
   NAMED_UNIT (*)
   SI_UNIT ($, .STERADIAN.)
   SOLID_ANGLE_UNIT ()
);
#203 = (
   NAMED_UNIT (*)
   SI_UNIT ($, .RADIAN.)
   PLANE_ANGLE_UNIT ()
);
#204 = UNCERTAINTY_MEASURE_WITH_UNIT (LENGTH_MEASURE(0.001), #201, 'DISTANCE_ACCURACY_VALUE', '');
#205 = (
   GEOMETRIC_REPRESENTATION_CONTEXT (3)
   GLOBAL_UNCERTAINTY_ASSIGNED_CONTEXT ((#204))
   GLOBAL_UNIT_ASSIGNED_CONTEXT ((#201, #202, #203))
   REPRESENTATION_CONTEXT ('', '3D')
);
#206 = SHAPE_REPRESENTATION ('', (), #205);
#207 = APPLICATION_CONTEXT ('configuration controlled 3D designs of mechanical parts and assemblies');
#208 = APPLICATION_PROTOCOL_DEFINITION ('International Standard', 'config_control_design', 1997, #207);
#209 = MECHANICAL_CONTEXT ('', #207, 'mechanical');
#210 = PRODUCT ('', '', '', (#209));
#211 = PERSON_AND_ORGANIZATION_ROLE ('design_owner');
#212 = PERSON ('', '', $, $, $, $);
#213 = ORGANIZATION ($, '', '');
#214 = PERSON_AND_ORGANIZATION (#212, #213);
#215 = CC_DESIGN_PERSON_AND_ORGANIZATION_ASSIGNMENT (#214, #211, (#210));
#216 = PRODUCT_RELATED_PRODUCT_CATEGORY ('detail', $, (#210));
#217 = PRODUCT_DEFINITION_FORMATION_WITH_SPECIFIED_SOURCE ('', '', #210, .NOT_KNOWN.);
#218 = APPROVAL_STATUS ('approved');
#219 = APPROVAL (#218, '');
#220 = CALENDAR_DATE (2021, 26, 1);
#221 = COORDINATED_UNIVERSAL_TIME_OFFSET (0, $, .AHEAD.);
#222 = LOCAL_TIME (9, 57, 35., #221);
#223 = DATE_AND_TIME (#220, #222);
#224 = APPROVAL_DATE_TIME (#223, #219);
#225 = APPROVAL_ROLE ('');
#226 = PERSON ('', '', $, $, $, $);
#227 = ORGANIZATION ($, '', '');
#228 = PERSON_AND_ORGANIZATION (#226, #227);
#229 = APPROVAL_PERSON_ORGANIZATION (#228, #219, #225);
#230 = CC_DESIGN_APPROVAL (#219, (#217));
#231 = PERSON_AND_ORGANIZATION_ROLE ('creator');
#232 = PERSON ('', '', $, $, $, $);
#233 = ORGANIZATION ($, '', '');
#234 = PERSON_AND_ORGANIZATION (#232, #233);
#235 = CC_DESIGN_PERSON_AND_ORGANIZATION_ASSIGNMENT (#234, #231, (#217));
#236 = PERSON_AND_ORGANIZATION_ROLE ('part_supplier');
#237 = PERSON ('', '', $, $, $, $);
#238 = ORGANIZATION ($, '', '');
#239 = PERSON_AND_ORGANIZATION (#237, #238);
#240 = CC_DESIGN_PERSON_AND_ORGANIZATION_ASSIGNMENT (#239, #236, (#217));
#241 = SECURITY_CLASSIFICATION_LEVEL ('unclassified');
#242 = SECURITY_CLASSIFICATION ('', '', #241);
#243 = APPROVAL_STATUS ('approved');
#244 = APPROVAL (#243, '');
#245 = CALENDAR_DATE (2021, 26, 1);
#246 = COORDINATED_UNIVERSAL_TIME_OFFSET (0, $, .AHEAD.);
#247 = LOCAL_TIME (9, 57, 35., #246);
#248 = DATE_AND_TIME (#245, #247);
#249 = APPROVAL_DATE_TIME (#248, #244);
#250 = APPROVAL_ROLE ('');
#251 = PERSON ('', '', $, $, $, $);
#252 = ORGANIZATION ($, '', '');
#253 = PERSON_AND_ORGANIZATION (#251, #252);
#254 = APPROVAL_PERSON_ORGANIZATION (#253, #244, #250);
#255 = CC_DESIGN_APPROVAL (#244, (#242));
#256 = DATE_TIME_ROLE ('classification_date');
#257 = CALENDAR_DATE (2021, 26, 1);
#258 = COORDINATED_UNIVERSAL_TIME_OFFSET (0, $, .AHEAD.);
#259 = LOCAL_TIME (9, 57, 35., #258);
#260 = DATE_AND_TIME (#257, #259);
#261 = CC_DESIGN_DATE_AND_TIME_ASSIGNMENT (#260, #256, (#242));
#262 = PERSON_AND_ORGANIZATION_ROLE ('classification_officer');
#263 = PERSON ('', '', $, $, $, $);
#264 = ORGANIZATION ($, '', '');
#265 = PERSON_AND_ORGANIZATION (#263, #264);
#266 = CC_DESIGN_PERSON_AND_ORGANIZATION_ASSIGNMENT (#265, #262, (#242));
#267 = CC_DESIGN_SECURITY_CLASSIFICATION (#242, (#217));
#268 = DESIGN_CONTEXT ('', #207, 'design');
#269 = PRODUCT_DEFINITION ('', '', #217, #268);
#270 = APPROVAL_STATUS ('approved');
#271 = APPROVAL (#270, '');
#272 = CALENDAR_DATE (2021, 26, 1);
#273 = COORDINATED_UNIVERSAL_TIME_OFFSET (0, $, .AHEAD.);
#274 = LOCAL_TIME (9, 57, 35., #273);
#275 = DATE_AND_TIME (#272, #274);
#276 = APPROVAL_DATE_TIME (#275, #271);
#277 = APPROVAL_ROLE ('');
#278 = PERSON ('', '', $, $, $, $);
#279 = ORGANIZATION ($, '', '');
#280 = PERSON_AND_ORGANIZATION (#278, #279);
#281 = APPROVAL_PERSON_ORGANIZATION (#280, #271, #277);
#282 = CC_DESIGN_APPROVAL (#271, (#269));
#283 = DATE_TIME_ROLE ('creation_date');
#284 = CALENDAR_DATE (2021, 26, 1);
#285 = COORDINATED_UNIVERSAL_TIME_OFFSET (0, $, .AHEAD.);
#286 = LOCAL_TIME (9, 57, 35., #285);
#287 = DATE_AND_TIME (#284, #286);
#288 = CC_DESIGN_DATE_AND_TIME_ASSIGNMENT (#287, #283, (#269));
#289 = PERSON_AND_ORGANIZATION_ROLE ('creator');
#290 = PERSON ('', '', $, $, $, $);
#291 = ORGANIZATION ($, '', '');
#292 = PERSON_AND_ORGANIZATION (#290, #291);
#293 = CC_DESIGN_PERSON_AND_ORGANIZATION_ASSIGNMENT (#292, #289, (#269));
#294 = PRODUCT_DEFINITION_SHAPE ('', '', #269);
#295 = SHAPE_DEFINITION_REPRESENTATION (#294, #206);
#296 = SHAPE_REPRESENTATION_RELATIONSHIP ('', '', #206, #297);
#297 = ADVANCED_BREP_SHAPE_REPRESENTATION ('', (#200), #205);
ENDSEC;
END-ISO-10303-21;
