ISO-10303-21;
HEADER;
FILE_DESCRIPTION ((), '1');
FILE_NAME ('D:\\OneDrive - MAFord Europe\\Desktop\\250\\STEP\\250M08081B.STP', '2021-01-26T10:09:04', ('Unknown'), ('M. A. Ford Europe Ltd.'), 'OneCNC-XR8 Mill 3D Expert', 'OneCNC-XR8 Mill 3D Expert', '');
FILE_SCHEMA (('CONFIG_CONTROL_DESIGN'));
ENDSEC;

DATA;
#1 = CARTESIAN_POINT ('', (-4., 4., 0.));
#2 = CARTESIAN_POINT ('', (0., 4., 0.));
#3 = CARTESIAN_POINT ('', (0., 0., 0.));
#4 = (
   BOUNDED_CURVE ()
   B_SPLINE_CURVE (2, (#1, #2, #3), .UNSPECIFIED., .F., .U.)
   B_SPLINE_CURVE_WITH_KNOTS ((3, 3), (0., 1.), .UNSPECIFIED.)
   CURVE ()
   GEOMETRIC_REPRESENTATION_ITEM ()
   RATIONAL_B_SPLINE_CURVE ((1., 0.707106781186548, 1.))
   REPRESENTATION_ITEM ('')
);
#5 = GEOMETRIC_CURVE_SET ('', (#4, #8, #11));
#6 = CARTESIAN_POINT ('', (-4., 4., 0.));
#7 = CARTESIAN_POINT ('', (-62.75, 4., 0.));
#8 = B_SPLINE_CURVE_WITH_KNOTS ('', 1, (#6, #7), .UNSPECIFIED., .F., .U., (2, 2), (0., 1.), .UNSPECIFIED.);
#9 = CARTESIAN_POINT ('', (-62.75, 4., 0.));
#10 = CARTESIAN_POINT ('', (-63., 3.75, 0.));
#11 = B_SPLINE_CURVE_WITH_KNOTS ('', 1, (#9, #10), .UNSPECIFIED., .F., .U., (2, 2), (0., 1.), .UNSPECIFIED.);
#12 = CARTESIAN_POINT ('', (-4., 4., -9.79717439317883E-16));
#13 = VERTEX_POINT ('', #12);
#14 = CARTESIAN_POINT ('', (0., 0., 0.));
#15 = VERTEX_POINT ('', #14);
#16 = CARTESIAN_POINT ('', (-4., 4., -9.79717439317883E-16));
#17 = CARTESIAN_POINT ('', (-3.5629784888811, 4., -9.79717439317883E-16));
#18 = CARTESIAN_POINT ('', (-2.85908698127258, 3.88331612354763, -9.51138132155983E-16));
#19 = CARTESIAN_POINT ('', (-1.9646083768703, 3.47535054676717, -8.51215384602683E-16));
#20 = CARTESIAN_POINT ('', (-1.19072420123981, 2.91008724141033, -7.12765805086543E-16));
#21 = CARTESIAN_POINT ('', (-0.582193405129628, 2.16155872328221, -5.29429194327319E-16));
#22 = CARTESIAN_POINT ('', (-0.116683876452366, 1.14091301872742, -2.79443095298016E-16));
#23 = CARTESIAN_POINT ('', (1.23259516440783E-32, 0.437021511118907, -1.07039398950062E-16));
#24 = CARTESIAN_POINT ('', (0., 0., 0.));
#25 = B_SPLINE_CURVE_WITH_KNOTS ('', 3, (#16, #17, #18, #19, #20, #21, #22, #23, #24), .UNSPECIFIED., .F., .U., (4, 1, 1, 1, 1, 1, 4), (0., 0.208662401196191, 0.33617370428258, 0.467060336615637, 0.66382629571742, 0.791337598803809, 1.), .UNSPECIFIED.);
#26 = EDGE_CURVE ('', #13, #15, #25, .T.);
#27 = ORIENTED_EDGE ('', *, *, #26, .F.);
#28 = CARTESIAN_POINT ('', (-4., 4., -9.79717439317883E-16));
#29 = CARTESIAN_POINT ('', (-4., 4., 16.));
#30 = CARTESIAN_POINT ('', (-4., -12., 8.));
#31 = CARTESIAN_POINT ('', (-4., -12., -8.));
#32 = CARTESIAN_POINT ('', (-4., 4., -16.));
#33 = CARTESIAN_POINT ('', (-4., 4., -9.79717439317883E-16));
#34 = (
   BOUNDED_CURVE ()
   B_SPLINE_CURVE (5, (#28, #29, #30, #31, #32, #33), .UNSPECIFIED., .T., .U.)
   B_SPLINE_CURVE_WITH_KNOTS ((6, 6), (0., 1.), .UNSPECIFIED.)
   CURVE ()
   GEOMETRIC_REPRESENTATION_ITEM ()
   RATIONAL_B_SPLINE_CURVE ((5., 1., 1., 1., 1., 5.))
   REPRESENTATION_ITEM ('')
);
#35 = EDGE_CURVE ('', #13, #13, #34, .T.);
#36 = ORIENTED_EDGE ('', *, *, #35, .T.);
#37 = ORIENTED_EDGE ('', *, *, #26, .T.);
#38 = EDGE_LOOP ('', (#27, #36, #37));
#39 = FACE_OUTER_BOUND ('', #38, .T.);
#40 = CARTESIAN_POINT ('', (-4., 4., -9.79717439317883E-16));
#41 = CARTESIAN_POINT ('', (-3.5629784888811, 4., -9.79717439317883E-16));
#42 = CARTESIAN_POINT ('', (-2.85908698127258, 3.88331612354763, -9.51138132155983E-16));
#43 = CARTESIAN_POINT ('', (-1.9646083768703, 3.47535054676717, -8.51215384602683E-16));
#44 = CARTESIAN_POINT ('', (-1.19072420123981, 2.91008724141033, -7.12765805086543E-16));
#45 = CARTESIAN_POINT ('', (-0.582193405129628, 2.16155872328221, -5.29429194327319E-16));
#46 = CARTESIAN_POINT ('', (-0.116683876452366, 1.14091301872742, -2.79443095298016E-16));
#47 = CARTESIAN_POINT ('', (1.23259516440783E-32, 0.437021511118907, -1.07039398950062E-16));
#48 = CARTESIAN_POINT ('', (0., 0., 0.));
#49 = CARTESIAN_POINT ('', (-4., 4., 16.));
#50 = CARTESIAN_POINT ('', (-3.5629784888811, 4., 16.));
#51 = CARTESIAN_POINT ('', (-2.85908698127258, 3.88331612354763, 15.5332644941905));
#52 = CARTESIAN_POINT ('', (-1.9646083768703, 3.47535054676717, 13.9014021870687));
#53 = CARTESIAN_POINT ('', (-1.19072420123981, 2.91008724141034, 11.6403489656413));
#54 = CARTESIAN_POINT ('', (-0.582193405129629, 2.16155872328221, 8.64623489312884));
#55 = CARTESIAN_POINT ('', (-0.116683876452366, 1.14091301872742, 4.56365207490968));
#56 = CARTESIAN_POINT ('', (-1.07039398950062E-16, 0.437021511118907, 1.74808604447563));
#57 = CARTESIAN_POINT ('', (0., 0., 0.));
#58 = CARTESIAN_POINT ('', (-4., -12., 8.));
#59 = CARTESIAN_POINT ('', (-3.5629784888811, -12., 8.));
#60 = CARTESIAN_POINT ('', (-2.85908698127258, -11.6499483706429, 7.76663224709526));
#61 = CARTESIAN_POINT ('', (-1.9646083768703, -10.4260516403015, 6.95070109353434));
#62 = CARTESIAN_POINT ('', (-1.19072420123981, -8.730261724231, 5.82017448282067));
#63 = CARTESIAN_POINT ('', (-0.582193405129629, -6.48467616984663, 4.32311744656442));
#64 = CARTESIAN_POINT ('', (-0.116683876452366, -3.42273905618226, 2.28182603745484));
#65 = CARTESIAN_POINT ('', (-1.60559098425093E-16, -1.31106453335672, 0.874043022237813));
#66 = CARTESIAN_POINT ('', (0., 0., 0.));
#67 = CARTESIAN_POINT ('', (-4., -12., -8.));
#68 = CARTESIAN_POINT ('', (-3.5629784888811, -12., -8.));
#69 = CARTESIAN_POINT ('', (-2.85908698127258, -11.6499483706429, -7.76663224709526));
#70 = CARTESIAN_POINT ('', (-1.9646083768703, -10.4260516403015, -6.95070109353433));
#71 = CARTESIAN_POINT ('', (-1.19072420123981, -8.73026172423101, -5.82017448282067));
#72 = CARTESIAN_POINT ('', (-0.582193405129628, -6.48467616984663, -4.32311744656442));
#73 = CARTESIAN_POINT ('', (-0.116683876452366, -3.42273905618226, -2.28182603745484));
#74 = CARTESIAN_POINT ('', (-5.35196994750309E-17, -1.31106453335672, -0.874043022237813));
#75 = CARTESIAN_POINT ('', (0., 0., 0.));
#76 = CARTESIAN_POINT ('', (-4., 4., -16.));
#77 = CARTESIAN_POINT ('', (-3.56297848888109, 4., -16.));
#78 = CARTESIAN_POINT ('', (-2.85908698127258, 3.88331612354763, -15.5332644941905));
#79 = CARTESIAN_POINT ('', (-1.9646083768703, 3.47535054676717, -13.9014021870687));
#80 = CARTESIAN_POINT ('', (-1.19072420123981, 2.91008724141033, -11.6403489656413));
#81 = CARTESIAN_POINT ('', (-0.582193405129628, 2.16155872328221, -8.64623489312884));
#82 = CARTESIAN_POINT ('', (-0.116683876452365, 1.14091301872742, -4.56365207490968));
#83 = CARTESIAN_POINT ('', (1.07039398950062E-16, 0.437021511118906, -1.74808604447563));
#84 = CARTESIAN_POINT ('', (0., 0., 0.));
#85 = CARTESIAN_POINT ('', (-4., 4., -9.79717439317883E-16));
#86 = CARTESIAN_POINT ('', (-3.5629784888811, 4., -9.79717439317883E-16));
#87 = CARTESIAN_POINT ('', (-2.85908698127258, 3.88331612354763, -9.51138132155983E-16));
#88 = CARTESIAN_POINT ('', (-1.9646083768703, 3.47535054676717, -8.51215384602683E-16));
#89 = CARTESIAN_POINT ('', (-1.19072420123981, 2.91008724141033, -7.12765805086543E-16));
#90 = CARTESIAN_POINT ('', (-0.582193405129628, 2.16155872328221, -5.29429194327319E-16));
#91 = CARTESIAN_POINT ('', (-0.116683876452366, 1.14091301872742, -2.79443095298016E-16));
#92 = CARTESIAN_POINT ('', (1.23259516440783E-32, 0.437021511118907, -1.07039398950062E-16));
#93 = CARTESIAN_POINT ('', (0., 0., 0.));
#94 = (
   BOUNDED_SURFACE ()
   B_SPLINE_SURFACE (5, 3, ((#40, #41, #42, #43, #44, #45, #46, #47, #48), (#49, #50, #51, #52, #53, #54, #55, #56, #57), (#58, #59, #60, #61, #62, #63, #64, #65, #66), (#67, #68, #69, #70, #71, #72, #73, #74, #75), (#76, #77, #78, #79, #80, #81, #82, #83, #84), (#85, #86, #87, #88, #89, #90, #91, #92, #93)), .UNSPECIFIED., .T., .F., .U.)
   B_SPLINE_SURFACE_WITH_KNOTS ((6, 6), (4, 1, 1, 1, 1, 1, 4), (0., 1.), (0., 0.208662401196191, 0.33617370428258, 0.467060336615637, 0.66382629571742, 0.791337598803809, 1.), .UNSPECIFIED.)
   SURFACE ()
   GEOMETRIC_REPRESENTATION_ITEM ()
   RATIONAL_B_SPLINE_SURFACE (((5., 5., 5., 5., 5., 5., 5., 5., 5.), (1., 1., 1., 1., 1., 1., 1., 1., 1.), (1., 1., 1., 1., 1., 1., 1., 1., 1.), (1., 1., 1., 1., 1., 1., 1., 1., 1.), (1., 1., 1., 1., 1., 1., 1., 1., 1.), (5., 5., 5., 5., 5., 5., 5., 5., 5.)))
   REPRESENTATION_ITEM ('')
);
#95 = ADVANCED_FACE ('', (#39), #94, .T.);
#96 = CARTESIAN_POINT ('', (-62.75, 4., -9.79717439317882E-16));
#97 = VERTEX_POINT ('', #96);
#98 = CARTESIAN_POINT ('', (-62.75, 4., -9.79717439317882E-16));
#99 = CARTESIAN_POINT ('', (-43.1666666666668, 4., -9.79717439317882E-16));
#100 = CARTESIAN_POINT ('', (-23.5833333333333, 4., -9.79717439317882E-16));
#101 = CARTESIAN_POINT ('', (-4., 4., -9.79717439317882E-16));
#102 = B_SPLINE_CURVE_WITH_KNOTS ('', 3, (#98, #99, #100, #101), .UNSPECIFIED., .F., .U., (4, 4), (0., 1.), .UNSPECIFIED.);
#103 = EDGE_CURVE ('', #97, #13, #102, .T.);
#104 = ORIENTED_EDGE ('', *, *, #103, .F.);
#105 = CARTESIAN_POINT ('', (-62.75, 4., -9.79717439317882E-16));
#106 = CARTESIAN_POINT ('', (-62.75, 3.99999999999999, 16.));
#107 = CARTESIAN_POINT ('', (-62.75, -12., 7.99999999999998));
#108 = CARTESIAN_POINT ('', (-62.75, -12., -8.));
#109 = CARTESIAN_POINT ('', (-62.75, 4.00000000000001, -16.));
#110 = CARTESIAN_POINT ('', (-62.75, 4., -9.79717439317882E-16));
#111 = (
   BOUNDED_CURVE ()
   B_SPLINE_CURVE (5, (#105, #106, #107, #108, #109, #110), .UNSPECIFIED., .T., .U.)
   B_SPLINE_CURVE_WITH_KNOTS ((6, 6), (0., 1.), .UNSPECIFIED.)
   CURVE ()
   GEOMETRIC_REPRESENTATION_ITEM ()
   RATIONAL_B_SPLINE_CURVE ((5., 1., 1., 1., 1., 5.))
   REPRESENTATION_ITEM ('')
);
#112 = EDGE_CURVE ('', #97, #97, #111, .T.);
#113 = ORIENTED_EDGE ('', *, *, #112, .T.);
#114 = ORIENTED_EDGE ('', *, *, #103, .T.);
#115 = ORIENTED_EDGE ('', *, *, #35, .F.);
#116 = EDGE_LOOP ('', (#104, #113, #114, #115));
#117 = FACE_OUTER_BOUND ('', #116, .T.);
#118 = CARTESIAN_POINT ('', (-62.75, 4., -9.79717439317882E-16));
#119 = CARTESIAN_POINT ('', (-43.1666666666668, 4., -9.79717439317882E-16));
#120 = CARTESIAN_POINT ('', (-23.5833333333333, 4., -9.79717439317882E-16));
#121 = CARTESIAN_POINT ('', (-4., 4., -9.79717439317882E-16));
#122 = CARTESIAN_POINT ('', (-62.75, 3.99999999999999, 16.));
#123 = CARTESIAN_POINT ('', (-43.1666666666668, 3.99999999999999, 16.));
#124 = CARTESIAN_POINT ('', (-23.5833333333333, 4., 16.));
#125 = CARTESIAN_POINT ('', (-4., 4., 16.));
#126 = CARTESIAN_POINT ('', (-62.75, -12., 7.99999999999998));
#127 = CARTESIAN_POINT ('', (-43.1666666666668, -12., 7.99999999999999));
#128 = CARTESIAN_POINT ('', (-23.5833333333333, -12., 7.99999999999999));
#129 = CARTESIAN_POINT ('', (-4., -12., 8.));
#130 = CARTESIAN_POINT ('', (-62.75, -12., -8.));
#131 = CARTESIAN_POINT ('', (-43.1666666666668, -12., -8.));
#132 = CARTESIAN_POINT ('', (-23.5833333333333, -12., -8.));
#133 = CARTESIAN_POINT ('', (-4., -12., -8.));
#134 = CARTESIAN_POINT ('', (-62.75, 4.00000000000001, -16.));
#135 = CARTESIAN_POINT ('', (-43.1666666666668, 4.00000000000001, -16.));
#136 = CARTESIAN_POINT ('', (-23.5833333333333, 4., -16.));
#137 = CARTESIAN_POINT ('', (-4., 4., -16.));
#138 = CARTESIAN_POINT ('', (-62.75, 4., -9.79717439317882E-16));
#139 = CARTESIAN_POINT ('', (-43.1666666666668, 4., -9.79717439317882E-16));
#140 = CARTESIAN_POINT ('', (-23.5833333333333, 4., -9.79717439317882E-16));
#141 = CARTESIAN_POINT ('', (-4., 4., -9.79717439317882E-16));
#142 = (
   BOUNDED_SURFACE ()
   B_SPLINE_SURFACE (5, 3, ((#118, #119, #120, #121), (#122, #123, #124, #125), (#126, #127, #128, #129), (#130, #131, #132, #133), (#134, #135, #136, #137), (#138, #139, #140, #141)), .UNSPECIFIED., .T., .F., .U.)
   B_SPLINE_SURFACE_WITH_KNOTS ((6, 6), (4, 4), (0., 1.), (0., 1.), .UNSPECIFIED.)
   SURFACE ()
   GEOMETRIC_REPRESENTATION_ITEM ()
   RATIONAL_B_SPLINE_SURFACE (((5., 5., 5., 5.), (1., 1., 1., 1.), (1., 1., 1., 1.), (1., 1., 1., 1.), (1., 1., 1., 1.), (5., 5., 5., 5.)))
   REPRESENTATION_ITEM ('')
);
#143 = ADVANCED_FACE ('', (#117), #142, .T.);
#144 = CARTESIAN_POINT ('', (-63., 3.85763741731416E-15, -3.85763741731416E-15));
#145 = VERTEX_POINT ('', #144);
#146 = CARTESIAN_POINT ('', (-63., 3.75, -9.18485099360514E-16));
#147 = VERTEX_POINT ('', #146);
#148 = CARTESIAN_POINT ('', (-63., 3.85763741731416E-15, -3.85763741731416E-15));
#149 = CARTESIAN_POINT ('', (-63., 3.75, -9.18485099360514E-16));
#150 = B_SPLINE_CURVE_WITH_KNOTS ('', 1, (#148, #149), .UNSPECIFIED., .F., .U., (2, 2), (0., 1.), .UNSPECIFIED.);
#151 = EDGE_CURVE ('', #145, #147, #150, .T.);
#152 = ORIENTED_EDGE ('', *, *, #151, .F.);
#153 = ORIENTED_EDGE ('', *, *, #151, .T.);
#154 = CARTESIAN_POINT ('', (-63., 3.75, -9.18485099360514E-16));
#155 = CARTESIAN_POINT ('', (-63., 3.74999999999999, 15.));
#156 = CARTESIAN_POINT ('', (-63., -11.25, 7.49999999999998));
#157 = CARTESIAN_POINT ('', (-63., -11.25, -7.5));
#158 = CARTESIAN_POINT ('', (-63., 3.75000000000001, -15.));
#159 = CARTESIAN_POINT ('', (-63., 3.75, -9.18485099360514E-16));
#160 = (
   BOUNDED_CURVE ()
   B_SPLINE_CURVE (5, (#154, #155, #156, #157, #158, #159), .UNSPECIFIED., .T., .U.)
   B_SPLINE_CURVE_WITH_KNOTS ((6, 6), (0., 1.), .UNSPECIFIED.)
   CURVE ()
   GEOMETRIC_REPRESENTATION_ITEM ()
   RATIONAL_B_SPLINE_CURVE ((5., 1., 1., 1., 1., 5.))
   REPRESENTATION_ITEM ('')
);
#161 = EDGE_CURVE ('', #147, #147, #160, .T.);
#162 = ORIENTED_EDGE ('', *, *, #161, .F.);
#163 = EDGE_LOOP ('', (#152, #153, #162));
#164 = FACE_OUTER_BOUND ('', #163, .T.);
#165 = CARTESIAN_POINT ('', (-63., 3.85763741731416E-15, -3.85763741731416E-15));
#166 = CARTESIAN_POINT ('', (-63., 3.75, -9.18485099360514E-16));
#167 = CARTESIAN_POINT ('', (-63., 3.85763741731416E-15, -3.85763741731416E-15));
#168 = CARTESIAN_POINT ('', (-63., 3.74999999999999, 15.));
#169 = CARTESIAN_POINT ('', (-63., 3.85763741731416E-15, -3.85763741731416E-15));
#170 = CARTESIAN_POINT ('', (-63., -11.25, 7.49999999999998));
#171 = CARTESIAN_POINT ('', (-63., 3.85763741731416E-15, -3.85763741731416E-15));
#172 = CARTESIAN_POINT ('', (-63., -11.25, -7.5));
#173 = CARTESIAN_POINT ('', (-63., 3.85763741731416E-15, -3.85763741731416E-15));
#174 = CARTESIAN_POINT ('', (-63., 3.75000000000001, -15.));
#175 = CARTESIAN_POINT ('', (-63., 3.85763741731416E-15, -3.85763741731416E-15));
#176 = CARTESIAN_POINT ('', (-63., 3.75, -9.18485099360514E-16));
#177 = (
   BOUNDED_SURFACE ()
   B_SPLINE_SURFACE (5, 1, ((#165, #166), (#167, #168), (#169, #170), (#171, #172), (#173, #174), (#175, #176)), .UNSPECIFIED., .T., .F., .U.)
   B_SPLINE_SURFACE_WITH_KNOTS ((6, 6), (2, 2), (0., 1.), (0., 1.), .UNSPECIFIED.)
   SURFACE ()
   GEOMETRIC_REPRESENTATION_ITEM ()
   RATIONAL_B_SPLINE_SURFACE (((5., 5.), (1., 1.), (1., 1.), (1., 1.), (1., 1.), (5., 5.)))
   REPRESENTATION_ITEM ('')
);
#178 = ADVANCED_FACE ('', (#164), #177, .T.);
#179 = CARTESIAN_POINT ('', (-63., 3.75, -9.18485099360514E-16));
#180 = CARTESIAN_POINT ('', (-62.9166666666666, 3.83333333333332, -9.38895879346302E-16));
#181 = CARTESIAN_POINT ('', (-62.8333333333334, 3.91666666666667, -9.59306659332093E-16));
#182 = CARTESIAN_POINT ('', (-62.75, 4., -9.79717439317882E-16));
#183 = B_SPLINE_CURVE_WITH_KNOTS ('', 3, (#179, #180, #181, #182), .UNSPECIFIED., .F., .U., (4, 4), (0., 1.), .UNSPECIFIED.);
#184 = EDGE_CURVE ('', #147, #97, #183, .T.);
#185 = ORIENTED_EDGE ('', *, *, #184, .F.);
#186 = ORIENTED_EDGE ('', *, *, #161, .T.);
#187 = ORIENTED_EDGE ('', *, *, #184, .T.);
#188 = ORIENTED_EDGE ('', *, *, #112, .F.);
#189 = EDGE_LOOP ('', (#185, #186, #187, #188));
#190 = FACE_OUTER_BOUND ('', #189, .T.);
#191 = CARTESIAN_POINT ('', (-63., 3.75, -9.18485099360514E-16));
#192 = CARTESIAN_POINT ('', (-62.9166666666666, 3.83333333333332, -9.38895879346302E-16));
#193 = CARTESIAN_POINT ('', (-62.8333333333334, 3.91666666666667, -9.59306659332093E-16));
#194 = CARTESIAN_POINT ('', (-62.75, 4., -9.79717439317882E-16));
#195 = CARTESIAN_POINT ('', (-63., 3.74999999999999, 15.));
#196 = CARTESIAN_POINT ('', (-62.9166666666666, 3.83333333333331, 15.3333333333333));
#197 = CARTESIAN_POINT ('', (-62.8333333333334, 3.91666666666666, 15.6666666666667));
#198 = CARTESIAN_POINT ('', (-62.75, 3.99999999999999, 16.));
#199 = CARTESIAN_POINT ('', (-63., -11.25, 7.49999999999998));
#200 = CARTESIAN_POINT ('', (-62.9166666666666, -11.5, 7.66666666666663));
#201 = CARTESIAN_POINT ('', (-62.8333333333334, -11.75, 7.83333333333332));
#202 = CARTESIAN_POINT ('', (-62.75, -12., 7.99999999999998));
#203 = CARTESIAN_POINT ('', (-63., -11.25, -7.5));
#204 = CARTESIAN_POINT ('', (-62.9166666666666, -11.5, -7.66666666666665));
#205 = CARTESIAN_POINT ('', (-62.8333333333334, -11.75, -7.83333333333334));
#206 = CARTESIAN_POINT ('', (-62.75, -12., -8.));
#207 = CARTESIAN_POINT ('', (-63., 3.75000000000001, -15.));
#208 = CARTESIAN_POINT ('', (-62.9166666666666, 3.83333333333334, -15.3333333333333));
#209 = CARTESIAN_POINT ('', (-62.8333333333334, 3.91666666666668, -15.6666666666667));
#210 = CARTESIAN_POINT ('', (-62.75, 4.00000000000001, -16.));
#211 = CARTESIAN_POINT ('', (-63., 3.75, -9.18485099360514E-16));
#212 = CARTESIAN_POINT ('', (-62.9166666666666, 3.83333333333332, -9.38895879346302E-16));
#213 = CARTESIAN_POINT ('', (-62.8333333333334, 3.91666666666667, -9.59306659332093E-16));
#214 = CARTESIAN_POINT ('', (-62.75, 4., -9.79717439317882E-16));
#215 = (
   BOUNDED_SURFACE ()
   B_SPLINE_SURFACE (5, 3, ((#191, #192, #193, #194), (#195, #196, #197, #198), (#199, #200, #201, #202), (#203, #204, #205, #206), (#207, #208, #209, #210), (#211, #212, #213, #214)), .UNSPECIFIED., .T., .F., .U.)
   B_SPLINE_SURFACE_WITH_KNOTS ((6, 6), (4, 4), (0., 1.), (0., 1.), .UNSPECIFIED.)
   SURFACE ()
   GEOMETRIC_REPRESENTATION_ITEM ()
   RATIONAL_B_SPLINE_SURFACE (((5., 5., 5., 5.), (1., 1., 1., 1.), (1., 1., 1., 1.), (1., 1., 1., 1.), (1., 1., 1., 1.), (5., 5., 5., 5.)))
   REPRESENTATION_ITEM ('')
);
#216 = ADVANCED_FACE ('', (#190), #215, .T.);
#217 = CLOSED_SHELL ('', (#95, #143, #178, #216));
#218 = MANIFOLD_SOLID_BREP ('', #217);
#219 = (
   LENGTH_UNIT ()
   NAMED_UNIT (*)
   SI_UNIT (.MILLI., .METRE.)
);
#220 = (
   NAMED_UNIT (*)
   SI_UNIT ($, .STERADIAN.)
   SOLID_ANGLE_UNIT ()
);
#221 = (
   NAMED_UNIT (*)
   SI_UNIT ($, .RADIAN.)
   PLANE_ANGLE_UNIT ()
);
#222 = UNCERTAINTY_MEASURE_WITH_UNIT (LENGTH_MEASURE(0.001), #219, 'DISTANCE_ACCURACY_VALUE', '');
#223 = (
   GEOMETRIC_REPRESENTATION_CONTEXT (3)
   GLOBAL_UNCERTAINTY_ASSIGNED_CONTEXT ((#222))
   GLOBAL_UNIT_ASSIGNED_CONTEXT ((#219, #220, #221))
   REPRESENTATION_CONTEXT ('', '3D')
);
#224 = SHAPE_REPRESENTATION ('', (), #223);
#225 = APPLICATION_CONTEXT ('configuration controlled 3D designs of mechanical parts and assemblies');
#226 = APPLICATION_PROTOCOL_DEFINITION ('International Standard', 'config_control_design', 1997, #225);
#227 = MECHANICAL_CONTEXT ('', #225, 'mechanical');
#228 = PRODUCT ('', '', '', (#227));
#229 = PERSON_AND_ORGANIZATION_ROLE ('design_owner');
#230 = PERSON ('', '', $, $, $, $);
#231 = ORGANIZATION ($, '', '');
#232 = PERSON_AND_ORGANIZATION (#230, #231);
#233 = CC_DESIGN_PERSON_AND_ORGANIZATION_ASSIGNMENT (#232, #229, (#228));
#234 = PRODUCT_RELATED_PRODUCT_CATEGORY ('detail', $, (#228));
#235 = PRODUCT_DEFINITION_FORMATION_WITH_SPECIFIED_SOURCE ('', '', #228, .NOT_KNOWN.);
#236 = APPROVAL_STATUS ('approved');
#237 = APPROVAL (#236, '');
#238 = CALENDAR_DATE (2021, 26, 1);
#239 = COORDINATED_UNIVERSAL_TIME_OFFSET (0, $, .AHEAD.);
#240 = LOCAL_TIME (10, 9, 4., #239);
#241 = DATE_AND_TIME (#238, #240);
#242 = APPROVAL_DATE_TIME (#241, #237);
#243 = APPROVAL_ROLE ('');
#244 = PERSON ('', '', $, $, $, $);
#245 = ORGANIZATION ($, '', '');
#246 = PERSON_AND_ORGANIZATION (#244, #245);
#247 = APPROVAL_PERSON_ORGANIZATION (#246, #237, #243);
#248 = CC_DESIGN_APPROVAL (#237, (#235));
#249 = PERSON_AND_ORGANIZATION_ROLE ('creator');
#250 = PERSON ('', '', $, $, $, $);
#251 = ORGANIZATION ($, '', '');
#252 = PERSON_AND_ORGANIZATION (#250, #251);
#253 = CC_DESIGN_PERSON_AND_ORGANIZATION_ASSIGNMENT (#252, #249, (#235));
#254 = PERSON_AND_ORGANIZATION_ROLE ('part_supplier');
#255 = PERSON ('', '', $, $, $, $);
#256 = ORGANIZATION ($, '', '');
#257 = PERSON_AND_ORGANIZATION (#255, #256);
#258 = CC_DESIGN_PERSON_AND_ORGANIZATION_ASSIGNMENT (#257, #254, (#235));
#259 = SECURITY_CLASSIFICATION_LEVEL ('unclassified');
#260 = SECURITY_CLASSIFICATION ('', '', #259);
#261 = APPROVAL_STATUS ('approved');
#262 = APPROVAL (#261, '');
#263 = CALENDAR_DATE (2021, 26, 1);
#264 = COORDINATED_UNIVERSAL_TIME_OFFSET (0, $, .AHEAD.);
#265 = LOCAL_TIME (10, 9, 4., #264);
#266 = DATE_AND_TIME (#263, #265);
#267 = APPROVAL_DATE_TIME (#266, #262);
#268 = APPROVAL_ROLE ('');
#269 = PERSON ('', '', $, $, $, $);
#270 = ORGANIZATION ($, '', '');
#271 = PERSON_AND_ORGANIZATION (#269, #270);
#272 = APPROVAL_PERSON_ORGANIZATION (#271, #262, #268);
#273 = CC_DESIGN_APPROVAL (#262, (#260));
#274 = DATE_TIME_ROLE ('classification_date');
#275 = CALENDAR_DATE (2021, 26, 1);
#276 = COORDINATED_UNIVERSAL_TIME_OFFSET (0, $, .AHEAD.);
#277 = LOCAL_TIME (10, 9, 4., #276);
#278 = DATE_AND_TIME (#275, #277);
#279 = CC_DESIGN_DATE_AND_TIME_ASSIGNMENT (#278, #274, (#260));
#280 = PERSON_AND_ORGANIZATION_ROLE ('classification_officer');
#281 = PERSON ('', '', $, $, $, $);
#282 = ORGANIZATION ($, '', '');
#283 = PERSON_AND_ORGANIZATION (#281, #282);
#284 = CC_DESIGN_PERSON_AND_ORGANIZATION_ASSIGNMENT (#283, #280, (#260));
#285 = CC_DESIGN_SECURITY_CLASSIFICATION (#260, (#235));
#286 = DESIGN_CONTEXT ('', #225, 'design');
#287 = PRODUCT_DEFINITION ('', '', #235, #286);
#288 = APPROVAL_STATUS ('approved');
#289 = APPROVAL (#288, '');
#290 = CALENDAR_DATE (2021, 26, 1);
#291 = COORDINATED_UNIVERSAL_TIME_OFFSET (0, $, .AHEAD.);
#292 = LOCAL_TIME (10, 9, 4., #291);
#293 = DATE_AND_TIME (#290, #292);
#294 = APPROVAL_DATE_TIME (#293, #289);
#295 = APPROVAL_ROLE ('');
#296 = PERSON ('', '', $, $, $, $);
#297 = ORGANIZATION ($, '', '');
#298 = PERSON_AND_ORGANIZATION (#296, #297);
#299 = APPROVAL_PERSON_ORGANIZATION (#298, #289, #295);
#300 = CC_DESIGN_APPROVAL (#289, (#287));
#301 = DATE_TIME_ROLE ('creation_date');
#302 = CALENDAR_DATE (2021, 26, 1);
#303 = COORDINATED_UNIVERSAL_TIME_OFFSET (0, $, .AHEAD.);
#304 = LOCAL_TIME (10, 9, 4., #303);
#305 = DATE_AND_TIME (#302, #304);
#306 = CC_DESIGN_DATE_AND_TIME_ASSIGNMENT (#305, #301, (#287));
#307 = PERSON_AND_ORGANIZATION_ROLE ('creator');
#308 = PERSON ('', '', $, $, $, $);
#309 = ORGANIZATION ($, '', '');
#310 = PERSON_AND_ORGANIZATION (#308, #309);
#311 = CC_DESIGN_PERSON_AND_ORGANIZATION_ASSIGNMENT (#310, #307, (#287));
#312 = PRODUCT_DEFINITION_SHAPE ('', '', #287);
#313 = SHAPE_DEFINITION_REPRESENTATION (#312, #224);
#314 = SHAPE_REPRESENTATION_RELATIONSHIP ('', '', #224, #315);
#315 = GEOMETRICALLY_BOUNDED_WIREFRAME_SHAPE_REPRESENTATION ('', (#5), #223);
#316 = SHAPE_REPRESENTATION_RELATIONSHIP ('', '', #224, #317);
#317 = ADVANCED_BREP_SHAPE_REPRESENTATION ('', (#218), #223);
ENDSEC;
END-ISO-10303-21;
