ISO-10303-21;
HEADER;
FILE_DESCRIPTION ((), '1');
FILE_NAME ('D:\\OneDrive - MAFord Europe\\Desktop\\250\\STEP\\250M10102B.STP', '2021-01-26T10:22:59', ('Unknown'), ('M. A. Ford Europe Ltd.'), 'OneCNC-XR8 Mill 3D Expert', 'OneCNC-XR8 Mill 3D Expert', '');
FILE_SCHEMA (('CONFIG_CONTROL_DESIGN'));
ENDSEC;

DATA;
#1 = CARTESIAN_POINT ('', (-99.75, 5., -1.22464679914735E-15));
#2 = VERTEX_POINT ('', #1);
#3 = CARTESIAN_POINT ('', (-5., 5., -1.22464679914735E-15));
#4 = VERTEX_POINT ('', #3);
#5 = CARTESIAN_POINT ('', (-99.75, 5., -1.22464679914735E-15));
#6 = CARTESIAN_POINT ('', (-68.1666666666665, 5., -1.22464679914735E-15));
#7 = CARTESIAN_POINT ('', (-36.5833333333333, 5., -1.22464679914735E-15));
#8 = CARTESIAN_POINT ('', (-5., 5., -1.22464679914735E-15));
#9 = B_SPLINE_CURVE_WITH_KNOTS ('', 3, (#5, #6, #7, #8), .UNSPECIFIED., .F., .U., (4, 4), (0., 1.), .UNSPECIFIED.);
#10 = EDGE_CURVE ('', #2, #4, #9, .T.);
#11 = ORIENTED_EDGE ('', *, *, #10, .F.);
#12 = CARTESIAN_POINT ('', (-99.75, 5., -1.22464679914735E-15));
#13 = CARTESIAN_POINT ('', (-99.75, 4.99999999999998, 20.));
#14 = CARTESIAN_POINT ('', (-99.75, -15., 9.99999999999997));
#15 = CARTESIAN_POINT ('', (-99.75, -15., -10.));
#16 = CARTESIAN_POINT ('', (-99.75, 5.00000000000002, -20.));
#17 = CARTESIAN_POINT ('', (-99.75, 5., -1.22464679914735E-15));
#18 = (
   BOUNDED_CURVE ()
   B_SPLINE_CURVE (5, (#12, #13, #14, #15, #16, #17), .UNSPECIFIED., .T., .U.)
   B_SPLINE_CURVE_WITH_KNOTS ((6, 6), (0., 1.), .UNSPECIFIED.)
   CURVE ()
   GEOMETRIC_REPRESENTATION_ITEM ()
   RATIONAL_B_SPLINE_CURVE ((5., 1., 1., 1., 1., 5.))
   REPRESENTATION_ITEM ('')
);
#19 = EDGE_CURVE ('', #2, #2, #18, .T.);
#20 = ORIENTED_EDGE ('', *, *, #19, .T.);
#21 = ORIENTED_EDGE ('', *, *, #10, .T.);
#22 = CARTESIAN_POINT ('', (-5., 5., -1.22464679914735E-15));
#23 = CARTESIAN_POINT ('', (-5., 5., 20.));
#24 = CARTESIAN_POINT ('', (-5., -15., 10.));
#25 = CARTESIAN_POINT ('', (-5., -15., -10.));
#26 = CARTESIAN_POINT ('', (-5., 5., -20.));
#27 = CARTESIAN_POINT ('', (-5., 5., -1.22464679914735E-15));
#28 = (
   BOUNDED_CURVE ()
   B_SPLINE_CURVE (5, (#22, #23, #24, #25, #26, #27), .UNSPECIFIED., .T., .U.)
   B_SPLINE_CURVE_WITH_KNOTS ((6, 6), (0., 1.), .UNSPECIFIED.)
   CURVE ()
   GEOMETRIC_REPRESENTATION_ITEM ()
   RATIONAL_B_SPLINE_CURVE ((5., 1., 1., 1., 1., 5.))
   REPRESENTATION_ITEM ('')
);
#29 = EDGE_CURVE ('', #4, #4, #28, .T.);
#30 = ORIENTED_EDGE ('', *, *, #29, .F.);
#31 = EDGE_LOOP ('', (#11, #20, #21, #30));
#32 = FACE_OUTER_BOUND ('', #31, .T.);
#33 = CARTESIAN_POINT ('', (-99.75, 5., -1.22464679914735E-15));
#34 = CARTESIAN_POINT ('', (-68.1666666666665, 5., -1.22464679914735E-15));
#35 = CARTESIAN_POINT ('', (-36.5833333333333, 5., -1.22464679914735E-15));
#36 = CARTESIAN_POINT ('', (-5., 5., -1.22464679914735E-15));
#37 = CARTESIAN_POINT ('', (-99.75, 4.99999999999998, 20.));
#38 = CARTESIAN_POINT ('', (-68.1666666666665, 4.99999999999999, 20.));
#39 = CARTESIAN_POINT ('', (-36.5833333333333, 5., 20.));
#40 = CARTESIAN_POINT ('', (-5., 5., 20.));
#41 = CARTESIAN_POINT ('', (-99.75, -15., 9.99999999999997));
#42 = CARTESIAN_POINT ('', (-68.1666666666665, -15., 9.99999999999998));
#43 = CARTESIAN_POINT ('', (-36.5833333333333, -15., 9.99999999999999));
#44 = CARTESIAN_POINT ('', (-5., -15., 10.));
#45 = CARTESIAN_POINT ('', (-99.75, -15., -10.));
#46 = CARTESIAN_POINT ('', (-68.1666666666665, -15., -10.));
#47 = CARTESIAN_POINT ('', (-36.5833333333333, -15., -10.));
#48 = CARTESIAN_POINT ('', (-5., -15., -10.));
#49 = CARTESIAN_POINT ('', (-99.75, 5.00000000000002, -20.));
#50 = CARTESIAN_POINT ('', (-68.1666666666665, 5.00000000000001, -20.));
#51 = CARTESIAN_POINT ('', (-36.5833333333333, 5.00000000000001, -20.));
#52 = CARTESIAN_POINT ('', (-5., 5., -20.));
#53 = CARTESIAN_POINT ('', (-99.75, 5., -1.22464679914735E-15));
#54 = CARTESIAN_POINT ('', (-68.1666666666665, 5., -1.22464679914735E-15));
#55 = CARTESIAN_POINT ('', (-36.5833333333333, 5., -1.22464679914735E-15));
#56 = CARTESIAN_POINT ('', (-5., 5., -1.22464679914735E-15));
#57 = (
   BOUNDED_SURFACE ()
   B_SPLINE_SURFACE (5, 3, ((#33, #34, #35, #36), (#37, #38, #39, #40), (#41, #42, #43, #44), (#45, #46, #47, #48), (#49, #50, #51, #52), (#53, #54, #55, #56)), .UNSPECIFIED., .T., .F., .U.)
   B_SPLINE_SURFACE_WITH_KNOTS ((6, 6), (4, 4), (0., 1.), (0., 1.), .UNSPECIFIED.)
   SURFACE ()
   GEOMETRIC_REPRESENTATION_ITEM ()
   RATIONAL_B_SPLINE_SURFACE (((5., 5., 5., 5.), (1., 1., 1., 1.), (1., 1., 1., 1.), (1., 1., 1., 1.), (1., 1., 1., 1.), (5., 5., 5., 5.)))
   REPRESENTATION_ITEM ('')
);
#58 = ADVANCED_FACE ('', (#32), #57, .T.);
#59 = CARTESIAN_POINT ('', (-100., 6.12323399573677E-15, -6.12323399573677E-15));
#60 = VERTEX_POINT ('', #59);
#61 = CARTESIAN_POINT ('', (-100., 4.75, -1.16341445918998E-15));
#62 = VERTEX_POINT ('', #61);
#63 = CARTESIAN_POINT ('', (-100., 6.12323399573677E-15, -6.12323399573677E-15));
#64 = CARTESIAN_POINT ('', (-100., 4.75, -1.16341445918998E-15));
#65 = B_SPLINE_CURVE_WITH_KNOTS ('', 1, (#63, #64), .UNSPECIFIED., .F., .U., (2, 2), (0., 1.), .UNSPECIFIED.);
#66 = EDGE_CURVE ('', #60, #62, #65, .T.);
#67 = ORIENTED_EDGE ('', *, *, #66, .F.);
#68 = ORIENTED_EDGE ('', *, *, #66, .T.);
#69 = CARTESIAN_POINT ('', (-100., 4.75, -1.16341445918998E-15));
#70 = CARTESIAN_POINT ('', (-100., 4.74999999999998, 19.));
#71 = CARTESIAN_POINT ('', (-100., -14.25, 9.49999999999997));
#72 = CARTESIAN_POINT ('', (-100., -14.25, -9.50000000000001));
#73 = CARTESIAN_POINT ('', (-100., 4.75000000000002, -19.));
#74 = CARTESIAN_POINT ('', (-100., 4.75, -1.16341445918998E-15));
#75 = (
   BOUNDED_CURVE ()
   B_SPLINE_CURVE (5, (#69, #70, #71, #72, #73, #74), .UNSPECIFIED., .T., .U.)
   B_SPLINE_CURVE_WITH_KNOTS ((6, 6), (0., 1.), .UNSPECIFIED.)
   CURVE ()
   GEOMETRIC_REPRESENTATION_ITEM ()
   RATIONAL_B_SPLINE_CURVE ((5., 1., 1., 1., 1., 5.))
   REPRESENTATION_ITEM ('')
);
#76 = EDGE_CURVE ('', #62, #62, #75, .T.);
#77 = ORIENTED_EDGE ('', *, *, #76, .F.);
#78 = EDGE_LOOP ('', (#67, #68, #77));
#79 = FACE_OUTER_BOUND ('', #78, .T.);
#80 = CARTESIAN_POINT ('', (-100., 6.12323399573677E-15, -6.12323399573677E-15));
#81 = CARTESIAN_POINT ('', (-100., 4.75, -1.16341445918998E-15));
#82 = CARTESIAN_POINT ('', (-100., 6.12323399573677E-15, -6.12323399573677E-15));
#83 = CARTESIAN_POINT ('', (-100., 4.74999999999998, 19.));
#84 = CARTESIAN_POINT ('', (-100., 6.12323399573677E-15, -6.12323399573677E-15));
#85 = CARTESIAN_POINT ('', (-100., -14.25, 9.49999999999997));
#86 = CARTESIAN_POINT ('', (-100., 6.12323399573677E-15, -6.12323399573677E-15));
#87 = CARTESIAN_POINT ('', (-100., -14.25, -9.50000000000001));
#88 = CARTESIAN_POINT ('', (-100., 6.12323399573677E-15, -6.12323399573677E-15));
#89 = CARTESIAN_POINT ('', (-100., 4.75000000000002, -19.));
#90 = CARTESIAN_POINT ('', (-100., 6.12323399573677E-15, -6.12323399573677E-15));
#91 = CARTESIAN_POINT ('', (-100., 4.75, -1.16341445918998E-15));
#92 = (
   BOUNDED_SURFACE ()
   B_SPLINE_SURFACE (5, 1, ((#80, #81), (#82, #83), (#84, #85), (#86, #87), (#88, #89), (#90, #91)), .UNSPECIFIED., .T., .F., .U.)
   B_SPLINE_SURFACE_WITH_KNOTS ((6, 6), (2, 2), (0., 1.), (0., 1.), .UNSPECIFIED.)
   SURFACE ()
   GEOMETRIC_REPRESENTATION_ITEM ()
   RATIONAL_B_SPLINE_SURFACE (((5., 5.), (1., 1.), (1., 1.), (1., 1.), (1., 1.), (5., 5.)))
   REPRESENTATION_ITEM ('')
);
#93 = ADVANCED_FACE ('', (#79), #92, .T.);
#94 = CARTESIAN_POINT ('', (-100., 4.75, -1.16341445918998E-15));
#95 = CARTESIAN_POINT ('', (-99.9166666666664, 4.83333333333335, -1.18382523917578E-15));
#96 = CARTESIAN_POINT ('', (-99.8333333333335, 4.91666666666665, -1.20423601916156E-15));
#97 = CARTESIAN_POINT ('', (-99.75, 5., -1.22464679914735E-15));
#98 = B_SPLINE_CURVE_WITH_KNOTS ('', 3, (#94, #95, #96, #97), .UNSPECIFIED., .F., .U., (4, 4), (0., 1.), .UNSPECIFIED.);
#99 = EDGE_CURVE ('', #62, #2, #98, .T.);
#100 = ORIENTED_EDGE ('', *, *, #99, .F.);
#101 = ORIENTED_EDGE ('', *, *, #76, .T.);
#102 = ORIENTED_EDGE ('', *, *, #99, .T.);
#103 = ORIENTED_EDGE ('', *, *, #19, .F.);
#104 = EDGE_LOOP ('', (#100, #101, #102, #103));
#105 = FACE_OUTER_BOUND ('', #104, .T.);
#106 = CARTESIAN_POINT ('', (-100., 4.75, -1.16341445918998E-15));
#107 = CARTESIAN_POINT ('', (-99.9166666666664, 4.83333333333335, -1.18382523917578E-15));
#108 = CARTESIAN_POINT ('', (-99.8333333333335, 4.91666666666665, -1.20423601916156E-15));
#109 = CARTESIAN_POINT ('', (-99.75, 5., -1.22464679914735E-15));
#110 = CARTESIAN_POINT ('', (-100., 4.74999999999998, 19.));
#111 = CARTESIAN_POINT ('', (-99.9166666666664, 4.83333333333333, 19.3333333333334));
#112 = CARTESIAN_POINT ('', (-99.8333333333335, 4.91666666666663, 19.6666666666666));
#113 = CARTESIAN_POINT ('', (-99.75, 4.99999999999998, 20.));
#114 = CARTESIAN_POINT ('', (-100., -14.25, 9.49999999999997));
#115 = CARTESIAN_POINT ('', (-99.9166666666664, -14.5, 9.66666666666666));
#116 = CARTESIAN_POINT ('', (-99.8333333333335, -14.7499999999999, 9.83333333333327));
#117 = CARTESIAN_POINT ('', (-99.75, -15., 9.99999999999997));
#118 = CARTESIAN_POINT ('', (-100., -14.25, -9.50000000000001));
#119 = CARTESIAN_POINT ('', (-99.9166666666664, -14.5, -9.6666666666667));
#120 = CARTESIAN_POINT ('', (-99.8333333333335, -14.7499999999999, -9.83333333333331));
#121 = CARTESIAN_POINT ('', (-99.75, -15., -10.));
#122 = CARTESIAN_POINT ('', (-100., 4.75000000000002, -19.));
#123 = CARTESIAN_POINT ('', (-99.9166666666664, 4.83333333333337, -19.3333333333334));
#124 = CARTESIAN_POINT ('', (-99.8333333333335, 4.91666666666667, -19.6666666666666));
#125 = CARTESIAN_POINT ('', (-99.75, 5.00000000000002, -20.));
#126 = CARTESIAN_POINT ('', (-100., 4.75, -1.16341445918998E-15));
#127 = CARTESIAN_POINT ('', (-99.9166666666664, 4.83333333333335, -1.18382523917578E-15));
#128 = CARTESIAN_POINT ('', (-99.8333333333335, 4.91666666666665, -1.20423601916156E-15));
#129 = CARTESIAN_POINT ('', (-99.75, 5., -1.22464679914735E-15));
#130 = (
   BOUNDED_SURFACE ()
   B_SPLINE_SURFACE (5, 3, ((#106, #107, #108, #109), (#110, #111, #112, #113), (#114, #115, #116, #117), (#118, #119, #120, #121), (#122, #123, #124, #125), (#126, #127, #128, #129)), .UNSPECIFIED., .T., .F., .U.)
   B_SPLINE_SURFACE_WITH_KNOTS ((6, 6), (4, 4), (0., 1.), (0., 1.), .UNSPECIFIED.)
   SURFACE ()
   GEOMETRIC_REPRESENTATION_ITEM ()
   RATIONAL_B_SPLINE_SURFACE (((5., 5., 5., 5.), (1., 1., 1., 1.), (1., 1., 1., 1.), (1., 1., 1., 1.), (1., 1., 1., 1.), (5., 5., 5., 5.)))
   REPRESENTATION_ITEM ('')
);
#131 = ADVANCED_FACE ('', (#105), #130, .T.);
#132 = CARTESIAN_POINT ('', (0., 0., 0.));
#133 = VERTEX_POINT ('', #132);
#134 = CARTESIAN_POINT ('', (-5., 5., -1.22464679914735E-15));
#135 = CARTESIAN_POINT ('', (-4.45372311110137, 5., -1.22464679914735E-15));
#136 = CARTESIAN_POINT ('', (-3.57385872659073, 4.85414515443454, -1.18892266519498E-15));
#137 = CARTESIAN_POINT ('', (-2.29805159589724, 4.27225824358797, -1.04640147662818E-15));
#138 = CARTESIAN_POINT ('', (-1.36239094823709, 3.51159474845024, -8.60092653718448E-16));
#139 = CARTESIAN_POINT ('', (-0.655811816541038, 2.54423952891212, -6.2315895906928E-16));
#140 = CARTESIAN_POINT ('', (-0.145854845565456, 1.42614127340927, -3.49303869122519E-16));
#141 = CARTESIAN_POINT ('', (6.16297582203915E-33, 0.546276888898633, -1.33799248687577E-16));
#142 = CARTESIAN_POINT ('', (0., 0., 0.));
#143 = B_SPLINE_CURVE_WITH_KNOTS ('', 3, (#134, #135, #136, #137, #138, #139, #140, #141, #142), .UNSPECIFIED., .F., .U., (4, 1, 1, 1, 1, 1, 4), (0., 0.208662401196191, 0.33617370428258, 0.532939663384363, 0.66382629571742, 0.791337598803809, 1.), .UNSPECIFIED.);
#144 = EDGE_CURVE ('', #4, #133, #143, .T.);
#145 = ORIENTED_EDGE ('', *, *, #144, .F.);
#146 = ORIENTED_EDGE ('', *, *, #29, .T.);
#147 = ORIENTED_EDGE ('', *, *, #144, .T.);
#148 = EDGE_LOOP ('', (#145, #146, #147));
#149 = FACE_OUTER_BOUND ('', #148, .T.);
#150 = CARTESIAN_POINT ('', (-5., 5., -1.22464679914735E-15));
#151 = CARTESIAN_POINT ('', (-4.45372311110137, 5., -1.22464679914735E-15));
#152 = CARTESIAN_POINT ('', (-3.57385872659073, 4.85414515443454, -1.18892266519498E-15));
#153 = CARTESIAN_POINT ('', (-2.29805159589724, 4.27225824358797, -1.04640147662818E-15));
#154 = CARTESIAN_POINT ('', (-1.36239094823709, 3.51159474845024, -8.60092653718448E-16));
#155 = CARTESIAN_POINT ('', (-0.655811816541038, 2.54423952891212, -6.2315895906928E-16));
#156 = CARTESIAN_POINT ('', (-0.145854845565456, 1.42614127340927, -3.49303869122519E-16));
#157 = CARTESIAN_POINT ('', (6.16297582203915E-33, 0.546276888898633, -1.33799248687577E-16));
#158 = CARTESIAN_POINT ('', (0., 0., 0.));
#159 = CARTESIAN_POINT ('', (-5., 5., 20.));
#160 = CARTESIAN_POINT ('', (-4.45372311110137, 5., 20.));
#161 = CARTESIAN_POINT ('', (-3.57385872659073, 4.85414515443455, 19.4165806177382));
#162 = CARTESIAN_POINT ('', (-2.29805159589724, 4.27225824358797, 17.0890329743519));
#163 = CARTESIAN_POINT ('', (-1.36239094823709, 3.51159474845024, 14.046378993801));
#164 = CARTESIAN_POINT ('', (-0.655811816541039, 2.54423952891212, 10.1769581156485));
#165 = CARTESIAN_POINT ('', (-0.145854845565456, 1.42614127340927, 5.70456509363708));
#166 = CARTESIAN_POINT ('', (-1.33799248687577E-16, 0.546276888898633, 2.18510755559453));
#167 = CARTESIAN_POINT ('', (0., 0., 0.));
#168 = CARTESIAN_POINT ('', (-5., -15., 10.));
#169 = CARTESIAN_POINT ('', (-4.45372311110137, -15., 10.));
#170 = CARTESIAN_POINT ('', (-3.57385872659073, -14.5624354633036, 9.70829030886909));
#171 = CARTESIAN_POINT ('', (-2.29805159589724, -12.8167747307639, 8.54451648717594));
#172 = CARTESIAN_POINT ('', (-1.36239094823709, -10.5347842453507, 7.02318949690048));
#173 = CARTESIAN_POINT ('', (-0.655811816541039, -7.63271858673636, 5.08847905782424));
#174 = CARTESIAN_POINT ('', (-0.145854845565456, -4.27842382022781, 2.85228254681854));
#175 = CARTESIAN_POINT ('', (-2.00698873031366E-16, -1.6388306666959, 1.09255377779727));
#176 = CARTESIAN_POINT ('', (0., 0., 0.));
#177 = CARTESIAN_POINT ('', (-5., -15., -10.));
#178 = CARTESIAN_POINT ('', (-4.45372311110137, -15., -10.));
#179 = CARTESIAN_POINT ('', (-3.57385872659073, -14.5624354633036, -9.70829030886908));
#180 = CARTESIAN_POINT ('', (-2.29805159589724, -12.8167747307639, -8.54451648717593));
#181 = CARTESIAN_POINT ('', (-1.36239094823709, -10.5347842453507, -7.02318949690048));
#182 = CARTESIAN_POINT ('', (-0.655811816541039, -7.63271858673636, -5.08847905782424));
#183 = CARTESIAN_POINT ('', (-0.145854845565456, -4.27842382022781, -2.85228254681854));
#184 = CARTESIAN_POINT ('', (-6.68996243437886E-17, -1.6388306666959, -1.09255377779727));
#185 = CARTESIAN_POINT ('', (0., 0., 0.));
#186 = CARTESIAN_POINT ('', (-5., 5., -20.));
#187 = CARTESIAN_POINT ('', (-4.45372311110137, 5., -20.));
#188 = CARTESIAN_POINT ('', (-3.57385872659072, 4.85414515443454, -19.4165806177382));
#189 = CARTESIAN_POINT ('', (-2.29805159589724, 4.27225824358796, -17.0890329743519));
#190 = CARTESIAN_POINT ('', (-1.36239094823709, 3.51159474845024, -14.046378993801));
#191 = CARTESIAN_POINT ('', (-0.655811816541038, 2.54423952891212, -10.1769581156485));
#192 = CARTESIAN_POINT ('', (-0.145854845565455, 1.42614127340927, -5.70456509363708));
#193 = CARTESIAN_POINT ('', (1.33799248687577E-16, 0.546276888898632, -2.18510755559453));
#194 = CARTESIAN_POINT ('', (0., 0., 0.));
#195 = CARTESIAN_POINT ('', (-5., 5., -1.22464679914735E-15));
#196 = CARTESIAN_POINT ('', (-4.45372311110137, 5., -1.22464679914735E-15));
#197 = CARTESIAN_POINT ('', (-3.57385872659073, 4.85414515443454, -1.18892266519498E-15));
#198 = CARTESIAN_POINT ('', (-2.29805159589724, 4.27225824358797, -1.04640147662818E-15));
#199 = CARTESIAN_POINT ('', (-1.36239094823709, 3.51159474845024, -8.60092653718448E-16));
#200 = CARTESIAN_POINT ('', (-0.655811816541038, 2.54423952891212, -6.2315895906928E-16));
#201 = CARTESIAN_POINT ('', (-0.145854845565456, 1.42614127340927, -3.49303869122519E-16));
#202 = CARTESIAN_POINT ('', (6.16297582203915E-33, 0.546276888898633, -1.33799248687577E-16));
#203 = CARTESIAN_POINT ('', (0., 0., 0.));
#204 = (
   BOUNDED_SURFACE ()
   B_SPLINE_SURFACE (5, 3, ((#150, #151, #152, #153, #154, #155, #156, #157, #158), (#159, #160, #161, #162, #163, #164, #165, #166, #167), (#168, #169, #170, #171, #172, #173, #174, #175, #176), (#177, #178, #179, #180, #181, #182, #183, #184, #185), (#186, #187, #188, #189, #190, #191, #192, #193, #194), (#195, #196, #197, #198, #199, #200, #201, #202, #203)), .UNSPECIFIED., .T., .F., .U.)
   B_SPLINE_SURFACE_WITH_KNOTS ((6, 6), (4, 1, 1, 1, 1, 1, 4), (0., 1.), (0., 0.208662401196191, 0.33617370428258, 0.532939663384363, 0.66382629571742, 0.791337598803809, 1.), .UNSPECIFIED.)
   SURFACE ()
   GEOMETRIC_REPRESENTATION_ITEM ()
   RATIONAL_B_SPLINE_SURFACE (((5., 5., 5., 5., 5., 5., 5., 5., 5.), (1., 1., 1., 1., 1., 1., 1., 1., 1.), (1., 1., 1., 1., 1., 1., 1., 1., 1.), (1., 1., 1., 1., 1., 1., 1., 1., 1.), (1., 1., 1., 1., 1., 1., 1., 1., 1.), (5., 5., 5., 5., 5., 5., 5., 5., 5.)))
   REPRESENTATION_ITEM ('')
);
#205 = ADVANCED_FACE ('', (#149), #204, .T.);
#206 = CLOSED_SHELL ('', (#58, #93, #131, #205));
#207 = MANIFOLD_SOLID_BREP ('', #206);
#208 = (
   LENGTH_UNIT ()
   NAMED_UNIT (*)
   SI_UNIT (.MILLI., .METRE.)
);
#209 = (
   NAMED_UNIT (*)
   SI_UNIT ($, .STERADIAN.)
   SOLID_ANGLE_UNIT ()
);
#210 = (
   NAMED_UNIT (*)
   SI_UNIT ($, .RADIAN.)
   PLANE_ANGLE_UNIT ()
);
#211 = UNCERTAINTY_MEASURE_WITH_UNIT (LENGTH_MEASURE(0.001), #208, 'DISTANCE_ACCURACY_VALUE', '');
#212 = (
   GEOMETRIC_REPRESENTATION_CONTEXT (3)
   GLOBAL_UNCERTAINTY_ASSIGNED_CONTEXT ((#211))
   GLOBAL_UNIT_ASSIGNED_CONTEXT ((#208, #209, #210))
   REPRESENTATION_CONTEXT ('', '3D')
);
#213 = SHAPE_REPRESENTATION ('', (), #212);
#214 = APPLICATION_CONTEXT ('configuration controlled 3D designs of mechanical parts and assemblies');
#215 = APPLICATION_PROTOCOL_DEFINITION ('International Standard', 'config_control_design', 1997, #214);
#216 = MECHANICAL_CONTEXT ('', #214, 'mechanical');
#217 = PRODUCT ('', '', '', (#216));
#218 = PERSON_AND_ORGANIZATION_ROLE ('design_owner');
#219 = PERSON ('', '', $, $, $, $);
#220 = ORGANIZATION ($, '', '');
#221 = PERSON_AND_ORGANIZATION (#219, #220);
#222 = CC_DESIGN_PERSON_AND_ORGANIZATION_ASSIGNMENT (#221, #218, (#217));
#223 = PRODUCT_RELATED_PRODUCT_CATEGORY ('detail', $, (#217));
#224 = PRODUCT_DEFINITION_FORMATION_WITH_SPECIFIED_SOURCE ('', '', #217, .NOT_KNOWN.);
#225 = APPROVAL_STATUS ('approved');
#226 = APPROVAL (#225, '');
#227 = CALENDAR_DATE (2021, 26, 1);
#228 = COORDINATED_UNIVERSAL_TIME_OFFSET (0, $, .AHEAD.);
#229 = LOCAL_TIME (10, 22, 59., #228);
#230 = DATE_AND_TIME (#227, #229);
#231 = APPROVAL_DATE_TIME (#230, #226);
#232 = APPROVAL_ROLE ('');
#233 = PERSON ('', '', $, $, $, $);
#234 = ORGANIZATION ($, '', '');
#235 = PERSON_AND_ORGANIZATION (#233, #234);
#236 = APPROVAL_PERSON_ORGANIZATION (#235, #226, #232);
#237 = CC_DESIGN_APPROVAL (#226, (#224));
#238 = PERSON_AND_ORGANIZATION_ROLE ('creator');
#239 = PERSON ('', '', $, $, $, $);
#240 = ORGANIZATION ($, '', '');
#241 = PERSON_AND_ORGANIZATION (#239, #240);
#242 = CC_DESIGN_PERSON_AND_ORGANIZATION_ASSIGNMENT (#241, #238, (#224));
#243 = PERSON_AND_ORGANIZATION_ROLE ('part_supplier');
#244 = PERSON ('', '', $, $, $, $);
#245 = ORGANIZATION ($, '', '');
#246 = PERSON_AND_ORGANIZATION (#244, #245);
#247 = CC_DESIGN_PERSON_AND_ORGANIZATION_ASSIGNMENT (#246, #243, (#224));
#248 = SECURITY_CLASSIFICATION_LEVEL ('unclassified');
#249 = SECURITY_CLASSIFICATION ('', '', #248);
#250 = APPROVAL_STATUS ('approved');
#251 = APPROVAL (#250, '');
#252 = CALENDAR_DATE (2021, 26, 1);
#253 = COORDINATED_UNIVERSAL_TIME_OFFSET (0, $, .AHEAD.);
#254 = LOCAL_TIME (10, 22, 59., #253);
#255 = DATE_AND_TIME (#252, #254);
#256 = APPROVAL_DATE_TIME (#255, #251);
#257 = APPROVAL_ROLE ('');
#258 = PERSON ('', '', $, $, $, $);
#259 = ORGANIZATION ($, '', '');
#260 = PERSON_AND_ORGANIZATION (#258, #259);
#261 = APPROVAL_PERSON_ORGANIZATION (#260, #251, #257);
#262 = CC_DESIGN_APPROVAL (#251, (#249));
#263 = DATE_TIME_ROLE ('classification_date');
#264 = CALENDAR_DATE (2021, 26, 1);
#265 = COORDINATED_UNIVERSAL_TIME_OFFSET (0, $, .AHEAD.);
#266 = LOCAL_TIME (10, 22, 59., #265);
#267 = DATE_AND_TIME (#264, #266);
#268 = CC_DESIGN_DATE_AND_TIME_ASSIGNMENT (#267, #263, (#249));
#269 = PERSON_AND_ORGANIZATION_ROLE ('classification_officer');
#270 = PERSON ('', '', $, $, $, $);
#271 = ORGANIZATION ($, '', '');
#272 = PERSON_AND_ORGANIZATION (#270, #271);
#273 = CC_DESIGN_PERSON_AND_ORGANIZATION_ASSIGNMENT (#272, #269, (#249));
#274 = CC_DESIGN_SECURITY_CLASSIFICATION (#249, (#224));
#275 = DESIGN_CONTEXT ('', #214, 'design');
#276 = PRODUCT_DEFINITION ('', '', #224, #275);
#277 = APPROVAL_STATUS ('approved');
#278 = APPROVAL (#277, '');
#279 = CALENDAR_DATE (2021, 26, 1);
#280 = COORDINATED_UNIVERSAL_TIME_OFFSET (0, $, .AHEAD.);
#281 = LOCAL_TIME (10, 22, 59., #280);
#282 = DATE_AND_TIME (#279, #281);
#283 = APPROVAL_DATE_TIME (#282, #278);
#284 = APPROVAL_ROLE ('');
#285 = PERSON ('', '', $, $, $, $);
#286 = ORGANIZATION ($, '', '');
#287 = PERSON_AND_ORGANIZATION (#285, #286);
#288 = APPROVAL_PERSON_ORGANIZATION (#287, #278, #284);
#289 = CC_DESIGN_APPROVAL (#278, (#276));
#290 = DATE_TIME_ROLE ('creation_date');
#291 = CALENDAR_DATE (2021, 26, 1);
#292 = COORDINATED_UNIVERSAL_TIME_OFFSET (0, $, .AHEAD.);
#293 = LOCAL_TIME (10, 22, 59., #292);
#294 = DATE_AND_TIME (#291, #293);
#295 = CC_DESIGN_DATE_AND_TIME_ASSIGNMENT (#294, #290, (#276));
#296 = PERSON_AND_ORGANIZATION_ROLE ('creator');
#297 = PERSON ('', '', $, $, $, $);
#298 = ORGANIZATION ($, '', '');
#299 = PERSON_AND_ORGANIZATION (#297, #298);
#300 = CC_DESIGN_PERSON_AND_ORGANIZATION_ASSIGNMENT (#299, #296, (#276));
#301 = PRODUCT_DEFINITION_SHAPE ('', '', #276);
#302 = SHAPE_DEFINITION_REPRESENTATION (#301, #213);
#303 = SHAPE_REPRESENTATION_RELATIONSHIP ('', '', #213, #304);
#304 = ADVANCED_BREP_SHAPE_REPRESENTATION ('', (#207), #212);
ENDSEC;
END-ISO-10303-21;
