ISO-10303-21;
HEADER;
FILE_DESCRIPTION ((), '1');
FILE_NAME ('D:\\OneDrive - MAFord Europe\\Desktop\\250\\STEP\\250N16162B.STP', '2021-01-26T10:29:19', ('Unknown'), ('M. A. Ford Europe Ltd.'), 'OneCNC-XR8 Mill 3D Expert', 'OneCNC-XR8 Mill 3D Expert', '');
FILE_SCHEMA (('CONFIG_CONTROL_DESIGN'));
ENDSEC;

DATA;
#1 = CARTESIAN_POINT ('', (-8., 8., -1.95943487863577E-15));
#2 = VERTEX_POINT ('', #1);
#3 = CARTESIAN_POINT ('', (0., 0., 0.));
#4 = VERTEX_POINT ('', #3);
#5 = CARTESIAN_POINT ('', (-8., 8., -1.95943487863577E-15));
#6 = CARTESIAN_POINT ('', (-7.12595697776219, 8., -1.95943487863577E-15));
#7 = CARTESIAN_POINT ('', (-5.71817396254516, 7.76663224709526, -1.90227626431197E-15));
#8 = CARTESIAN_POINT ('', (-3.92921675374061, 6.95070109353434, -1.70243076920537E-15));
#9 = CARTESIAN_POINT ('', (-2.38144840247962, 5.82017448282067, -1.42553161017309E-15));
#10 = CARTESIAN_POINT ('', (-1.16438681025926, 4.32311744656442, -1.05885838865464E-15));
#11 = CARTESIAN_POINT ('', (-0.233367752904731, 2.28182603745484, -5.58886190596031E-16));
#12 = CARTESIAN_POINT ('', (2.46519032881566E-32, 0.874043022237813, -2.14078797900123E-16));
#13 = CARTESIAN_POINT ('', (0., 0., 0.));
#14 = B_SPLINE_CURVE_WITH_KNOTS ('', 3, (#5, #6, #7, #8, #9, #10, #11, #12, #13), .UNSPECIFIED., .F., .U., (4, 1, 1, 1, 1, 1, 4), (0., 0.208662401196191, 0.33617370428258, 0.467060336615637, 0.66382629571742, 0.791337598803809, 1.), .UNSPECIFIED.);
#15 = EDGE_CURVE ('', #2, #4, #14, .T.);
#16 = ORIENTED_EDGE ('', *, *, #15, .F.);
#17 = CARTESIAN_POINT ('', (-8., 8., -1.95943487863577E-15));
#18 = CARTESIAN_POINT ('', (-8., 8.00000000000001, 32.));
#19 = CARTESIAN_POINT ('', (-8., -24., 16.));
#20 = CARTESIAN_POINT ('', (-8., -24., -16.));
#21 = CARTESIAN_POINT ('', (-8., 7.99999999999999, -32.));
#22 = CARTESIAN_POINT ('', (-8., 8., -1.95943487863577E-15));
#23 = (
   BOUNDED_CURVE ()
   B_SPLINE_CURVE (5, (#17, #18, #19, #20, #21, #22), .UNSPECIFIED., .T., .U.)
   B_SPLINE_CURVE_WITH_KNOTS ((6, 6), (0., 1.), .UNSPECIFIED.)
   CURVE ()
   GEOMETRIC_REPRESENTATION_ITEM ()
   RATIONAL_B_SPLINE_CURVE ((5., 1., 1., 1., 1., 5.))
   REPRESENTATION_ITEM ('')
);
#24 = EDGE_CURVE ('', #2, #2, #23, .T.);
#25 = ORIENTED_EDGE ('', *, *, #24, .T.);
#26 = ORIENTED_EDGE ('', *, *, #15, .T.);
#27 = EDGE_LOOP ('', (#16, #25, #26));
#28 = FACE_OUTER_BOUND ('', #27, .T.);
#29 = CARTESIAN_POINT ('', (-8., 8., -1.95943487863577E-15));
#30 = CARTESIAN_POINT ('', (-7.12595697776219, 8., -1.95943487863577E-15));
#31 = CARTESIAN_POINT ('', (-5.71817396254516, 7.76663224709526, -1.90227626431197E-15));
#32 = CARTESIAN_POINT ('', (-3.92921675374061, 6.95070109353434, -1.70243076920537E-15));
#33 = CARTESIAN_POINT ('', (-2.38144840247962, 5.82017448282067, -1.42553161017309E-15));
#34 = CARTESIAN_POINT ('', (-1.16438681025926, 4.32311744656442, -1.05885838865464E-15));
#35 = CARTESIAN_POINT ('', (-0.233367752904731, 2.28182603745484, -5.58886190596031E-16));
#36 = CARTESIAN_POINT ('', (2.46519032881566E-32, 0.874043022237813, -2.14078797900123E-16));
#37 = CARTESIAN_POINT ('', (0., 0., 0.));
#38 = CARTESIAN_POINT ('', (-8., 8.00000000000001, 32.));
#39 = CARTESIAN_POINT ('', (-7.12595697776219, 8.00000000000001, 32.));
#40 = CARTESIAN_POINT ('', (-5.71817396254516, 7.76663224709527, 31.066528988381));
#41 = CARTESIAN_POINT ('', (-3.92921675374061, 6.95070109353434, 27.8028043741373));
#42 = CARTESIAN_POINT ('', (-2.38144840247962, 5.82017448282067, 23.2806979312827));
#43 = CARTESIAN_POINT ('', (-1.16438681025926, 4.32311744656442, 17.2924697862577));
#44 = CARTESIAN_POINT ('', (-0.233367752904732, 2.28182603745484, 9.12730414981936));
#45 = CARTESIAN_POINT ('', (-2.14078797900123E-16, 0.874043022237814, 3.49617208895125));
#46 = CARTESIAN_POINT ('', (0., 0., 0.));
#47 = CARTESIAN_POINT ('', (-8., -24., 16.));
#48 = CARTESIAN_POINT ('', (-7.1259569777622, -24., 16.));
#49 = CARTESIAN_POINT ('', (-5.71817396254516, -23.2998967412858, 15.5332644941905));
#50 = CARTESIAN_POINT ('', (-3.92921675374061, -20.852103280603, 13.9014021870687));
#51 = CARTESIAN_POINT ('', (-2.38144840247962, -17.460523448462, 11.6403489656413));
#52 = CARTESIAN_POINT ('', (-1.16438681025926, -12.9693523396933, 8.64623489312884));
#53 = CARTESIAN_POINT ('', (-0.233367752904732, -6.84547811236452, 4.56365207490968));
#54 = CARTESIAN_POINT ('', (-3.21118196850185E-16, -2.62212906671344, 1.74808604447563));
#55 = CARTESIAN_POINT ('', (0., 0., 0.));
#56 = CARTESIAN_POINT ('', (-8., -24., -16.));
#57 = CARTESIAN_POINT ('', (-7.12595697776219, -24., -16.));
#58 = CARTESIAN_POINT ('', (-5.71817396254516, -23.2998967412858, -15.5332644941905));
#59 = CARTESIAN_POINT ('', (-3.92921675374061, -20.852103280603, -13.9014021870687));
#60 = CARTESIAN_POINT ('', (-2.38144840247962, -17.460523448462, -11.6403489656413));
#61 = CARTESIAN_POINT ('', (-1.16438681025926, -12.9693523396933, -8.64623489312883));
#62 = CARTESIAN_POINT ('', (-0.233367752904732, -6.84547811236452, -4.56365207490968));
#63 = CARTESIAN_POINT ('', (-1.07039398950062E-16, -2.62212906671344, -1.74808604447563));
#64 = CARTESIAN_POINT ('', (0., 0., 0.));
#65 = CARTESIAN_POINT ('', (-8., 7.99999999999999, -32.));
#66 = CARTESIAN_POINT ('', (-7.12595697776219, 7.99999999999999, -32.));
#67 = CARTESIAN_POINT ('', (-5.71817396254516, 7.76663224709526, -31.066528988381));
#68 = CARTESIAN_POINT ('', (-3.9292167537406, 6.95070109353433, -27.8028043741373));
#69 = CARTESIAN_POINT ('', (-2.38144840247962, 5.82017448282066, -23.2806979312827));
#70 = CARTESIAN_POINT ('', (-1.16438681025926, 4.32311744656441, -17.2924697862577));
#71 = CARTESIAN_POINT ('', (-0.233367752904731, 2.28182603745484, -9.12730414981936));
#72 = CARTESIAN_POINT ('', (2.14078797900123E-16, 0.874043022237812, -3.49617208895125));
#73 = CARTESIAN_POINT ('', (0., 0., 0.));
#74 = CARTESIAN_POINT ('', (-8., 8., -1.95943487863577E-15));
#75 = CARTESIAN_POINT ('', (-7.12595697776219, 8., -1.95943487863577E-15));
#76 = CARTESIAN_POINT ('', (-5.71817396254516, 7.76663224709526, -1.90227626431197E-15));
#77 = CARTESIAN_POINT ('', (-3.92921675374061, 6.95070109353434, -1.70243076920537E-15));
#78 = CARTESIAN_POINT ('', (-2.38144840247962, 5.82017448282067, -1.42553161017309E-15));
#79 = CARTESIAN_POINT ('', (-1.16438681025926, 4.32311744656442, -1.05885838865464E-15));
#80 = CARTESIAN_POINT ('', (-0.233367752904731, 2.28182603745484, -5.58886190596031E-16));
#81 = CARTESIAN_POINT ('', (2.46519032881566E-32, 0.874043022237813, -2.14078797900123E-16));
#82 = CARTESIAN_POINT ('', (0., 0., 0.));
#83 = (
   BOUNDED_SURFACE ()
   B_SPLINE_SURFACE (5, 3, ((#29, #30, #31, #32, #33, #34, #35, #36, #37), (#38, #39, #40, #41, #42, #43, #44, #45, #46), (#47, #48, #49, #50, #51, #52, #53, #54, #55), (#56, #57, #58, #59, #60, #61, #62, #63, #64), (#65, #66, #67, #68, #69, #70, #71, #72, #73), (#74, #75, #76, #77, #78, #79, #80, #81, #82)), .UNSPECIFIED., .T., .F., .U.)
   B_SPLINE_SURFACE_WITH_KNOTS ((6, 6), (4, 1, 1, 1, 1, 1, 4), (0., 1.), (0., 0.208662401196191, 0.33617370428258, 0.467060336615637, 0.66382629571742, 0.791337598803809, 1.), .UNSPECIFIED.)
   SURFACE ()
   GEOMETRIC_REPRESENTATION_ITEM ()
   RATIONAL_B_SPLINE_SURFACE (((5., 5., 5., 5., 5., 5., 5., 5., 5.), (1., 1., 1., 1., 1., 1., 1., 1., 1.), (1., 1., 1., 1., 1., 1., 1., 1., 1.), (1., 1., 1., 1., 1., 1., 1., 1., 1.), (1., 1., 1., 1., 1., 1., 1., 1., 1.), (5., 5., 5., 5., 5., 5., 5., 5., 5.)))
   REPRESENTATION_ITEM ('')
);
#84 = ADVANCED_FACE ('', (#28), #83, .T.);
#85 = CARTESIAN_POINT ('', (-99.75, 8., -1.95943487863576E-15));
#86 = VERTEX_POINT ('', #85);
#87 = CARTESIAN_POINT ('', (-99.75, 8., -1.95943487863576E-15));
#88 = CARTESIAN_POINT ('', (-69.1666666666664, 8., -1.95943487863576E-15));
#89 = CARTESIAN_POINT ('', (-38.5833333333333, 8., -1.95943487863576E-15));
#90 = CARTESIAN_POINT ('', (-8., 8., -1.95943487863576E-15));
#91 = B_SPLINE_CURVE_WITH_KNOTS ('', 3, (#87, #88, #89, #90), .UNSPECIFIED., .F., .U., (4, 4), (0., 1.), .UNSPECIFIED.);
#92 = EDGE_CURVE ('', #86, #2, #91, .T.);
#93 = ORIENTED_EDGE ('', *, *, #92, .F.);
#94 = CARTESIAN_POINT ('', (-99.75, 8., -1.95943487863576E-15));
#95 = CARTESIAN_POINT ('', (-99.75, 7.99999999999998, 32.));
#96 = CARTESIAN_POINT ('', (-99.75, -24., 16.));
#97 = CARTESIAN_POINT ('', (-99.75, -24., -16.));
#98 = CARTESIAN_POINT ('', (-99.75, 8.00000000000002, -32.));
#99 = CARTESIAN_POINT ('', (-99.75, 8., -1.95943487863576E-15));
#100 = (
   BOUNDED_CURVE ()
   B_SPLINE_CURVE (5, (#94, #95, #96, #97, #98, #99), .UNSPECIFIED., .T., .U.)
   B_SPLINE_CURVE_WITH_KNOTS ((6, 6), (0., 1.), .UNSPECIFIED.)
   CURVE ()
   GEOMETRIC_REPRESENTATION_ITEM ()
   RATIONAL_B_SPLINE_CURVE ((5., 1., 1., 1., 1., 5.))
   REPRESENTATION_ITEM ('')
);
#101 = EDGE_CURVE ('', #86, #86, #100, .T.);
#102 = ORIENTED_EDGE ('', *, *, #101, .T.);
#103 = ORIENTED_EDGE ('', *, *, #92, .T.);
#104 = ORIENTED_EDGE ('', *, *, #24, .F.);
#105 = EDGE_LOOP ('', (#93, #102, #103, #104));
#106 = FACE_OUTER_BOUND ('', #105, .T.);
#107 = CARTESIAN_POINT ('', (-99.75, 8., -1.95943487863576E-15));
#108 = CARTESIAN_POINT ('', (-69.1666666666664, 8., -1.95943487863576E-15));
#109 = CARTESIAN_POINT ('', (-38.5833333333333, 8., -1.95943487863576E-15));
#110 = CARTESIAN_POINT ('', (-8., 8., -1.95943487863576E-15));
#111 = CARTESIAN_POINT ('', (-99.75, 7.99999999999998, 32.));
#112 = CARTESIAN_POINT ('', (-69.1666666666664, 7.99999999999999, 32.));
#113 = CARTESIAN_POINT ('', (-38.5833333333333, 8., 32.));
#114 = CARTESIAN_POINT ('', (-8., 8.00000000000001, 32.));
#115 = CARTESIAN_POINT ('', (-99.75, -24., 16.));
#116 = CARTESIAN_POINT ('', (-69.1666666666664, -24., 16.));
#117 = CARTESIAN_POINT ('', (-38.5833333333333, -24., 16.));
#118 = CARTESIAN_POINT ('', (-8., -24., 16.));
#119 = CARTESIAN_POINT ('', (-99.75, -24., -16.));
#120 = CARTESIAN_POINT ('', (-69.1666666666664, -24., -16.));
#121 = CARTESIAN_POINT ('', (-38.5833333333333, -24., -16.));
#122 = CARTESIAN_POINT ('', (-8., -24., -16.));
#123 = CARTESIAN_POINT ('', (-99.75, 8.00000000000002, -32.));
#124 = CARTESIAN_POINT ('', (-69.1666666666664, 8.00000000000001, -32.));
#125 = CARTESIAN_POINT ('', (-38.5833333333333, 8., -32.));
#126 = CARTESIAN_POINT ('', (-8., 7.99999999999999, -32.));
#127 = CARTESIAN_POINT ('', (-99.75, 8., -1.95943487863576E-15));
#128 = CARTESIAN_POINT ('', (-69.1666666666664, 8., -1.95943487863576E-15));
#129 = CARTESIAN_POINT ('', (-38.5833333333333, 8., -1.95943487863576E-15));
#130 = CARTESIAN_POINT ('', (-8., 8., -1.95943487863576E-15));
#131 = (
   BOUNDED_SURFACE ()
   B_SPLINE_SURFACE (5, 3, ((#107, #108, #109, #110), (#111, #112, #113, #114), (#115, #116, #117, #118), (#119, #120, #121, #122), (#123, #124, #125, #126), (#127, #128, #129, #130)), .UNSPECIFIED., .T., .F., .U.)
   B_SPLINE_SURFACE_WITH_KNOTS ((6, 6), (4, 4), (0., 1.), (0., 1.), .UNSPECIFIED.)
   SURFACE ()
   GEOMETRIC_REPRESENTATION_ITEM ()
   RATIONAL_B_SPLINE_SURFACE (((5., 5., 5., 5.), (1., 1., 1., 1.), (1., 1., 1., 1.), (1., 1., 1., 1.), (1., 1., 1., 1.), (5., 5., 5., 5.)))
   REPRESENTATION_ITEM ('')
);
#132 = ADVANCED_FACE ('', (#106), #131, .T.);
#133 = CARTESIAN_POINT ('', (-100., 6.12323399573677E-15, -6.12323399573677E-15));
#134 = VERTEX_POINT ('', #133);
#135 = CARTESIAN_POINT ('', (-100., 7.75, -1.8982025386784E-15));
#136 = VERTEX_POINT ('', #135);
#137 = CARTESIAN_POINT ('', (-100., 6.12323399573677E-15, -6.12323399573677E-15));
#138 = CARTESIAN_POINT ('', (-100., 7.75, -1.8982025386784E-15));
#139 = B_SPLINE_CURVE_WITH_KNOTS ('', 1, (#137, #138), .UNSPECIFIED., .F., .U., (2, 2), (0., 1.), .UNSPECIFIED.);
#140 = EDGE_CURVE ('', #134, #136, #139, .T.);
#141 = ORIENTED_EDGE ('', *, *, #140, .F.);
#142 = ORIENTED_EDGE ('', *, *, #140, .T.);
#143 = CARTESIAN_POINT ('', (-100., 7.75, -1.8982025386784E-15));
#144 = CARTESIAN_POINT ('', (-100., 7.74999999999998, 31.));
#145 = CARTESIAN_POINT ('', (-100., -23.25, 15.5));
#146 = CARTESIAN_POINT ('', (-100., -23.25, -15.5));
#147 = CARTESIAN_POINT ('', (-100., 7.75000000000002, -31.));
#148 = CARTESIAN_POINT ('', (-100., 7.75, -1.8982025386784E-15));
#149 = (
   BOUNDED_CURVE ()
   B_SPLINE_CURVE (5, (#143, #144, #145, #146, #147, #148), .UNSPECIFIED., .T., .U.)
   B_SPLINE_CURVE_WITH_KNOTS ((6, 6), (0., 1.), .UNSPECIFIED.)
   CURVE ()
   GEOMETRIC_REPRESENTATION_ITEM ()
   RATIONAL_B_SPLINE_CURVE ((5., 1., 1., 1., 1., 5.))
   REPRESENTATION_ITEM ('')
);
#150 = EDGE_CURVE ('', #136, #136, #149, .T.);
#151 = ORIENTED_EDGE ('', *, *, #150, .F.);
#152 = EDGE_LOOP ('', (#141, #142, #151));
#153 = FACE_OUTER_BOUND ('', #152, .T.);
#154 = CARTESIAN_POINT ('', (-100., 6.12323399573677E-15, -6.12323399573677E-15));
#155 = CARTESIAN_POINT ('', (-100., 7.75, -1.8982025386784E-15));
#156 = CARTESIAN_POINT ('', (-100., 6.12323399573677E-15, -6.12323399573677E-15));
#157 = CARTESIAN_POINT ('', (-100., 7.74999999999998, 31.));
#158 = CARTESIAN_POINT ('', (-100., 6.12323399573677E-15, -6.12323399573677E-15));
#159 = CARTESIAN_POINT ('', (-100., -23.25, 15.5));
#160 = CARTESIAN_POINT ('', (-100., 6.12323399573677E-15, -6.12323399573677E-15));
#161 = CARTESIAN_POINT ('', (-100., -23.25, -15.5));
#162 = CARTESIAN_POINT ('', (-100., 6.12323399573677E-15, -6.12323399573677E-15));
#163 = CARTESIAN_POINT ('', (-100., 7.75000000000002, -31.));
#164 = CARTESIAN_POINT ('', (-100., 6.12323399573677E-15, -6.12323399573677E-15));
#165 = CARTESIAN_POINT ('', (-100., 7.75, -1.8982025386784E-15));
#166 = (
   BOUNDED_SURFACE ()
   B_SPLINE_SURFACE (5, 1, ((#154, #155), (#156, #157), (#158, #159), (#160, #161), (#162, #163), (#164, #165)), .UNSPECIFIED., .T., .F., .U.)
   B_SPLINE_SURFACE_WITH_KNOTS ((6, 6), (2, 2), (0., 1.), (0., 1.), .UNSPECIFIED.)
   SURFACE ()
   GEOMETRIC_REPRESENTATION_ITEM ()
   RATIONAL_B_SPLINE_SURFACE (((5., 5.), (1., 1.), (1., 1.), (1., 1.), (1., 1.), (5., 5.)))
   REPRESENTATION_ITEM ('')
);
#167 = ADVANCED_FACE ('', (#153), #166, .T.);
#168 = CARTESIAN_POINT ('', (-100., 7.75, -1.8982025386784E-15));
#169 = CARTESIAN_POINT ('', (-99.9166666666664, 7.83333333333333, -1.91861331866418E-15));
#170 = CARTESIAN_POINT ('', (-99.8333333333336, 7.91666666666665, -1.93902409864997E-15));
#171 = CARTESIAN_POINT ('', (-99.75, 8., -1.95943487863576E-15));
#172 = B_SPLINE_CURVE_WITH_KNOTS ('', 3, (#168, #169, #170, #171), .UNSPECIFIED., .F., .U., (4, 4), (0., 1.), .UNSPECIFIED.);
#173 = EDGE_CURVE ('', #136, #86, #172, .T.);
#174 = ORIENTED_EDGE ('', *, *, #173, .F.);
#175 = ORIENTED_EDGE ('', *, *, #150, .T.);
#176 = ORIENTED_EDGE ('', *, *, #173, .T.);
#177 = ORIENTED_EDGE ('', *, *, #101, .F.);
#178 = EDGE_LOOP ('', (#174, #175, #176, #177));
#179 = FACE_OUTER_BOUND ('', #178, .T.);
#180 = CARTESIAN_POINT ('', (-100., 7.75, -1.8982025386784E-15));
#181 = CARTESIAN_POINT ('', (-99.9166666666664, 7.83333333333333, -1.91861331866418E-15));
#182 = CARTESIAN_POINT ('', (-99.8333333333336, 7.91666666666665, -1.93902409864997E-15));
#183 = CARTESIAN_POINT ('', (-99.75, 8., -1.95943487863576E-15));
#184 = CARTESIAN_POINT ('', (-100., 7.74999999999998, 31.));
#185 = CARTESIAN_POINT ('', (-99.9166666666664, 7.83333333333332, 31.3333333333333));
#186 = CARTESIAN_POINT ('', (-99.8333333333336, 7.91666666666663, 31.6666666666666));
#187 = CARTESIAN_POINT ('', (-99.75, 7.99999999999998, 32.));
#188 = CARTESIAN_POINT ('', (-100., -23.25, 15.5));
#189 = CARTESIAN_POINT ('', (-99.9166666666664, -23.5, 15.6666666666666));
#190 = CARTESIAN_POINT ('', (-99.8333333333336, -23.7499999999999, 15.8333333333333));
#191 = CARTESIAN_POINT ('', (-99.75, -24., 16.));
#192 = CARTESIAN_POINT ('', (-100., -23.25, -15.5));
#193 = CARTESIAN_POINT ('', (-99.9166666666664, -23.5, -15.6666666666667));
#194 = CARTESIAN_POINT ('', (-99.8333333333336, -23.7499999999999, -15.8333333333333));
#195 = CARTESIAN_POINT ('', (-99.75, -24., -16.));
#196 = CARTESIAN_POINT ('', (-100., 7.75000000000002, -31.));
#197 = CARTESIAN_POINT ('', (-99.9166666666664, 7.83333333333335, -31.3333333333333));
#198 = CARTESIAN_POINT ('', (-99.8333333333336, 7.91666666666667, -31.6666666666666));
#199 = CARTESIAN_POINT ('', (-99.75, 8.00000000000002, -32.));
#200 = CARTESIAN_POINT ('', (-100., 7.75, -1.8982025386784E-15));
#201 = CARTESIAN_POINT ('', (-99.9166666666664, 7.83333333333333, -1.91861331866418E-15));
#202 = CARTESIAN_POINT ('', (-99.8333333333336, 7.91666666666665, -1.93902409864997E-15));
#203 = CARTESIAN_POINT ('', (-99.75, 8., -1.95943487863576E-15));
#204 = (
   BOUNDED_SURFACE ()
   B_SPLINE_SURFACE (5, 3, ((#180, #181, #182, #183), (#184, #185, #186, #187), (#188, #189, #190, #191), (#192, #193, #194, #195), (#196, #197, #198, #199), (#200, #201, #202, #203)), .UNSPECIFIED., .T., .F., .U.)
   B_SPLINE_SURFACE_WITH_KNOTS ((6, 6), (4, 4), (0., 1.), (0., 1.), .UNSPECIFIED.)
   SURFACE ()
   GEOMETRIC_REPRESENTATION_ITEM ()
   RATIONAL_B_SPLINE_SURFACE (((5., 5., 5., 5.), (1., 1., 1., 1.), (1., 1., 1., 1.), (1., 1., 1., 1.), (1., 1., 1., 1.), (5., 5., 5., 5.)))
   REPRESENTATION_ITEM ('')
);
#205 = ADVANCED_FACE ('', (#179), #204, .T.);
#206 = CLOSED_SHELL ('', (#84, #132, #167, #205));
#207 = MANIFOLD_SOLID_BREP ('', #206);
#208 = (
   LENGTH_UNIT ()
   NAMED_UNIT (*)
   SI_UNIT (.MILLI., .METRE.)
);
#209 = (
   NAMED_UNIT (*)
   SI_UNIT ($, .STERADIAN.)
   SOLID_ANGLE_UNIT ()
);
#210 = (
   NAMED_UNIT (*)
   SI_UNIT ($, .RADIAN.)
   PLANE_ANGLE_UNIT ()
);
#211 = UNCERTAINTY_MEASURE_WITH_UNIT (LENGTH_MEASURE(0.001), #208, 'DISTANCE_ACCURACY_VALUE', '');
#212 = (
   GEOMETRIC_REPRESENTATION_CONTEXT (3)
   GLOBAL_UNCERTAINTY_ASSIGNED_CONTEXT ((#211))
   GLOBAL_UNIT_ASSIGNED_CONTEXT ((#208, #209, #210))
   REPRESENTATION_CONTEXT ('', '3D')
);
#213 = SHAPE_REPRESENTATION ('', (), #212);
#214 = APPLICATION_CONTEXT ('configuration controlled 3D designs of mechanical parts and assemblies');
#215 = APPLICATION_PROTOCOL_DEFINITION ('International Standard', 'config_control_design', 1997, #214);
#216 = MECHANICAL_CONTEXT ('', #214, 'mechanical');
#217 = PRODUCT ('', '', '', (#216));
#218 = PERSON_AND_ORGANIZATION_ROLE ('design_owner');
#219 = PERSON ('', '', $, $, $, $);
#220 = ORGANIZATION ($, '', '');
#221 = PERSON_AND_ORGANIZATION (#219, #220);
#222 = CC_DESIGN_PERSON_AND_ORGANIZATION_ASSIGNMENT (#221, #218, (#217));
#223 = PRODUCT_RELATED_PRODUCT_CATEGORY ('detail', $, (#217));
#224 = PRODUCT_DEFINITION_FORMATION_WITH_SPECIFIED_SOURCE ('', '', #217, .NOT_KNOWN.);
#225 = APPROVAL_STATUS ('approved');
#226 = APPROVAL (#225, '');
#227 = CALENDAR_DATE (2021, 26, 1);
#228 = COORDINATED_UNIVERSAL_TIME_OFFSET (0, $, .AHEAD.);
#229 = LOCAL_TIME (10, 29, 19., #228);
#230 = DATE_AND_TIME (#227, #229);
#231 = APPROVAL_DATE_TIME (#230, #226);
#232 = APPROVAL_ROLE ('');
#233 = PERSON ('', '', $, $, $, $);
#234 = ORGANIZATION ($, '', '');
#235 = PERSON_AND_ORGANIZATION (#233, #234);
#236 = APPROVAL_PERSON_ORGANIZATION (#235, #226, #232);
#237 = CC_DESIGN_APPROVAL (#226, (#224));
#238 = PERSON_AND_ORGANIZATION_ROLE ('creator');
#239 = PERSON ('', '', $, $, $, $);
#240 = ORGANIZATION ($, '', '');
#241 = PERSON_AND_ORGANIZATION (#239, #240);
#242 = CC_DESIGN_PERSON_AND_ORGANIZATION_ASSIGNMENT (#241, #238, (#224));
#243 = PERSON_AND_ORGANIZATION_ROLE ('part_supplier');
#244 = PERSON ('', '', $, $, $, $);
#245 = ORGANIZATION ($, '', '');
#246 = PERSON_AND_ORGANIZATION (#244, #245);
#247 = CC_DESIGN_PERSON_AND_ORGANIZATION_ASSIGNMENT (#246, #243, (#224));
#248 = SECURITY_CLASSIFICATION_LEVEL ('unclassified');
#249 = SECURITY_CLASSIFICATION ('', '', #248);
#250 = APPROVAL_STATUS ('approved');
#251 = APPROVAL (#250, '');
#252 = CALENDAR_DATE (2021, 26, 1);
#253 = COORDINATED_UNIVERSAL_TIME_OFFSET (0, $, .AHEAD.);
#254 = LOCAL_TIME (10, 29, 19., #253);
#255 = DATE_AND_TIME (#252, #254);
#256 = APPROVAL_DATE_TIME (#255, #251);
#257 = APPROVAL_ROLE ('');
#258 = PERSON ('', '', $, $, $, $);
#259 = ORGANIZATION ($, '', '');
#260 = PERSON_AND_ORGANIZATION (#258, #259);
#261 = APPROVAL_PERSON_ORGANIZATION (#260, #251, #257);
#262 = CC_DESIGN_APPROVAL (#251, (#249));
#263 = DATE_TIME_ROLE ('classification_date');
#264 = CALENDAR_DATE (2021, 26, 1);
#265 = COORDINATED_UNIVERSAL_TIME_OFFSET (0, $, .AHEAD.);
#266 = LOCAL_TIME (10, 29, 19., #265);
#267 = DATE_AND_TIME (#264, #266);
#268 = CC_DESIGN_DATE_AND_TIME_ASSIGNMENT (#267, #263, (#249));
#269 = PERSON_AND_ORGANIZATION_ROLE ('classification_officer');
#270 = PERSON ('', '', $, $, $, $);
#271 = ORGANIZATION ($, '', '');
#272 = PERSON_AND_ORGANIZATION (#270, #271);
#273 = CC_DESIGN_PERSON_AND_ORGANIZATION_ASSIGNMENT (#272, #269, (#249));
#274 = CC_DESIGN_SECURITY_CLASSIFICATION (#249, (#224));
#275 = DESIGN_CONTEXT ('', #214, 'design');
#276 = PRODUCT_DEFINITION ('', '', #224, #275);
#277 = APPROVAL_STATUS ('approved');
#278 = APPROVAL (#277, '');
#279 = CALENDAR_DATE (2021, 26, 1);
#280 = COORDINATED_UNIVERSAL_TIME_OFFSET (0, $, .AHEAD.);
#281 = LOCAL_TIME (10, 29, 19., #280);
#282 = DATE_AND_TIME (#279, #281);
#283 = APPROVAL_DATE_TIME (#282, #278);
#284 = APPROVAL_ROLE ('');
#285 = PERSON ('', '', $, $, $, $);
#286 = ORGANIZATION ($, '', '');
#287 = PERSON_AND_ORGANIZATION (#285, #286);
#288 = APPROVAL_PERSON_ORGANIZATION (#287, #278, #284);
#289 = CC_DESIGN_APPROVAL (#278, (#276));
#290 = DATE_TIME_ROLE ('creation_date');
#291 = CALENDAR_DATE (2021, 26, 1);
#292 = COORDINATED_UNIVERSAL_TIME_OFFSET (0, $, .AHEAD.);
#293 = LOCAL_TIME (10, 29, 19., #292);
#294 = DATE_AND_TIME (#291, #293);
#295 = CC_DESIGN_DATE_AND_TIME_ASSIGNMENT (#294, #290, (#276));
#296 = PERSON_AND_ORGANIZATION_ROLE ('creator');
#297 = PERSON ('', '', $, $, $, $);
#298 = ORGANIZATION ($, '', '');
#299 = PERSON_AND_ORGANIZATION (#297, #298);
#300 = CC_DESIGN_PERSON_AND_ORGANIZATION_ASSIGNMENT (#299, #296, (#276));
#301 = PRODUCT_DEFINITION_SHAPE ('', '', #276);
#302 = SHAPE_DEFINITION_REPRESENTATION (#301, #213);
#303 = SHAPE_REPRESENTATION_RELATIONSHIP ('', '', #213, #304);
#304 = ADVANCED_BREP_SHAPE_REPRESENTATION ('', (#207), #212);
ENDSEC;
END-ISO-10303-21;
