ISO-10303-21;
HEADER;
FILE_DESCRIPTION ((), '1');
FILE_NAME ('C:\\Users\\kevin\\279 Range\\279 1000B.STP', '2020-04-16T10:53:45', ('Unknown'), ('mafordeurope'), 'OneCNC-XR7 Mill 3D Expert', 'OneCNC-XR7 Mill 3D Expert', '');
FILE_SCHEMA (('CONFIG_CONTROL_DESIGN'));
ENDSEC;

DATA;
#1 = CARTESIAN_POINT ('', (0., 0., 0.));
#2 = VERTEX_POINT ('', #1);
#3 = CARTESIAN_POINT ('', (-5., 5., -1.22464679914735E-15));
#4 = VERTEX_POINT ('', #3);
#5 = CARTESIAN_POINT ('', (0., 0., 0.));
#6 = CARTESIAN_POINT ('', (6.16297582203915E-33, 0.546276888898633, -1.33799248687577E-16));
#7 = CARTESIAN_POINT ('', (-0.145854845565456, 1.42614127340927, -3.49303869122519E-16));
#8 = CARTESIAN_POINT ('', (-0.727741756412037, 2.70194840410276, -6.6178649290915E-16));
#9 = CARTESIAN_POINT ('', (-1.48840525154976, 3.63760905176292, -8.90957256358179E-16));
#10 = CARTESIAN_POINT ('', (-2.45576047108788, 4.34418818345896, -1.06401923075335E-15));
#11 = CARTESIAN_POINT ('', (-3.57385872659072, 4.85414515443454, -1.18892266519498E-15));
#12 = CARTESIAN_POINT ('', (-4.45372311110137, 5., -1.22464679914735E-15));
#13 = CARTESIAN_POINT ('', (-5., 5., -1.22464679914735E-15));
#14 = B_SPLINE_CURVE_WITH_KNOTS ('', 3, (#5, #6, #7, #8, #9, #10, #11, #12, #13), .UNSPECIFIED., .F., .U., (4, 1, 1, 1, 1, 1, 4), (0., 0.208662401196191, 0.33617370428258, 0.532939663384363, 0.66382629571742, 0.791337598803809, 1.), .UNSPECIFIED.);
#15 = EDGE_CURVE ('', #2, #4, #14, .T.);
#16 = ORIENTED_EDGE ('', *, *, #15, .F.);
#17 = ORIENTED_EDGE ('', *, *, #15, .T.);
#18 = CARTESIAN_POINT ('', (-5., 5., -1.22464679914735E-15));
#19 = CARTESIAN_POINT ('', (-5., 5., 20.));
#20 = CARTESIAN_POINT ('', (-5., -15., 10.));
#21 = CARTESIAN_POINT ('', (-5., -15., -10.));
#22 = CARTESIAN_POINT ('', (-5., 5., -20.));
#23 = CARTESIAN_POINT ('', (-5., 5., -1.22464679914735E-15));
#24 = (
   BOUNDED_CURVE ()
   B_SPLINE_CURVE (5, (#18, #19, #20, #21, #22, #23), .UNSPECIFIED., .T., .U.)
   B_SPLINE_CURVE_WITH_KNOTS ((6, 6), (0., 1.), .UNSPECIFIED.)
   CURVE ()
   GEOMETRIC_REPRESENTATION_ITEM ()
   RATIONAL_B_SPLINE_CURVE ((5., 1., 1., 1., 1., 5.))
   REPRESENTATION_ITEM ('')
);
#25 = EDGE_CURVE ('', #4, #4, #24, .T.);
#26 = ORIENTED_EDGE ('', *, *, #25, .F.);
#27 = EDGE_LOOP ('', (#16, #17, #26));
#28 = FACE_OUTER_BOUND ('', #27, .F.);
#29 = CARTESIAN_POINT ('', (0., 0., 0.));
#30 = CARTESIAN_POINT ('', (6.16297582203915E-33, 0.546276888898633, -1.33799248687577E-16));
#31 = CARTESIAN_POINT ('', (-0.145854845565456, 1.42614127340927, -3.49303869122519E-16));
#32 = CARTESIAN_POINT ('', (-0.727741756412037, 2.70194840410276, -6.6178649290915E-16));
#33 = CARTESIAN_POINT ('', (-1.48840525154976, 3.63760905176292, -8.90957256358179E-16));
#34 = CARTESIAN_POINT ('', (-2.45576047108788, 4.34418818345896, -1.06401923075335E-15));
#35 = CARTESIAN_POINT ('', (-3.57385872659072, 4.85414515443454, -1.18892266519498E-15));
#36 = CARTESIAN_POINT ('', (-4.45372311110137, 5., -1.22464679914735E-15));
#37 = CARTESIAN_POINT ('', (-5., 5., -1.22464679914735E-15));
#38 = CARTESIAN_POINT ('', (0., 0., 0.));
#39 = CARTESIAN_POINT ('', (-1.33799248687577E-16, 0.546276888898633, 2.18510755559453));
#40 = CARTESIAN_POINT ('', (-0.145854845565456, 1.42614127340927, 5.70456509363709));
#41 = CARTESIAN_POINT ('', (-0.727741756412038, 2.70194840410277, 10.8077936164111));
#42 = CARTESIAN_POINT ('', (-1.48840525154976, 3.63760905176292, 14.5504362070517));
#43 = CARTESIAN_POINT ('', (-2.45576047108788, 4.34418818345896, 17.3767527338358));
#44 = CARTESIAN_POINT ('', (-3.57385872659073, 4.85414515443455, 19.4165806177382));
#45 = CARTESIAN_POINT ('', (-4.45372311110137, 5.00000000000001, 20.));
#46 = CARTESIAN_POINT ('', (-5., 5., 20.));
#47 = CARTESIAN_POINT ('', (0., 0., 0.));
#48 = CARTESIAN_POINT ('', (-2.00698873031366E-16, -1.6388306666959, 1.09255377779727));
#49 = CARTESIAN_POINT ('', (-0.145854845565456, -4.27842382022782, 2.85228254681855));
#50 = CARTESIAN_POINT ('', (-0.727741756412038, -8.10584521230829, 5.40389680820553));
#51 = CARTESIAN_POINT ('', (-1.48840525154976, -10.9128271552887, 7.27521810352584));
#52 = CARTESIAN_POINT ('', (-2.45576047108788, -13.0325645503769, 8.68837636691791));
#53 = CARTESIAN_POINT ('', (-3.57385872659073, -14.5624354633036, 9.70829030886909));
#54 = CARTESIAN_POINT ('', (-4.45372311110137, -15., 10.));
#55 = CARTESIAN_POINT ('', (-5., -15., 10.));
#56 = CARTESIAN_POINT ('', (0., 0., 0.));
#57 = CARTESIAN_POINT ('', (-6.68996243437886E-17, -1.6388306666959, -1.09255377779727));
#58 = CARTESIAN_POINT ('', (-0.145854845565456, -4.27842382022782, -2.85228254681855));
#59 = CARTESIAN_POINT ('', (-0.727741756412037, -8.10584521230829, -5.40389680820553));
#60 = CARTESIAN_POINT ('', (-1.48840525154976, -10.9128271552888, -7.27521810352583));
#61 = CARTESIAN_POINT ('', (-2.45576047108788, -13.0325645503769, -8.68837636691791));
#62 = CARTESIAN_POINT ('', (-3.57385872659072, -14.5624354633036, -9.70829030886908));
#63 = CARTESIAN_POINT ('', (-4.45372311110137, -15., -10.));
#64 = CARTESIAN_POINT ('', (-5., -15., -10.));
#65 = CARTESIAN_POINT ('', (0., 0., 0.));
#66 = CARTESIAN_POINT ('', (1.33799248687577E-16, 0.546276888898632, -2.18510755559453));
#67 = CARTESIAN_POINT ('', (-0.145854845565456, 1.42614127340927, -5.70456509363709));
#68 = CARTESIAN_POINT ('', (-0.727741756412037, 2.70194840410276, -10.8077936164111));
#69 = CARTESIAN_POINT ('', (-1.48840525154976, 3.63760905176291, -14.5504362070517));
#70 = CARTESIAN_POINT ('', (-2.45576047108788, 4.34418818345895, -17.3767527338358));
#71 = CARTESIAN_POINT ('', (-3.57385872659072, 4.85414515443454, -19.4165806177382));
#72 = CARTESIAN_POINT ('', (-4.45372311110137, 5., -20.));
#73 = CARTESIAN_POINT ('', (-5., 5., -20.));
#74 = CARTESIAN_POINT ('', (0., 0., 0.));
#75 = CARTESIAN_POINT ('', (6.16297582203915E-33, 0.546276888898633, -1.33799248687577E-16));
#76 = CARTESIAN_POINT ('', (-0.145854845565456, 1.42614127340927, -3.49303869122519E-16));
#77 = CARTESIAN_POINT ('', (-0.727741756412037, 2.70194840410276, -6.6178649290915E-16));
#78 = CARTESIAN_POINT ('', (-1.48840525154976, 3.63760905176292, -8.90957256358179E-16));
#79 = CARTESIAN_POINT ('', (-2.45576047108788, 4.34418818345896, -1.06401923075335E-15));
#80 = CARTESIAN_POINT ('', (-3.57385872659072, 4.85414515443454, -1.18892266519498E-15));
#81 = CARTESIAN_POINT ('', (-4.45372311110137, 5., -1.22464679914735E-15));
#82 = CARTESIAN_POINT ('', (-5., 5., -1.22464679914735E-15));
#83 = (
   BOUNDED_SURFACE ()
   B_SPLINE_SURFACE (5, 3, ((#29, #30, #31, #32, #33, #34, #35, #36, #37), (#38, #39, #40, #41, #42, #43, #44, #45, #46), (#47, #48, #49, #50, #51, #52, #53, #54, #55), (#56, #57, #58, #59, #60, #61, #62, #63, #64), (#65, #66, #67, #68, #69, #70, #71, #72, #73), (#74, #75, #76, #77, #78, #79, #80, #81, #82)), .UNSPECIFIED., .T., .F., .U.)
   B_SPLINE_SURFACE_WITH_KNOTS ((6, 6), (4, 1, 1, 1, 1, 1, 4), (0., 1.), (0., 0.208662401196191, 0.33617370428258, 0.532939663384363, 0.66382629571742, 0.791337598803809, 1.), .UNSPECIFIED.)
   SURFACE ()
   GEOMETRIC_REPRESENTATION_ITEM ()
   RATIONAL_B_SPLINE_SURFACE (((5., 5., 5., 5., 5., 5., 5., 5., 5.), (1., 1., 1., 1., 1., 1., 1., 1., 1.), (1., 1., 1., 1., 1., 1., 1., 1., 1.), (1., 1., 1., 1., 1., 1., 1., 1., 1.), (1., 1., 1., 1., 1., 1., 1., 1., 1.), (5., 5., 5., 5., 5., 5., 5., 5., 5.)))
   REPRESENTATION_ITEM ('')
);
#84 = ADVANCED_FACE ('', (#28), #83, .F.);
#85 = CARTESIAN_POINT ('', (-71.75, 5., -1.22464679914735E-15));
#86 = VERTEX_POINT ('', #85);
#87 = CARTESIAN_POINT ('', (-5., 5., -1.22464679914735E-15));
#88 = CARTESIAN_POINT ('', (-27.25, 5., -1.22464679914735E-15));
#89 = CARTESIAN_POINT ('', (-49.5, 5., -1.22464679914735E-15));
#90 = CARTESIAN_POINT ('', (-71.75, 5., -1.22464679914735E-15));
#91 = B_SPLINE_CURVE_WITH_KNOTS ('', 3, (#87, #88, #89, #90), .UNSPECIFIED., .F., .U., (4, 4), (0., 1.), .UNSPECIFIED.);
#92 = EDGE_CURVE ('', #4, #86, #91, .T.);
#93 = ORIENTED_EDGE ('', *, *, #92, .F.);
#94 = ORIENTED_EDGE ('', *, *, #25, .T.);
#95 = ORIENTED_EDGE ('', *, *, #92, .T.);
#96 = CARTESIAN_POINT ('', (-71.75, 5., -1.22464679914735E-15));
#97 = CARTESIAN_POINT ('', (-71.75, 4.99999999999999, 20.));
#98 = CARTESIAN_POINT ('', (-71.75, -15., 9.99999999999998));
#99 = CARTESIAN_POINT ('', (-71.75, -15., -10.));
#100 = CARTESIAN_POINT ('', (-71.75, 5.00000000000001, -20.));
#101 = CARTESIAN_POINT ('', (-71.75, 5., -1.22464679914735E-15));
#102 = (
   BOUNDED_CURVE ()
   B_SPLINE_CURVE (5, (#96, #97, #98, #99, #100, #101), .UNSPECIFIED., .T., .U.)
   B_SPLINE_CURVE_WITH_KNOTS ((6, 6), (0., 1.), .UNSPECIFIED.)
   CURVE ()
   GEOMETRIC_REPRESENTATION_ITEM ()
   RATIONAL_B_SPLINE_CURVE ((5., 1., 1., 1., 1., 5.))
   REPRESENTATION_ITEM ('')
);
#103 = EDGE_CURVE ('', #86, #86, #102, .T.);
#104 = ORIENTED_EDGE ('', *, *, #103, .F.);
#105 = EDGE_LOOP ('', (#93, #94, #95, #104));
#106 = FACE_OUTER_BOUND ('', #105, .F.);
#107 = CARTESIAN_POINT ('', (-5., 5., -1.22464679914735E-15));
#108 = CARTESIAN_POINT ('', (-27.25, 5., -1.22464679914735E-15));
#109 = CARTESIAN_POINT ('', (-49.5, 5., -1.22464679914735E-15));
#110 = CARTESIAN_POINT ('', (-71.75, 5., -1.22464679914735E-15));
#111 = CARTESIAN_POINT ('', (-5., 5., 20.));
#112 = CARTESIAN_POINT ('', (-27.25, 5., 20.));
#113 = CARTESIAN_POINT ('', (-49.5, 4.99999999999999, 20.));
#114 = CARTESIAN_POINT ('', (-71.75, 4.99999999999999, 20.));
#115 = CARTESIAN_POINT ('', (-5., -15., 10.));
#116 = CARTESIAN_POINT ('', (-27.25, -15., 9.99999999999999));
#117 = CARTESIAN_POINT ('', (-49.5, -15., 9.99999999999998));
#118 = CARTESIAN_POINT ('', (-71.75, -15., 9.99999999999998));
#119 = CARTESIAN_POINT ('', (-5., -15., -10.));
#120 = CARTESIAN_POINT ('', (-27.25, -15., -10.));
#121 = CARTESIAN_POINT ('', (-49.5, -15., -10.));
#122 = CARTESIAN_POINT ('', (-71.75, -15., -10.));
#123 = CARTESIAN_POINT ('', (-5., 5., -20.));
#124 = CARTESIAN_POINT ('', (-27.25, 5., -20.));
#125 = CARTESIAN_POINT ('', (-49.5, 5.00000000000001, -20.));
#126 = CARTESIAN_POINT ('', (-71.75, 5.00000000000001, -20.));
#127 = CARTESIAN_POINT ('', (-5., 5., -1.22464679914735E-15));
#128 = CARTESIAN_POINT ('', (-27.25, 5., -1.22464679914735E-15));
#129 = CARTESIAN_POINT ('', (-49.5, 5., -1.22464679914735E-15));
#130 = CARTESIAN_POINT ('', (-71.75, 5., -1.22464679914735E-15));
#131 = (
   BOUNDED_SURFACE ()
   B_SPLINE_SURFACE (5, 3, ((#107, #108, #109, #110), (#111, #112, #113, #114), (#115, #116, #117, #118), (#119, #120, #121, #122), (#123, #124, #125, #126), (#127, #128, #129, #130)), .UNSPECIFIED., .T., .F., .U.)
   B_SPLINE_SURFACE_WITH_KNOTS ((6, 6), (4, 4), (0., 1.), (0., 1.), .UNSPECIFIED.)
   SURFACE ()
   GEOMETRIC_REPRESENTATION_ITEM ()
   RATIONAL_B_SPLINE_SURFACE (((5., 5., 5., 5.), (1., 1., 1., 1.), (1., 1., 1., 1.), (1., 1., 1., 1.), (1., 1., 1., 1.), (5., 5., 5., 5.)))
   REPRESENTATION_ITEM ('')
);
#132 = ADVANCED_FACE ('', (#106), #131, .F.);
#133 = CARTESIAN_POINT ('', (-72., 4.75, -1.16341445918998E-15));
#134 = VERTEX_POINT ('', #133);
#135 = CARTESIAN_POINT ('', (-72., 4.40872847693047E-15, -4.40872847693047E-15));
#136 = VERTEX_POINT ('', #135);
#137 = CARTESIAN_POINT ('', (-72., 4.75, -1.16341445918998E-15));
#138 = CARTESIAN_POINT ('', (-72., 4.40872847693047E-15, -4.40872847693047E-15));
#139 = B_SPLINE_CURVE_WITH_KNOTS ('', 1, (#137, #138), .UNSPECIFIED., .F., .U., (2, 2), (0., 1.), .UNSPECIFIED.);
#140 = EDGE_CURVE ('', #134, #136, #139, .T.);
#141 = ORIENTED_EDGE ('', *, *, #140, .F.);
#142 = CARTESIAN_POINT ('', (-72., 4.75, -1.16341445918998E-15));
#143 = CARTESIAN_POINT ('', (-72., 4.74999999999998, 19.));
#144 = CARTESIAN_POINT ('', (-72., -14.25, 9.49999999999998));
#145 = CARTESIAN_POINT ('', (-72., -14.25, -9.5));
#146 = CARTESIAN_POINT ('', (-72., 4.75000000000001, -19.));
#147 = CARTESIAN_POINT ('', (-72., 4.75, -1.16341445918998E-15));
#148 = (
   BOUNDED_CURVE ()
   B_SPLINE_CURVE (5, (#142, #143, #144, #145, #146, #147), .UNSPECIFIED., .T., .U.)
   B_SPLINE_CURVE_WITH_KNOTS ((6, 6), (0., 1.), .UNSPECIFIED.)
   CURVE ()
   GEOMETRIC_REPRESENTATION_ITEM ()
   RATIONAL_B_SPLINE_CURVE ((5., 1., 1., 1., 1., 5.))
   REPRESENTATION_ITEM ('')
);
#149 = EDGE_CURVE ('', #134, #134, #148, .T.);
#150 = ORIENTED_EDGE ('', *, *, #149, .T.);
#151 = ORIENTED_EDGE ('', *, *, #140, .T.);
#152 = EDGE_LOOP ('', (#141, #150, #151));
#153 = FACE_OUTER_BOUND ('', #152, .F.);
#154 = CARTESIAN_POINT ('', (-72., 4.75, -1.16341445918998E-15));
#155 = CARTESIAN_POINT ('', (-72., 4.40872847693047E-15, -4.40872847693047E-15));
#156 = CARTESIAN_POINT ('', (-72., 4.74999999999998, 19.));
#157 = CARTESIAN_POINT ('', (-72., 4.40872847693047E-15, -4.40872847693047E-15));
#158 = CARTESIAN_POINT ('', (-72., -14.25, 9.49999999999998));
#159 = CARTESIAN_POINT ('', (-72., 4.40872847693047E-15, -4.40872847693047E-15));
#160 = CARTESIAN_POINT ('', (-72., -14.25, -9.5));
#161 = CARTESIAN_POINT ('', (-72., 4.40872847693047E-15, -4.40872847693047E-15));
#162 = CARTESIAN_POINT ('', (-72., 4.75000000000001, -19.));
#163 = CARTESIAN_POINT ('', (-72., 4.40872847693047E-15, -4.40872847693047E-15));
#164 = CARTESIAN_POINT ('', (-72., 4.75, -1.16341445918998E-15));
#165 = CARTESIAN_POINT ('', (-72., 4.40872847693047E-15, -4.40872847693047E-15));
#166 = (
   BOUNDED_SURFACE ()
   B_SPLINE_SURFACE (5, 1, ((#154, #155), (#156, #157), (#158, #159), (#160, #161), (#162, #163), (#164, #165)), .UNSPECIFIED., .T., .F., .U.)
   B_SPLINE_SURFACE_WITH_KNOTS ((6, 6), (2, 2), (0., 1.), (0., 1.), .UNSPECIFIED.)
   SURFACE ()
   GEOMETRIC_REPRESENTATION_ITEM ()
   RATIONAL_B_SPLINE_SURFACE (((5., 5.), (1., 1.), (1., 1.), (1., 1.), (1., 1.), (5., 5.)))
   REPRESENTATION_ITEM ('')
);
#167 = ADVANCED_FACE ('', (#153), #166, .F.);
#168 = CARTESIAN_POINT ('', (-71.75, 5., -1.22464679914735E-15));
#169 = CARTESIAN_POINT ('', (-71.8333333333335, 4.91666666666665, -1.20423601916156E-15));
#170 = CARTESIAN_POINT ('', (-71.9166666666667, 4.83333333333333, -1.18382523917577E-15));
#171 = CARTESIAN_POINT ('', (-72., 4.75, -1.16341445918998E-15));
#172 = B_SPLINE_CURVE_WITH_KNOTS ('', 3, (#168, #169, #170, #171), .UNSPECIFIED., .F., .U., (4, 4), (0., 1.), .UNSPECIFIED.);
#173 = EDGE_CURVE ('', #86, #134, #172, .T.);
#174 = ORIENTED_EDGE ('', *, *, #173, .F.);
#175 = ORIENTED_EDGE ('', *, *, #103, .T.);
#176 = ORIENTED_EDGE ('', *, *, #173, .T.);
#177 = ORIENTED_EDGE ('', *, *, #149, .F.);
#178 = EDGE_LOOP ('', (#174, #175, #176, #177));
#179 = FACE_OUTER_BOUND ('', #178, .F.);
#180 = CARTESIAN_POINT ('', (-71.75, 5., -1.22464679914735E-15));
#181 = CARTESIAN_POINT ('', (-71.8333333333335, 4.91666666666665, -1.20423601916156E-15));
#182 = CARTESIAN_POINT ('', (-71.9166666666667, 4.83333333333333, -1.18382523917577E-15));
#183 = CARTESIAN_POINT ('', (-72., 4.75, -1.16341445918998E-15));
#184 = CARTESIAN_POINT ('', (-71.75, 4.99999999999999, 20.));
#185 = CARTESIAN_POINT ('', (-71.8333333333335, 4.91666666666663, 19.6666666666666));
#186 = CARTESIAN_POINT ('', (-71.9166666666667, 4.83333333333331, 19.3333333333333));
#187 = CARTESIAN_POINT ('', (-72., 4.74999999999998, 19.));
#188 = CARTESIAN_POINT ('', (-71.75, -15., 9.99999999999998));
#189 = CARTESIAN_POINT ('', (-71.8333333333335, -14.7499999999999, 9.83333333333327));
#190 = CARTESIAN_POINT ('', (-71.9166666666667, -14.5, 9.66666666666663));
#191 = CARTESIAN_POINT ('', (-72., -14.25, 9.49999999999998));
#192 = CARTESIAN_POINT ('', (-71.75, -15., -10.));
#193 = CARTESIAN_POINT ('', (-71.8333333333335, -14.7499999999999, -9.8333333333333));
#194 = CARTESIAN_POINT ('', (-71.9166666666667, -14.5, -9.66666666666666));
#195 = CARTESIAN_POINT ('', (-72., -14.25, -9.5));
#196 = CARTESIAN_POINT ('', (-71.75, 5.00000000000001, -20.));
#197 = CARTESIAN_POINT ('', (-71.8333333333335, 4.91666666666666, -19.6666666666666));
#198 = CARTESIAN_POINT ('', (-71.9166666666667, 4.83333333333334, -19.3333333333333));
#199 = CARTESIAN_POINT ('', (-72., 4.75000000000001, -19.));
#200 = CARTESIAN_POINT ('', (-71.75, 5., -1.22464679914735E-15));
#201 = CARTESIAN_POINT ('', (-71.8333333333335, 4.91666666666665, -1.20423601916156E-15));
#202 = CARTESIAN_POINT ('', (-71.9166666666667, 4.83333333333333, -1.18382523917577E-15));
#203 = CARTESIAN_POINT ('', (-72., 4.75, -1.16341445918998E-15));
#204 = (
   BOUNDED_SURFACE ()
   B_SPLINE_SURFACE (5, 3, ((#180, #181, #182, #183), (#184, #185, #186, #187), (#188, #189, #190, #191), (#192, #193, #194, #195), (#196, #197, #198, #199), (#200, #201, #202, #203)), .UNSPECIFIED., .T., .F., .U.)
   B_SPLINE_SURFACE_WITH_KNOTS ((6, 6), (4, 4), (0., 1.), (0., 1.), .UNSPECIFIED.)
   SURFACE ()
   GEOMETRIC_REPRESENTATION_ITEM ()
   RATIONAL_B_SPLINE_SURFACE (((5., 5., 5., 5.), (1., 1., 1., 1.), (1., 1., 1., 1.), (1., 1., 1., 1.), (1., 1., 1., 1.), (5., 5., 5., 5.)))
   REPRESENTATION_ITEM ('')
);
#205 = ADVANCED_FACE ('', (#179), #204, .F.);
#206 = CLOSED_SHELL ('', (#84, #132, #167, #205));
#207 = MANIFOLD_SOLID_BREP ('', #206);
#208 = (
   LENGTH_UNIT ()
   NAMED_UNIT (*)
   SI_UNIT (.MILLI., .METRE.)
);
#209 = (
   NAMED_UNIT (*)
   SI_UNIT ($, .STERADIAN.)
   SOLID_ANGLE_UNIT ()
);
#210 = (
   NAMED_UNIT (*)
   SI_UNIT ($, .RADIAN.)
   PLANE_ANGLE_UNIT ()
);
#211 = UNCERTAINTY_MEASURE_WITH_UNIT (LENGTH_MEASURE(0.001), #208, 'DISTANCE_ACCURACY_VALUE', '');
#212 = (
   GEOMETRIC_REPRESENTATION_CONTEXT (3)
   GLOBAL_UNCERTAINTY_ASSIGNED_CONTEXT ((#211))
   GLOBAL_UNIT_ASSIGNED_CONTEXT ((#208, #209, #210))
   REPRESENTATION_CONTEXT ('', '3D')
);
#213 = SHAPE_REPRESENTATION ('', (), #212);
#214 = APPLICATION_CONTEXT ('configuration controlled 3D designs of mechanical parts and assemblies');
#215 = APPLICATION_PROTOCOL_DEFINITION ('International Standard', 'config_control_design', 1997, #214);
#216 = MECHANICAL_CONTEXT ('', #214, 'mechanical');
#217 = PRODUCT ('', '', '', (#216));
#218 = PERSON_AND_ORGANIZATION_ROLE ('design_owner');
#219 = PERSON ('', '', $, $, $, $);
#220 = ORGANIZATION ($, '', '');
#221 = PERSON_AND_ORGANIZATION (#219, #220);
#222 = CC_DESIGN_PERSON_AND_ORGANIZATION_ASSIGNMENT (#221, #218, (#217));
#223 = PRODUCT_RELATED_PRODUCT_CATEGORY ('detail', $, (#217));
#224 = PRODUCT_DEFINITION_FORMATION_WITH_SPECIFIED_SOURCE ('', '', #217, .NOT_KNOWN.);
#225 = APPROVAL_STATUS ('approved');
#226 = APPROVAL (#225, '');
#227 = CALENDAR_DATE (2020, 16, 4);
#228 = COORDINATED_UNIVERSAL_TIME_OFFSET (0, $, .AHEAD.);
#229 = LOCAL_TIME (10, 53, 45., #228);
#230 = DATE_AND_TIME (#227, #229);
#231 = APPROVAL_DATE_TIME (#230, #226);
#232 = APPROVAL_ROLE ('');
#233 = PERSON ('', '', $, $, $, $);
#234 = ORGANIZATION ($, '', '');
#235 = PERSON_AND_ORGANIZATION (#233, #234);
#236 = APPROVAL_PERSON_ORGANIZATION (#235, #226, #232);
#237 = CC_DESIGN_APPROVAL (#226, (#224));
#238 = PERSON_AND_ORGANIZATION_ROLE ('creator');
#239 = PERSON ('', '', $, $, $, $);
#240 = ORGANIZATION ($, '', '');
#241 = PERSON_AND_ORGANIZATION (#239, #240);
#242 = CC_DESIGN_PERSON_AND_ORGANIZATION_ASSIGNMENT (#241, #238, (#224));
#243 = PERSON_AND_ORGANIZATION_ROLE ('part_supplier');
#244 = PERSON ('', '', $, $, $, $);
#245 = ORGANIZATION ($, '', '');
#246 = PERSON_AND_ORGANIZATION (#244, #245);
#247 = CC_DESIGN_PERSON_AND_ORGANIZATION_ASSIGNMENT (#246, #243, (#224));
#248 = SECURITY_CLASSIFICATION_LEVEL ('unclassified');
#249 = SECURITY_CLASSIFICATION ('', '', #248);
#250 = APPROVAL_STATUS ('approved');
#251 = APPROVAL (#250, '');
#252 = CALENDAR_DATE (2020, 16, 4);
#253 = COORDINATED_UNIVERSAL_TIME_OFFSET (0, $, .AHEAD.);
#254 = LOCAL_TIME (10, 53, 45., #253);
#255 = DATE_AND_TIME (#252, #254);
#256 = APPROVAL_DATE_TIME (#255, #251);
#257 = APPROVAL_ROLE ('');
#258 = PERSON ('', '', $, $, $, $);
#259 = ORGANIZATION ($, '', '');
#260 = PERSON_AND_ORGANIZATION (#258, #259);
#261 = APPROVAL_PERSON_ORGANIZATION (#260, #251, #257);
#262 = CC_DESIGN_APPROVAL (#251, (#249));
#263 = DATE_TIME_ROLE ('classification_date');
#264 = CALENDAR_DATE (2020, 16, 4);
#265 = COORDINATED_UNIVERSAL_TIME_OFFSET (0, $, .AHEAD.);
#266 = LOCAL_TIME (10, 53, 45., #265);
#267 = DATE_AND_TIME (#264, #266);
#268 = CC_DESIGN_DATE_AND_TIME_ASSIGNMENT (#267, #263, (#249));
#269 = PERSON_AND_ORGANIZATION_ROLE ('classification_officer');
#270 = PERSON ('', '', $, $, $, $);
#271 = ORGANIZATION ($, '', '');
#272 = PERSON_AND_ORGANIZATION (#270, #271);
#273 = CC_DESIGN_PERSON_AND_ORGANIZATION_ASSIGNMENT (#272, #269, (#249));
#274 = CC_DESIGN_SECURITY_CLASSIFICATION (#249, (#224));
#275 = DESIGN_CONTEXT ('', #214, 'design');
#276 = PRODUCT_DEFINITION ('', '', #224, #275);
#277 = APPROVAL_STATUS ('approved');
#278 = APPROVAL (#277, '');
#279 = CALENDAR_DATE (2020, 16, 4);
#280 = COORDINATED_UNIVERSAL_TIME_OFFSET (0, $, .AHEAD.);
#281 = LOCAL_TIME (10, 53, 45., #280);
#282 = DATE_AND_TIME (#279, #281);
#283 = APPROVAL_DATE_TIME (#282, #278);
#284 = APPROVAL_ROLE ('');
#285 = PERSON ('', '', $, $, $, $);
#286 = ORGANIZATION ($, '', '');
#287 = PERSON_AND_ORGANIZATION (#285, #286);
#288 = APPROVAL_PERSON_ORGANIZATION (#287, #278, #284);
#289 = CC_DESIGN_APPROVAL (#278, (#276));
#290 = DATE_TIME_ROLE ('creation_date');
#291 = CALENDAR_DATE (2020, 16, 4);
#292 = COORDINATED_UNIVERSAL_TIME_OFFSET (0, $, .AHEAD.);
#293 = LOCAL_TIME (10, 53, 45., #292);
#294 = DATE_AND_TIME (#291, #293);
#295 = CC_DESIGN_DATE_AND_TIME_ASSIGNMENT (#294, #290, (#276));
#296 = PERSON_AND_ORGANIZATION_ROLE ('creator');
#297 = PERSON ('', '', $, $, $, $);
#298 = ORGANIZATION ($, '', '');
#299 = PERSON_AND_ORGANIZATION (#297, #298);
#300 = CC_DESIGN_PERSON_AND_ORGANIZATION_ASSIGNMENT (#299, #296, (#276));
#301 = PRODUCT_DEFINITION_SHAPE ('', '', #276);
#302 = SHAPE_DEFINITION_REPRESENTATION (#301, #213);
#303 = SHAPE_REPRESENTATION_RELATIONSHIP ('', '', #213, #304);
#304 = ADVANCED_BREP_SHAPE_REPRESENTATION ('', (#207), #212);
ENDSEC;
END-ISO-10303-21;
