ISO-10303-21;
HEADER;
FILE_DESCRIPTION ((), '1');
FILE_NAME ('D:\\Documents\\Mark Dainty\\2XDSS\\2XDSSM0290A.STP', '2021-03-15T16:58:52', ('Unknown'), ('M A Ford Europe'), 'OneCNC-XR8 Mill 3D Expert', 'OneCNC-XR8 Mill 3D Expert', '');
FILE_SCHEMA (('CONFIG_CONTROL_DESIGN'));
ENDSEC;

DATA;
#1 = CARTESIAN_POINT ('', (-0.499275039270014, 1.45, 0.));
#2 = CARTESIAN_POINT ('', (0., 0., 0.));
#3 = B_SPLINE_CURVE_WITH_KNOTS ('', 1, (#1, #2), .UNSPECIFIED., .F., .U., (2, 2), (0., 1.), .UNSPECIFIED.);
#4 = GEOMETRIC_CURVE_SET ('', (#3, #7, #10));
#5 = CARTESIAN_POINT ('', (-45.5, 1.45, 0.));
#6 = CARTESIAN_POINT ('', (-0.499275039270017, 1.45, 0.));
#7 = B_SPLINE_CURVE_WITH_KNOTS ('', 1, (#5, #6), .UNSPECIFIED., .F., .U., (2, 2), (0., 1.), .UNSPECIFIED.);
#8 = CARTESIAN_POINT ('', (-46., 0.95, 0.));
#9 = CARTESIAN_POINT ('', (-45.5, 1.45, 0.));
#10 = B_SPLINE_CURVE_WITH_KNOTS ('', 1, (#8, #9), .UNSPECIFIED., .F., .U., (2, 2), (0., 1.), .UNSPECIFIED.);
#11 = CARTESIAN_POINT ('', (-45.5, 1.45, -3.55147571752732E-16));
#12 = VERTEX_POINT ('', #11);
#13 = CARTESIAN_POINT ('', (-0.499275039270017, 1.45, -3.55147571752732E-16));
#14 = VERTEX_POINT ('', #13);
#15 = CARTESIAN_POINT ('', (-45.5, 1.45, -3.55147571752732E-16));
#16 = CARTESIAN_POINT ('', (-30.4997583464233, 1.45, -3.55147571752732E-16));
#17 = CARTESIAN_POINT ('', (-15.4995166928467, 1.45, -3.55147571752732E-16));
#18 = CARTESIAN_POINT ('', (-0.499275039270017, 1.45, -3.55147571752732E-16));
#19 = B_SPLINE_CURVE_WITH_KNOTS ('', 3, (#15, #16, #17, #18), .UNSPECIFIED., .F., .U., (4, 4), (0., 1.), .UNSPECIFIED.);
#20 = EDGE_CURVE ('', #12, #14, #19, .T.);
#21 = ORIENTED_EDGE ('', *, *, #20, .F.);
#22 = CARTESIAN_POINT ('', (-45.5, 1.45, -3.55147571752732E-16));
#23 = CARTESIAN_POINT ('', (-45.5, 1.44999999999999, 5.79999999999999));
#24 = CARTESIAN_POINT ('', (-45.5, -4.34999999999999, 2.89999999999998));
#25 = CARTESIAN_POINT ('', (-45.5, -4.34999999999998, -2.9));
#26 = CARTESIAN_POINT ('', (-45.5, 1.45000000000001, -5.79999999999999));
#27 = CARTESIAN_POINT ('', (-45.5, 1.45, -3.55147571752732E-16));
#28 = (
   BOUNDED_CURVE ()
   B_SPLINE_CURVE (5, (#22, #23, #24, #25, #26, #27), .UNSPECIFIED., .T., .U.)
   B_SPLINE_CURVE_WITH_KNOTS ((6, 6), (0., 1.), .UNSPECIFIED.)
   CURVE ()
   GEOMETRIC_REPRESENTATION_ITEM ()
   RATIONAL_B_SPLINE_CURVE ((5., 1., 1., 1., 1., 5.))
   REPRESENTATION_ITEM ('')
);
#29 = EDGE_CURVE ('', #12, #12, #28, .T.);
#30 = ORIENTED_EDGE ('', *, *, #29, .T.);
#31 = ORIENTED_EDGE ('', *, *, #20, .T.);
#32 = CARTESIAN_POINT ('', (-0.499275039270014, 1.45, -3.55147571752732E-16));
#33 = CARTESIAN_POINT ('', (-0.499275039270014, 1.45, 5.79999999999999));
#34 = CARTESIAN_POINT ('', (-0.499275039270015, -4.35, 2.9));
#35 = CARTESIAN_POINT ('', (-0.499275039270014, -4.35, -2.9));
#36 = CARTESIAN_POINT ('', (-0.499275039270014, 1.45, -5.79999999999999));
#37 = CARTESIAN_POINT ('', (-0.499275039270014, 1.45, -3.55147571752732E-16));
#38 = (
   BOUNDED_CURVE ()
   B_SPLINE_CURVE (5, (#32, #33, #34, #35, #36, #37), .UNSPECIFIED., .T., .U.)
   B_SPLINE_CURVE_WITH_KNOTS ((6, 6), (0., 1.), .UNSPECIFIED.)
   CURVE ()
   GEOMETRIC_REPRESENTATION_ITEM ()
   RATIONAL_B_SPLINE_CURVE ((5., 1., 1., 1., 1., 5.))
   REPRESENTATION_ITEM ('')
);
#39 = EDGE_CURVE ('', #14, #14, #38, .T.);
#40 = ORIENTED_EDGE ('', *, *, #39, .F.);
#41 = EDGE_LOOP ('', (#21, #30, #31, #40));
#42 = FACE_OUTER_BOUND ('', #41, .T.);
#43 = CARTESIAN_POINT ('', (-45.5, 1.45, -3.55147571752732E-16));
#44 = CARTESIAN_POINT ('', (-30.4997583464233, 1.45, -3.55147571752732E-16));
#45 = CARTESIAN_POINT ('', (-15.4995166928467, 1.45, -3.55147571752732E-16));
#46 = CARTESIAN_POINT ('', (-0.499275039270017, 1.45, -3.55147571752732E-16));
#47 = CARTESIAN_POINT ('', (-45.5, 1.44999999999999, 5.79999999999999));
#48 = CARTESIAN_POINT ('', (-30.4997583464233, 1.44999999999999, 5.79999999999999));
#49 = CARTESIAN_POINT ('', (-15.4995166928467, 1.45, 5.79999999999999));
#50 = CARTESIAN_POINT ('', (-0.499275039270018, 1.45, 5.8));
#51 = CARTESIAN_POINT ('', (-45.5, -4.34999999999999, 2.89999999999998));
#52 = CARTESIAN_POINT ('', (-30.4997583464233, -4.35, 2.89999999999999));
#53 = CARTESIAN_POINT ('', (-15.4995166928467, -4.34999999999999, 2.89999999999999));
#54 = CARTESIAN_POINT ('', (-0.499275039270018, -4.35, 2.9));
#55 = CARTESIAN_POINT ('', (-45.5, -4.34999999999998, -2.9));
#56 = CARTESIAN_POINT ('', (-30.4997583464233, -4.34999999999999, -2.9));
#57 = CARTESIAN_POINT ('', (-15.4995166928467, -4.34999999999999, -2.9));
#58 = CARTESIAN_POINT ('', (-0.499275039270018, -4.35, -2.9));
#59 = CARTESIAN_POINT ('', (-45.5, 1.45000000000001, -5.79999999999999));
#60 = CARTESIAN_POINT ('', (-30.4997583464233, 1.45000000000001, -5.79999999999999));
#61 = CARTESIAN_POINT ('', (-15.4995166928467, 1.45, -5.79999999999999));
#62 = CARTESIAN_POINT ('', (-0.499275039270017, 1.45, -5.8));
#63 = CARTESIAN_POINT ('', (-45.5, 1.45, -3.55147571752732E-16));
#64 = CARTESIAN_POINT ('', (-30.4997583464233, 1.45, -3.55147571752732E-16));
#65 = CARTESIAN_POINT ('', (-15.4995166928467, 1.45, -3.55147571752732E-16));
#66 = CARTESIAN_POINT ('', (-0.499275039270017, 1.45, -3.55147571752732E-16));
#67 = (
   BOUNDED_SURFACE ()
   B_SPLINE_SURFACE (5, 3, ((#43, #44, #45, #46), (#47, #48, #49, #50), (#51, #52, #53, #54), (#55, #56, #57, #58), (#59, #60, #61, #62), (#63, #64, #65, #66)), .UNSPECIFIED., .T., .F., .U.)
   B_SPLINE_SURFACE_WITH_KNOTS ((6, 6), (4, 4), (0., 1.), (0., 1.), .UNSPECIFIED.)
   SURFACE ()
   GEOMETRIC_REPRESENTATION_ITEM ()
   RATIONAL_B_SPLINE_SURFACE (((5., 5., 5., 5.), (1., 1., 1., 1.), (1., 1., 1., 1.), (1., 1., 1., 1.), (1., 1., 1., 1.), (5., 5., 5., 5.)))
   REPRESENTATION_ITEM ('')
);
#68 = ADVANCED_FACE ('', (#42), #67, .T.);
#69 = CARTESIAN_POINT ('', (-46., 2.81668763803891E-15, -2.81668763803891E-15));
#70 = VERTEX_POINT ('', #69);
#71 = CARTESIAN_POINT ('', (-46., 0.950000000000001, -2.32682891837997E-16));
#72 = VERTEX_POINT ('', #71);
#73 = CARTESIAN_POINT ('', (-46., 2.81668763803891E-15, -2.81668763803891E-15));
#74 = CARTESIAN_POINT ('', (-46., 0.950000000000001, -2.32682891837997E-16));
#75 = B_SPLINE_CURVE_WITH_KNOTS ('', 1, (#73, #74), .UNSPECIFIED., .F., .U., (2, 2), (0., 1.), .UNSPECIFIED.);
#76 = EDGE_CURVE ('', #70, #72, #75, .T.);
#77 = ORIENTED_EDGE ('', *, *, #76, .F.);
#78 = ORIENTED_EDGE ('', *, *, #76, .T.);
#79 = CARTESIAN_POINT ('', (-46., 0.950000000000001, -2.32682891837997E-16));
#80 = CARTESIAN_POINT ('', (-46., 0.94999999999999, 3.79999999999999));
#81 = CARTESIAN_POINT ('', (-46., -2.85, 1.89999999999998));
#82 = CARTESIAN_POINT ('', (-46., -2.84999999999998, -1.90000000000001));
#83 = CARTESIAN_POINT ('', (-46., 0.950000000000011, -3.79999999999999));
#84 = CARTESIAN_POINT ('', (-46., 0.950000000000001, -2.32682891837997E-16));
#85 = (
   BOUNDED_CURVE ()
   B_SPLINE_CURVE (5, (#79, #80, #81, #82, #83, #84), .UNSPECIFIED., .T., .U.)
   B_SPLINE_CURVE_WITH_KNOTS ((6, 6), (0., 1.), .UNSPECIFIED.)
   CURVE ()
   GEOMETRIC_REPRESENTATION_ITEM ()
   RATIONAL_B_SPLINE_CURVE ((5., 1., 1., 1., 1., 5.))
   REPRESENTATION_ITEM ('')
);
#86 = EDGE_CURVE ('', #72, #72, #85, .T.);
#87 = ORIENTED_EDGE ('', *, *, #86, .F.);
#88 = EDGE_LOOP ('', (#77, #78, #87));
#89 = FACE_OUTER_BOUND ('', #88, .T.);
#90 = CARTESIAN_POINT ('', (-46., 2.81668763803891E-15, -2.81668763803891E-15));
#91 = CARTESIAN_POINT ('', (-46., 0.950000000000001, -2.32682891837997E-16));
#92 = CARTESIAN_POINT ('', (-46., 2.81668763803891E-15, -2.81668763803891E-15));
#93 = CARTESIAN_POINT ('', (-46., 0.94999999999999, 3.79999999999999));
#94 = CARTESIAN_POINT ('', (-46., 2.81668763803891E-15, -2.81668763803891E-15));
#95 = CARTESIAN_POINT ('', (-46., -2.85, 1.89999999999998));
#96 = CARTESIAN_POINT ('', (-46., 2.81668763803891E-15, -2.81668763803891E-15));
#97 = CARTESIAN_POINT ('', (-46., -2.84999999999998, -1.90000000000001));
#98 = CARTESIAN_POINT ('', (-46., 2.81668763803891E-15, -2.81668763803891E-15));
#99 = CARTESIAN_POINT ('', (-46., 0.950000000000011, -3.79999999999999));
#100 = CARTESIAN_POINT ('', (-46., 2.81668763803891E-15, -2.81668763803891E-15));
#101 = CARTESIAN_POINT ('', (-46., 0.950000000000001, -2.32682891837997E-16));
#102 = (
   BOUNDED_SURFACE ()
   B_SPLINE_SURFACE (5, 1, ((#90, #91), (#92, #93), (#94, #95), (#96, #97), (#98, #99), (#100, #101)), .UNSPECIFIED., .T., .F., .U.)
   B_SPLINE_SURFACE_WITH_KNOTS ((6, 6), (2, 2), (0., 1.), (0., 1.), .UNSPECIFIED.)
   SURFACE ()
   GEOMETRIC_REPRESENTATION_ITEM ()
   RATIONAL_B_SPLINE_SURFACE (((5., 5.), (1., 1.), (1., 1.), (1., 1.), (1., 1.), (5., 5.)))
   REPRESENTATION_ITEM ('')
);
#103 = ADVANCED_FACE ('', (#89), #102, .T.);
#104 = CARTESIAN_POINT ('', (-46., 0.950000000000001, -2.32682891837997E-16));
#105 = CARTESIAN_POINT ('', (-45.8333333333332, 1.11666666666667, -2.73504451809575E-16));
#106 = CARTESIAN_POINT ('', (-45.6666666666666, 1.28333333333334, -3.14326011781155E-16));
#107 = CARTESIAN_POINT ('', (-45.5, 1.45, -3.55147571752732E-16));
#108 = B_SPLINE_CURVE_WITH_KNOTS ('', 3, (#104, #105, #106, #107), .UNSPECIFIED., .F., .U., (4, 4), (0., 1.), .UNSPECIFIED.);
#109 = EDGE_CURVE ('', #72, #12, #108, .T.);
#110 = ORIENTED_EDGE ('', *, *, #109, .F.);
#111 = ORIENTED_EDGE ('', *, *, #86, .T.);
#112 = ORIENTED_EDGE ('', *, *, #109, .T.);
#113 = ORIENTED_EDGE ('', *, *, #29, .F.);
#114 = EDGE_LOOP ('', (#110, #111, #112, #113));
#115 = FACE_OUTER_BOUND ('', #114, .T.);
#116 = CARTESIAN_POINT ('', (-46., 0.950000000000001, -2.32682891837997E-16));
#117 = CARTESIAN_POINT ('', (-45.8333333333332, 1.11666666666667, -2.73504451809575E-16));
#118 = CARTESIAN_POINT ('', (-45.6666666666666, 1.28333333333334, -3.14326011781155E-16));
#119 = CARTESIAN_POINT ('', (-45.5, 1.45, -3.55147571752732E-16));
#120 = CARTESIAN_POINT ('', (-46., 0.94999999999999, 3.79999999999999));
#121 = CARTESIAN_POINT ('', (-45.8333333333332, 1.11666666666666, 4.46666666666666));
#122 = CARTESIAN_POINT ('', (-45.6666666666666, 1.28333333333333, 5.13333333333336));
#123 = CARTESIAN_POINT ('', (-45.5, 1.44999999999999, 5.79999999999999));
#124 = CARTESIAN_POINT ('', (-46., -2.85, 1.89999999999998));
#125 = CARTESIAN_POINT ('', (-45.8333333333332, -3.35, 2.23333333333332));
#126 = CARTESIAN_POINT ('', (-45.6666666666666, -3.85000000000002, 2.56666666666667));
#127 = CARTESIAN_POINT ('', (-45.5, -4.34999999999999, 2.89999999999998));
#128 = CARTESIAN_POINT ('', (-46., -2.84999999999998, -1.90000000000001));
#129 = CARTESIAN_POINT ('', (-45.8333333333332, -3.34999999999999, -2.23333333333334));
#130 = CARTESIAN_POINT ('', (-45.6666666666666, -3.85000000000001, -2.56666666666669));
#131 = CARTESIAN_POINT ('', (-45.5, -4.34999999999998, -2.9));
#132 = CARTESIAN_POINT ('', (-46., 0.950000000000011, -3.79999999999999));
#133 = CARTESIAN_POINT ('', (-45.8333333333332, 1.11666666666668, -4.46666666666666));
#134 = CARTESIAN_POINT ('', (-45.6666666666666, 1.28333333333335, -5.13333333333336));
#135 = CARTESIAN_POINT ('', (-45.5, 1.45000000000001, -5.79999999999999));
#136 = CARTESIAN_POINT ('', (-46., 0.950000000000001, -2.32682891837997E-16));
#137 = CARTESIAN_POINT ('', (-45.8333333333332, 1.11666666666667, -2.73504451809575E-16));
#138 = CARTESIAN_POINT ('', (-45.6666666666666, 1.28333333333334, -3.14326011781155E-16));
#139 = CARTESIAN_POINT ('', (-45.5, 1.45, -3.55147571752732E-16));
#140 = (
   BOUNDED_SURFACE ()
   B_SPLINE_SURFACE (5, 3, ((#116, #117, #118, #119), (#120, #121, #122, #123), (#124, #125, #126, #127), (#128, #129, #130, #131), (#132, #133, #134, #135), (#136, #137, #138, #139)), .UNSPECIFIED., .T., .F., .U.)
   B_SPLINE_SURFACE_WITH_KNOTS ((6, 6), (4, 4), (0., 1.), (0., 1.), .UNSPECIFIED.)
   SURFACE ()
   GEOMETRIC_REPRESENTATION_ITEM ()
   RATIONAL_B_SPLINE_SURFACE (((5., 5., 5., 5.), (1., 1., 1., 1.), (1., 1., 1., 1.), (1., 1., 1., 1.), (1., 1., 1., 1.), (5., 5., 5., 5.)))
   REPRESENTATION_ITEM ('')
);
#141 = ADVANCED_FACE ('', (#115), #140, .T.);
#142 = CARTESIAN_POINT ('', (0., 0., 0.));
#143 = VERTEX_POINT ('', #142);
#144 = CARTESIAN_POINT ('', (-0.499275039270014, 1.45, -3.55147571752732E-16));
#145 = CARTESIAN_POINT ('', (-0.332850026180011, 0.966666666666665, -2.36765047835155E-16));
#146 = CARTESIAN_POINT ('', (-0.166425013090005, 0.483333333333333, -1.18382523917577E-16));
#147 = CARTESIAN_POINT ('', (0., 0., 0.));
#148 = B_SPLINE_CURVE_WITH_KNOTS ('', 3, (#144, #145, #146, #147), .UNSPECIFIED., .F., .U., (4, 4), (0., 1.), .UNSPECIFIED.);
#149 = EDGE_CURVE ('', #14, #143, #148, .T.);
#150 = ORIENTED_EDGE ('', *, *, #149, .F.);
#151 = ORIENTED_EDGE ('', *, *, #39, .T.);
#152 = ORIENTED_EDGE ('', *, *, #149, .T.);
#153 = EDGE_LOOP ('', (#150, #151, #152));
#154 = FACE_OUTER_BOUND ('', #153, .T.);
#155 = CARTESIAN_POINT ('', (-0.499275039270014, 1.45, -3.55147571752732E-16));
#156 = CARTESIAN_POINT ('', (-0.332850026180011, 0.966666666666665, -2.36765047835155E-16));
#157 = CARTESIAN_POINT ('', (-0.166425013090005, 0.483333333333333, -1.18382523917577E-16));
#158 = CARTESIAN_POINT ('', (0., 0., 0.));
#159 = CARTESIAN_POINT ('', (-0.499275039270014, 1.45, 5.79999999999999));
#160 = CARTESIAN_POINT ('', (-0.332850026180011, 0.966666666666666, 3.86666666666666));
#161 = CARTESIAN_POINT ('', (-0.166425013090005, 0.483333333333333, 1.93333333333333));
#162 = CARTESIAN_POINT ('', (0., 0., 0.));
#163 = CARTESIAN_POINT ('', (-0.499275039270015, -4.35, 2.9));
#164 = CARTESIAN_POINT ('', (-0.332850026180011, -2.89999999999999, 1.93333333333333));
#165 = CARTESIAN_POINT ('', (-0.166425013090005, -1.45, 0.966666666666666));
#166 = CARTESIAN_POINT ('', (0., 0., 0.));
#167 = CARTESIAN_POINT ('', (-0.499275039270014, -4.35, -2.9));
#168 = CARTESIAN_POINT ('', (-0.332850026180011, -2.89999999999999, -1.93333333333333));
#169 = CARTESIAN_POINT ('', (-0.166425013090005, -1.45, -0.966666666666665));
#170 = CARTESIAN_POINT ('', (0., 0., 0.));
#171 = CARTESIAN_POINT ('', (-0.499275039270014, 1.45, -5.79999999999999));
#172 = CARTESIAN_POINT ('', (-0.33285002618001, 0.966666666666664, -3.86666666666666));
#173 = CARTESIAN_POINT ('', (-0.166425013090005, 0.483333333333332, -1.93333333333333));
#174 = CARTESIAN_POINT ('', (0., 0., 0.));
#175 = CARTESIAN_POINT ('', (-0.499275039270014, 1.45, -3.55147571752732E-16));
#176 = CARTESIAN_POINT ('', (-0.332850026180011, 0.966666666666665, -2.36765047835155E-16));
#177 = CARTESIAN_POINT ('', (-0.166425013090005, 0.483333333333333, -1.18382523917577E-16));
#178 = CARTESIAN_POINT ('', (0., 0., 0.));
#179 = (
   BOUNDED_SURFACE ()
   B_SPLINE_SURFACE (5, 3, ((#155, #156, #157, #158), (#159, #160, #161, #162), (#163, #164, #165, #166), (#167, #168, #169, #170), (#171, #172, #173, #174), (#175, #176, #177, #178)), .UNSPECIFIED., .T., .F., .U.)
   B_SPLINE_SURFACE_WITH_KNOTS ((6, 6), (4, 4), (0., 1.), (0., 1.), .UNSPECIFIED.)
   SURFACE ()
   GEOMETRIC_REPRESENTATION_ITEM ()
   RATIONAL_B_SPLINE_SURFACE (((5., 5., 5., 5.), (1., 1., 1., 1.), (1., 1., 1., 1.), (1., 1., 1., 1.), (1., 1., 1., 1.), (5., 5., 5., 5.)))
   REPRESENTATION_ITEM ('')
);
#180 = ADVANCED_FACE ('', (#154), #179, .T.);
#181 = CLOSED_SHELL ('', (#68, #103, #141, #180));
#182 = MANIFOLD_SOLID_BREP ('', #181);
#183 = (
   LENGTH_UNIT ()
   NAMED_UNIT (*)
   SI_UNIT (.MILLI., .METRE.)
);
#184 = (
   NAMED_UNIT (*)
   SI_UNIT ($, .STERADIAN.)
   SOLID_ANGLE_UNIT ()
);
#185 = (
   NAMED_UNIT (*)
   SI_UNIT ($, .RADIAN.)
   PLANE_ANGLE_UNIT ()
);
#186 = UNCERTAINTY_MEASURE_WITH_UNIT (LENGTH_MEASURE(0.001), #183, 'DISTANCE_ACCURACY_VALUE', '');
#187 = (
   GEOMETRIC_REPRESENTATION_CONTEXT (3)
   GLOBAL_UNCERTAINTY_ASSIGNED_CONTEXT ((#186))
   GLOBAL_UNIT_ASSIGNED_CONTEXT ((#183, #184, #185))
   REPRESENTATION_CONTEXT ('', '3D')
);
#188 = SHAPE_REPRESENTATION ('', (), #187);
#189 = APPLICATION_CONTEXT ('configuration controlled 3D designs of mechanical parts and assemblies');
#190 = APPLICATION_PROTOCOL_DEFINITION ('International Standard', 'config_control_design', 1997, #189);
#191 = MECHANICAL_CONTEXT ('', #189, 'mechanical');
#192 = PRODUCT ('', '', '', (#191));
#193 = PERSON_AND_ORGANIZATION_ROLE ('design_owner');
#194 = PERSON ('', '', $, $, $, $);
#195 = ORGANIZATION ($, '', '');
#196 = PERSON_AND_ORGANIZATION (#194, #195);
#197 = CC_DESIGN_PERSON_AND_ORGANIZATION_ASSIGNMENT (#196, #193, (#192));
#198 = PRODUCT_RELATED_PRODUCT_CATEGORY ('detail', $, (#192));
#199 = PRODUCT_DEFINITION_FORMATION_WITH_SPECIFIED_SOURCE ('', '', #192, .NOT_KNOWN.);
#200 = APPROVAL_STATUS ('approved');
#201 = APPROVAL (#200, '');
#202 = CALENDAR_DATE (2021, 15, 3);
#203 = COORDINATED_UNIVERSAL_TIME_OFFSET (0, $, .AHEAD.);
#204 = LOCAL_TIME (16, 58, 52., #203);
#205 = DATE_AND_TIME (#202, #204);
#206 = APPROVAL_DATE_TIME (#205, #201);
#207 = APPROVAL_ROLE ('');
#208 = PERSON ('', '', $, $, $, $);
#209 = ORGANIZATION ($, '', '');
#210 = PERSON_AND_ORGANIZATION (#208, #209);
#211 = APPROVAL_PERSON_ORGANIZATION (#210, #201, #207);
#212 = CC_DESIGN_APPROVAL (#201, (#199));
#213 = PERSON_AND_ORGANIZATION_ROLE ('creator');
#214 = PERSON ('', '', $, $, $, $);
#215 = ORGANIZATION ($, '', '');
#216 = PERSON_AND_ORGANIZATION (#214, #215);
#217 = CC_DESIGN_PERSON_AND_ORGANIZATION_ASSIGNMENT (#216, #213, (#199));
#218 = PERSON_AND_ORGANIZATION_ROLE ('part_supplier');
#219 = PERSON ('', '', $, $, $, $);
#220 = ORGANIZATION ($, '', '');
#221 = PERSON_AND_ORGANIZATION (#219, #220);
#222 = CC_DESIGN_PERSON_AND_ORGANIZATION_ASSIGNMENT (#221, #218, (#199));
#223 = SECURITY_CLASSIFICATION_LEVEL ('unclassified');
#224 = SECURITY_CLASSIFICATION ('', '', #223);
#225 = APPROVAL_STATUS ('approved');
#226 = APPROVAL (#225, '');
#227 = CALENDAR_DATE (2021, 15, 3);
#228 = COORDINATED_UNIVERSAL_TIME_OFFSET (0, $, .AHEAD.);
#229 = LOCAL_TIME (16, 58, 52., #228);
#230 = DATE_AND_TIME (#227, #229);
#231 = APPROVAL_DATE_TIME (#230, #226);
#232 = APPROVAL_ROLE ('');
#233 = PERSON ('', '', $, $, $, $);
#234 = ORGANIZATION ($, '', '');
#235 = PERSON_AND_ORGANIZATION (#233, #234);
#236 = APPROVAL_PERSON_ORGANIZATION (#235, #226, #232);
#237 = CC_DESIGN_APPROVAL (#226, (#224));
#238 = DATE_TIME_ROLE ('classification_date');
#239 = CALENDAR_DATE (2021, 15, 3);
#240 = COORDINATED_UNIVERSAL_TIME_OFFSET (0, $, .AHEAD.);
#241 = LOCAL_TIME (16, 58, 52., #240);
#242 = DATE_AND_TIME (#239, #241);
#243 = CC_DESIGN_DATE_AND_TIME_ASSIGNMENT (#242, #238, (#224));
#244 = PERSON_AND_ORGANIZATION_ROLE ('classification_officer');
#245 = PERSON ('', '', $, $, $, $);
#246 = ORGANIZATION ($, '', '');
#247 = PERSON_AND_ORGANIZATION (#245, #246);
#248 = CC_DESIGN_PERSON_AND_ORGANIZATION_ASSIGNMENT (#247, #244, (#224));
#249 = CC_DESIGN_SECURITY_CLASSIFICATION (#224, (#199));
#250 = DESIGN_CONTEXT ('', #189, 'design');
#251 = PRODUCT_DEFINITION ('', '', #199, #250);
#252 = APPROVAL_STATUS ('approved');
#253 = APPROVAL (#252, '');
#254 = CALENDAR_DATE (2021, 15, 3);
#255 = COORDINATED_UNIVERSAL_TIME_OFFSET (0, $, .AHEAD.);
#256 = LOCAL_TIME (16, 58, 52., #255);
#257 = DATE_AND_TIME (#254, #256);
#258 = APPROVAL_DATE_TIME (#257, #253);
#259 = APPROVAL_ROLE ('');
#260 = PERSON ('', '', $, $, $, $);
#261 = ORGANIZATION ($, '', '');
#262 = PERSON_AND_ORGANIZATION (#260, #261);
#263 = APPROVAL_PERSON_ORGANIZATION (#262, #253, #259);
#264 = CC_DESIGN_APPROVAL (#253, (#251));
#265 = DATE_TIME_ROLE ('creation_date');
#266 = CALENDAR_DATE (2021, 15, 3);
#267 = COORDINATED_UNIVERSAL_TIME_OFFSET (0, $, .AHEAD.);
#268 = LOCAL_TIME (16, 58, 52., #267);
#269 = DATE_AND_TIME (#266, #268);
#270 = CC_DESIGN_DATE_AND_TIME_ASSIGNMENT (#269, #265, (#251));
#271 = PERSON_AND_ORGANIZATION_ROLE ('creator');
#272 = PERSON ('', '', $, $, $, $);
#273 = ORGANIZATION ($, '', '');
#274 = PERSON_AND_ORGANIZATION (#272, #273);
#275 = CC_DESIGN_PERSON_AND_ORGANIZATION_ASSIGNMENT (#274, #271, (#251));
#276 = PRODUCT_DEFINITION_SHAPE ('', '', #251);
#277 = SHAPE_DEFINITION_REPRESENTATION (#276, #188);
#278 = SHAPE_REPRESENTATION_RELATIONSHIP ('', '', #188, #279);
#279 = GEOMETRICALLY_BOUNDED_WIREFRAME_SHAPE_REPRESENTATION ('', (#4), #187);
#280 = SHAPE_REPRESENTATION_RELATIONSHIP ('', '', #188, #281);
#281 = ADVANCED_BREP_SHAPE_REPRESENTATION ('', (#182), #187);
ENDSEC;
END-ISO-10303-21;
