ISO-10303-21;
HEADER;
FILE_DESCRIPTION ((), '1');
FILE_NAME ('D:\\Documents\\Mark Dainty\\2XDSS\\2XDSSM0740A.STP', '2021-04-13T18:08:03', ('Unknown'), ('M A Ford Europe'), 'OneCNC-XR8 Mill 3D Expert', 'OneCNC-XR8 Mill 3D Expert', '');
FILE_SCHEMA (('CONFIG_CONTROL_DESIGN'));
ENDSEC;

DATA;
#1 = CARTESIAN_POINT ('', (-38., 4., 0.));
#2 = CARTESIAN_POINT ('', (-38., 3.7, 0.));
#3 = B_SPLINE_CURVE_WITH_KNOTS ('', 1, (#1, #2), .UNSPECIFIED., .F., .U., (2, 2), (0., 1.), .UNSPECIFIED.);
#4 = GEOMETRIC_CURVE_SET ('', (#3, #7, #10, #13, #16));
#5 = CARTESIAN_POINT ('', (-1.27401216917176, 3.7, 0.));
#6 = CARTESIAN_POINT ('', (0., 0., 0.));
#7 = B_SPLINE_CURVE_WITH_KNOTS ('', 1, (#5, #6), .UNSPECIFIED., .F., .U., (2, 2), (0., 1.), .UNSPECIFIED.);
#8 = CARTESIAN_POINT ('', (-38., 3.7, 0.));
#9 = CARTESIAN_POINT ('', (-1.27401216917175, 3.7, 0.));
#10 = B_SPLINE_CURVE_WITH_KNOTS ('', 1, (#8, #9), .UNSPECIFIED., .F., .U., (2, 2), (0., 1.), .UNSPECIFIED.);
#11 = CARTESIAN_POINT ('', (-81.5, 4., 0.));
#12 = CARTESIAN_POINT ('', (-38., 4., 0.));
#13 = B_SPLINE_CURVE_WITH_KNOTS ('', 1, (#11, #12), .UNSPECIFIED., .F., .U., (2, 2), (0., 1.), .UNSPECIFIED.);
#14 = CARTESIAN_POINT ('', (-82., 3.5, 0.));
#15 = CARTESIAN_POINT ('', (-81.5, 4., 0.));
#16 = B_SPLINE_CURVE_WITH_KNOTS ('', 1, (#14, #15), .UNSPECIFIED., .F., .U., (2, 2), (0., 1.), .UNSPECIFIED.);
#17 = CARTESIAN_POINT ('', (-1.27401216917176, 3.7, -9.06238631369042E-16));
#18 = VERTEX_POINT ('', #17);
#19 = CARTESIAN_POINT ('', (0., 0., 0.));
#20 = VERTEX_POINT ('', #19);
#21 = CARTESIAN_POINT ('', (-1.27401216917176, 3.7, -9.06238631369042E-16));
#22 = CARTESIAN_POINT ('', (-0.849341446114506, 2.46666666666667, -6.04159087579362E-16));
#23 = CARTESIAN_POINT ('', (-0.424670723057254, 1.23333333333333, -3.02079543789681E-16));
#24 = CARTESIAN_POINT ('', (0., 0., 0.));
#25 = B_SPLINE_CURVE_WITH_KNOTS ('', 3, (#21, #22, #23, #24), .UNSPECIFIED., .F., .U., (4, 4), (0., 1.), .UNSPECIFIED.);
#26 = EDGE_CURVE ('', #18, #20, #25, .T.);
#27 = ORIENTED_EDGE ('', *, *, #26, .F.);
#28 = CARTESIAN_POINT ('', (-1.27401216917176, 3.7, -9.06238631369042E-16));
#29 = CARTESIAN_POINT ('', (-1.27401216917176, 3.70000000000001, 14.8));
#30 = CARTESIAN_POINT ('', (-1.27401216917176, -11.1, 7.40000000000001));
#31 = CARTESIAN_POINT ('', (-1.27401216917176, -11.1, -7.4));
#32 = CARTESIAN_POINT ('', (-1.27401216917176, 3.7, -14.8));
#33 = CARTESIAN_POINT ('', (-1.27401216917176, 3.7, -9.06238631369042E-16));
#34 = (
   BOUNDED_CURVE ()
   B_SPLINE_CURVE (5, (#28, #29, #30, #31, #32, #33), .UNSPECIFIED., .T., .U.)
   B_SPLINE_CURVE_WITH_KNOTS ((6, 6), (0., 1.), .UNSPECIFIED.)
   CURVE ()
   GEOMETRIC_REPRESENTATION_ITEM ()
   RATIONAL_B_SPLINE_CURVE ((5., 1., 1., 1., 1., 5.))
   REPRESENTATION_ITEM ('')
);
#35 = EDGE_CURVE ('', #18, #18, #34, .T.);
#36 = ORIENTED_EDGE ('', *, *, #35, .T.);
#37 = ORIENTED_EDGE ('', *, *, #26, .T.);
#38 = EDGE_LOOP ('', (#27, #36, #37));
#39 = FACE_OUTER_BOUND ('', #38, .T.);
#40 = CARTESIAN_POINT ('', (-1.27401216917176, 3.7, -9.06238631369042E-16));
#41 = CARTESIAN_POINT ('', (-0.849341446114506, 2.46666666666667, -6.04159087579362E-16));
#42 = CARTESIAN_POINT ('', (-0.424670723057254, 1.23333333333333, -3.02079543789681E-16));
#43 = CARTESIAN_POINT ('', (0., 0., 0.));
#44 = CARTESIAN_POINT ('', (-1.27401216917176, 3.70000000000001, 14.8));
#45 = CARTESIAN_POINT ('', (-0.849341446114507, 2.46666666666667, 9.86666666666668));
#46 = CARTESIAN_POINT ('', (-0.424670723057254, 1.23333333333334, 4.93333333333334));
#47 = CARTESIAN_POINT ('', (0., 0., 0.));
#48 = CARTESIAN_POINT ('', (-1.27401216917176, -11.1, 7.40000000000001));
#49 = CARTESIAN_POINT ('', (-0.849341446114507, -7.40000000000001, 4.93333333333334));
#50 = CARTESIAN_POINT ('', (-0.424670723057255, -3.7, 2.46666666666667));
#51 = CARTESIAN_POINT ('', (0., 0., 0.));
#52 = CARTESIAN_POINT ('', (-1.27401216917176, -11.1, -7.4));
#53 = CARTESIAN_POINT ('', (-0.849341446114507, -7.40000000000001, -4.93333333333334));
#54 = CARTESIAN_POINT ('', (-0.424670723057254, -3.7, -2.46666666666667));
#55 = CARTESIAN_POINT ('', (0., 0., 0.));
#56 = CARTESIAN_POINT ('', (-1.27401216917176, 3.7, -14.8));
#57 = CARTESIAN_POINT ('', (-0.849341446114506, 2.46666666666667, -9.86666666666668));
#58 = CARTESIAN_POINT ('', (-0.424670723057254, 1.23333333333333, -4.93333333333334));
#59 = CARTESIAN_POINT ('', (0., 0., 0.));
#60 = CARTESIAN_POINT ('', (-1.27401216917176, 3.7, -9.06238631369042E-16));
#61 = CARTESIAN_POINT ('', (-0.849341446114506, 2.46666666666667, -6.04159087579362E-16));
#62 = CARTESIAN_POINT ('', (-0.424670723057254, 1.23333333333333, -3.02079543789681E-16));
#63 = CARTESIAN_POINT ('', (0., 0., 0.));
#64 = (
   BOUNDED_SURFACE ()
   B_SPLINE_SURFACE (5, 3, ((#40, #41, #42, #43), (#44, #45, #46, #47), (#48, #49, #50, #51), (#52, #53, #54, #55), (#56, #57, #58, #59), (#60, #61, #62, #63)), .UNSPECIFIED., .T., .F., .U.)
   B_SPLINE_SURFACE_WITH_KNOTS ((6, 6), (4, 4), (0., 1.), (0., 1.), .UNSPECIFIED.)
   SURFACE ()
   GEOMETRIC_REPRESENTATION_ITEM ()
   RATIONAL_B_SPLINE_SURFACE (((5., 5., 5., 5.), (1., 1., 1., 1.), (1., 1., 1., 1.), (1., 1., 1., 1.), (1., 1., 1., 1.), (5., 5., 5., 5.)))
   REPRESENTATION_ITEM ('')
);
#65 = ADVANCED_FACE ('', (#39), #64, .T.);
#66 = CARTESIAN_POINT ('', (-81.5, 4., -9.79717439317881E-16));
#67 = VERTEX_POINT ('', #66);
#68 = CARTESIAN_POINT ('', (-38., 4., -9.79717439317882E-16));
#69 = VERTEX_POINT ('', #68);
#70 = CARTESIAN_POINT ('', (-81.5, 4., -9.79717439317881E-16));
#71 = CARTESIAN_POINT ('', (-67., 4., -9.79717439317881E-16));
#72 = CARTESIAN_POINT ('', (-52.5, 4., -9.79717439317882E-16));
#73 = CARTESIAN_POINT ('', (-38., 4., -9.79717439317882E-16));
#74 = B_SPLINE_CURVE_WITH_KNOTS ('', 3, (#70, #71, #72, #73), .UNSPECIFIED., .F., .U., (4, 4), (0., 1.), .UNSPECIFIED.);
#75 = EDGE_CURVE ('', #67, #69, #74, .T.);
#76 = ORIENTED_EDGE ('', *, *, #75, .F.);
#77 = CARTESIAN_POINT ('', (-81.5, 4., -9.79717439317881E-16));
#78 = CARTESIAN_POINT ('', (-81.5, 3.99999999999998, 16.));
#79 = CARTESIAN_POINT ('', (-81.5, -12., 7.99999999999997));
#80 = CARTESIAN_POINT ('', (-81.5, -12., -8.00000000000001));
#81 = CARTESIAN_POINT ('', (-81.5, 4.00000000000002, -16.));
#82 = CARTESIAN_POINT ('', (-81.5, 4., -9.79717439317881E-16));
#83 = (
   BOUNDED_CURVE ()
   B_SPLINE_CURVE (5, (#77, #78, #79, #80, #81, #82), .UNSPECIFIED., .T., .U.)
   B_SPLINE_CURVE_WITH_KNOTS ((6, 6), (0., 1.), .UNSPECIFIED.)
   CURVE ()
   GEOMETRIC_REPRESENTATION_ITEM ()
   RATIONAL_B_SPLINE_CURVE ((5., 1., 1., 1., 1., 5.))
   REPRESENTATION_ITEM ('')
);
#84 = EDGE_CURVE ('', #67, #67, #83, .T.);
#85 = ORIENTED_EDGE ('', *, *, #84, .T.);
#86 = ORIENTED_EDGE ('', *, *, #75, .T.);
#87 = CARTESIAN_POINT ('', (-38., 4., -9.79717439317882E-16));
#88 = CARTESIAN_POINT ('', (-38., 3.99999999999999, 16.));
#89 = CARTESIAN_POINT ('', (-38., -12., 7.99999999999999));
#90 = CARTESIAN_POINT ('', (-38., -12., -8.));
#91 = CARTESIAN_POINT ('', (-38., 4.00000000000001, -16.));
#92 = CARTESIAN_POINT ('', (-38., 4., -9.79717439317882E-16));
#93 = (
   BOUNDED_CURVE ()
   B_SPLINE_CURVE (5, (#87, #88, #89, #90, #91, #92), .UNSPECIFIED., .T., .U.)
   B_SPLINE_CURVE_WITH_KNOTS ((6, 6), (0., 1.), .UNSPECIFIED.)
   CURVE ()
   GEOMETRIC_REPRESENTATION_ITEM ()
   RATIONAL_B_SPLINE_CURVE ((5., 1., 1., 1., 1., 5.))
   REPRESENTATION_ITEM ('')
);
#94 = EDGE_CURVE ('', #69, #69, #93, .T.);
#95 = ORIENTED_EDGE ('', *, *, #94, .F.);
#96 = EDGE_LOOP ('', (#76, #85, #86, #95));
#97 = FACE_OUTER_BOUND ('', #96, .T.);
#98 = CARTESIAN_POINT ('', (-81.5, 4., -9.79717439317881E-16));
#99 = CARTESIAN_POINT ('', (-67., 4., -9.79717439317881E-16));
#100 = CARTESIAN_POINT ('', (-52.5, 4., -9.79717439317882E-16));
#101 = CARTESIAN_POINT ('', (-38., 4., -9.79717439317882E-16));
#102 = CARTESIAN_POINT ('', (-81.5, 3.99999999999998, 16.));
#103 = CARTESIAN_POINT ('', (-67., 3.99999999999999, 16.));
#104 = CARTESIAN_POINT ('', (-52.5, 3.99999999999999, 16.));
#105 = CARTESIAN_POINT ('', (-38., 3.99999999999999, 16.));
#106 = CARTESIAN_POINT ('', (-81.5, -12., 7.99999999999997));
#107 = CARTESIAN_POINT ('', (-67., -12., 7.99999999999998));
#108 = CARTESIAN_POINT ('', (-52.5, -12., 7.99999999999998));
#109 = CARTESIAN_POINT ('', (-38., -12., 7.99999999999999));
#110 = CARTESIAN_POINT ('', (-81.5, -12., -8.00000000000001));
#111 = CARTESIAN_POINT ('', (-67., -12., -8.00000000000001));
#112 = CARTESIAN_POINT ('', (-52.5, -12., -8.));
#113 = CARTESIAN_POINT ('', (-38., -12., -8.));
#114 = CARTESIAN_POINT ('', (-81.5, 4.00000000000002, -16.));
#115 = CARTESIAN_POINT ('', (-67., 4.00000000000001, -16.));
#116 = CARTESIAN_POINT ('', (-52.5, 4.00000000000001, -16.));
#117 = CARTESIAN_POINT ('', (-38., 4.00000000000001, -16.));
#118 = CARTESIAN_POINT ('', (-81.5, 4., -9.79717439317881E-16));
#119 = CARTESIAN_POINT ('', (-67., 4., -9.79717439317881E-16));
#120 = CARTESIAN_POINT ('', (-52.5, 4., -9.79717439317882E-16));
#121 = CARTESIAN_POINT ('', (-38., 4., -9.79717439317882E-16));
#122 = (
   BOUNDED_SURFACE ()
   B_SPLINE_SURFACE (5, 3, ((#98, #99, #100, #101), (#102, #103, #104, #105), (#106, #107, #108, #109), (#110, #111, #112, #113), (#114, #115, #116, #117), (#118, #119, #120, #121)), .UNSPECIFIED., .T., .F., .U.)
   B_SPLINE_SURFACE_WITH_KNOTS ((6, 6), (4, 4), (0., 1.), (0., 1.), .UNSPECIFIED.)
   SURFACE ()
   GEOMETRIC_REPRESENTATION_ITEM ()
   RATIONAL_B_SPLINE_SURFACE (((5., 5., 5., 5.), (1., 1., 1., 1.), (1., 1., 1., 1.), (1., 1., 1., 1.), (1., 1., 1., 1.), (5., 5., 5., 5.)))
   REPRESENTATION_ITEM ('')
);
#123 = ADVANCED_FACE ('', (#97), #122, .T.);
#124 = CARTESIAN_POINT ('', (-82., 5.02105187650415E-15, -5.02105187650415E-15));
#125 = VERTEX_POINT ('', #124);
#126 = CARTESIAN_POINT ('', (-82., 3.5, -8.57252759403147E-16));
#127 = VERTEX_POINT ('', #126);
#128 = CARTESIAN_POINT ('', (-82., 5.02105187650415E-15, -5.02105187650415E-15));
#129 = CARTESIAN_POINT ('', (-82., 3.5, -8.57252759403147E-16));
#130 = B_SPLINE_CURVE_WITH_KNOTS ('', 1, (#128, #129), .UNSPECIFIED., .F., .U., (2, 2), (0., 1.), .UNSPECIFIED.);
#131 = EDGE_CURVE ('', #125, #127, #130, .T.);
#132 = ORIENTED_EDGE ('', *, *, #131, .F.);
#133 = ORIENTED_EDGE ('', *, *, #131, .T.);
#134 = CARTESIAN_POINT ('', (-82., 3.5, -8.57252759403147E-16));
#135 = CARTESIAN_POINT ('', (-82., 3.49999999999998, 14.));
#136 = CARTESIAN_POINT ('', (-82., -10.5, 6.99999999999997));
#137 = CARTESIAN_POINT ('', (-82., -10.5, -7.00000000000001));
#138 = CARTESIAN_POINT ('', (-82., 3.50000000000002, -14.));
#139 = CARTESIAN_POINT ('', (-82., 3.5, -8.57252759403147E-16));
#140 = (
   BOUNDED_CURVE ()
   B_SPLINE_CURVE (5, (#134, #135, #136, #137, #138, #139), .UNSPECIFIED., .T., .U.)
   B_SPLINE_CURVE_WITH_KNOTS ((6, 6), (0., 1.), .UNSPECIFIED.)
   CURVE ()
   GEOMETRIC_REPRESENTATION_ITEM ()
   RATIONAL_B_SPLINE_CURVE ((5., 1., 1., 1., 1., 5.))
   REPRESENTATION_ITEM ('')
);
#141 = EDGE_CURVE ('', #127, #127, #140, .T.);
#142 = ORIENTED_EDGE ('', *, *, #141, .F.);
#143 = EDGE_LOOP ('', (#132, #133, #142));
#144 = FACE_OUTER_BOUND ('', #143, .T.);
#145 = CARTESIAN_POINT ('', (-82., 5.02105187650415E-15, -5.02105187650415E-15));
#146 = CARTESIAN_POINT ('', (-82., 3.5, -8.57252759403147E-16));
#147 = CARTESIAN_POINT ('', (-82., 5.02105187650415E-15, -5.02105187650415E-15));
#148 = CARTESIAN_POINT ('', (-82., 3.49999999999998, 14.));
#149 = CARTESIAN_POINT ('', (-82., 5.02105187650415E-15, -5.02105187650415E-15));
#150 = CARTESIAN_POINT ('', (-82., -10.5, 6.99999999999997));
#151 = CARTESIAN_POINT ('', (-82., 5.02105187650415E-15, -5.02105187650415E-15));
#152 = CARTESIAN_POINT ('', (-82., -10.5, -7.00000000000001));
#153 = CARTESIAN_POINT ('', (-82., 5.02105187650415E-15, -5.02105187650415E-15));
#154 = CARTESIAN_POINT ('', (-82., 3.50000000000002, -14.));
#155 = CARTESIAN_POINT ('', (-82., 5.02105187650415E-15, -5.02105187650415E-15));
#156 = CARTESIAN_POINT ('', (-82., 3.5, -8.57252759403147E-16));
#157 = (
   BOUNDED_SURFACE ()
   B_SPLINE_SURFACE (5, 1, ((#145, #146), (#147, #148), (#149, #150), (#151, #152), (#153, #154), (#155, #156)), .UNSPECIFIED., .T., .F., .U.)
   B_SPLINE_SURFACE_WITH_KNOTS ((6, 6), (2, 2), (0., 1.), (0., 1.), .UNSPECIFIED.)
   SURFACE ()
   GEOMETRIC_REPRESENTATION_ITEM ()
   RATIONAL_B_SPLINE_SURFACE (((5., 5.), (1., 1.), (1., 1.), (1., 1.), (1., 1.), (5., 5.)))
   REPRESENTATION_ITEM ('')
);
#158 = ADVANCED_FACE ('', (#144), #157, .T.);
#159 = CARTESIAN_POINT ('', (-82., 3.5, -8.57252759403147E-16));
#160 = CARTESIAN_POINT ('', (-81.8333333333333, 3.66666666666666, -8.98074319374723E-16));
#161 = CARTESIAN_POINT ('', (-81.6666666666667, 3.83333333333333, -9.38895879346301E-16));
#162 = CARTESIAN_POINT ('', (-81.5, 4., -9.79717439317881E-16));
#163 = B_SPLINE_CURVE_WITH_KNOTS ('', 3, (#159, #160, #161, #162), .UNSPECIFIED., .F., .U., (4, 4), (0., 1.), .UNSPECIFIED.);
#164 = EDGE_CURVE ('', #127, #67, #163, .T.);
#165 = ORIENTED_EDGE ('', *, *, #164, .F.);
#166 = ORIENTED_EDGE ('', *, *, #141, .T.);
#167 = ORIENTED_EDGE ('', *, *, #164, .T.);
#168 = ORIENTED_EDGE ('', *, *, #84, .F.);
#169 = EDGE_LOOP ('', (#165, #166, #167, #168));
#170 = FACE_OUTER_BOUND ('', #169, .T.);
#171 = CARTESIAN_POINT ('', (-82., 3.5, -8.57252759403147E-16));
#172 = CARTESIAN_POINT ('', (-81.8333333333333, 3.66666666666666, -8.98074319374723E-16));
#173 = CARTESIAN_POINT ('', (-81.6666666666667, 3.83333333333333, -9.38895879346301E-16));
#174 = CARTESIAN_POINT ('', (-81.5, 4., -9.79717439317881E-16));
#175 = CARTESIAN_POINT ('', (-82., 3.49999999999998, 14.));
#176 = CARTESIAN_POINT ('', (-81.8333333333333, 3.66666666666665, 14.6666666666666));
#177 = CARTESIAN_POINT ('', (-81.6666666666667, 3.83333333333331, 15.3333333333333));
#178 = CARTESIAN_POINT ('', (-81.5, 3.99999999999998, 16.));
#179 = CARTESIAN_POINT ('', (-82., -10.5, 6.99999999999997));
#180 = CARTESIAN_POINT ('', (-81.8333333333333, -11., 7.3333333333333));
#181 = CARTESIAN_POINT ('', (-81.6666666666667, -11.5, 7.66666666666663));
#182 = CARTESIAN_POINT ('', (-81.5, -12., 7.99999999999997));
#183 = CARTESIAN_POINT ('', (-82., -10.5, -7.00000000000001));
#184 = CARTESIAN_POINT ('', (-81.8333333333333, -11., -7.33333333333334));
#185 = CARTESIAN_POINT ('', (-81.6666666666667, -11.5, -7.66666666666666));
#186 = CARTESIAN_POINT ('', (-81.5, -12., -8.00000000000001));
#187 = CARTESIAN_POINT ('', (-82., 3.50000000000002, -14.));
#188 = CARTESIAN_POINT ('', (-81.8333333333333, 3.66666666666668, -14.6666666666666));
#189 = CARTESIAN_POINT ('', (-81.6666666666667, 3.83333333333334, -15.3333333333333));
#190 = CARTESIAN_POINT ('', (-81.5, 4.00000000000002, -16.));
#191 = CARTESIAN_POINT ('', (-82., 3.5, -8.57252759403147E-16));
#192 = CARTESIAN_POINT ('', (-81.8333333333333, 3.66666666666666, -8.98074319374723E-16));
#193 = CARTESIAN_POINT ('', (-81.6666666666667, 3.83333333333333, -9.38895879346301E-16));
#194 = CARTESIAN_POINT ('', (-81.5, 4., -9.79717439317881E-16));
#195 = (
   BOUNDED_SURFACE ()
   B_SPLINE_SURFACE (5, 3, ((#171, #172, #173, #174), (#175, #176, #177, #178), (#179, #180, #181, #182), (#183, #184, #185, #186), (#187, #188, #189, #190), (#191, #192, #193, #194)), .UNSPECIFIED., .T., .F., .U.)
   B_SPLINE_SURFACE_WITH_KNOTS ((6, 6), (4, 4), (0., 1.), (0., 1.), .UNSPECIFIED.)
   SURFACE ()
   GEOMETRIC_REPRESENTATION_ITEM ()
   RATIONAL_B_SPLINE_SURFACE (((5., 5., 5., 5.), (1., 1., 1., 1.), (1., 1., 1., 1.), (1., 1., 1., 1.), (1., 1., 1., 1.), (5., 5., 5., 5.)))
   REPRESENTATION_ITEM ('')
);
#196 = ADVANCED_FACE ('', (#170), #195, .T.);
#197 = CARTESIAN_POINT ('', (-38., 3.7, -9.06238631369041E-16));
#198 = VERTEX_POINT ('', #197);
#199 = CARTESIAN_POINT ('', (-38., 3.7, -9.06238631369041E-16));
#200 = CARTESIAN_POINT ('', (-25.7580040563905, 3.70000000000001, -9.06238631369042E-16));
#201 = CARTESIAN_POINT ('', (-13.5160081127812, 3.7, -9.06238631369042E-16));
#202 = CARTESIAN_POINT ('', (-1.27401216917175, 3.7, -9.06238631369041E-16));
#203 = B_SPLINE_CURVE_WITH_KNOTS ('', 3, (#199, #200, #201, #202), .UNSPECIFIED., .F., .U., (4, 4), (0., 1.), .UNSPECIFIED.);
#204 = EDGE_CURVE ('', #198, #18, #203, .T.);
#205 = ORIENTED_EDGE ('', *, *, #204, .F.);
#206 = CARTESIAN_POINT ('', (-38., 3.7, -9.06238631369041E-16));
#207 = CARTESIAN_POINT ('', (-38., 3.69999999999999, 14.8));
#208 = CARTESIAN_POINT ('', (-38., -11.1, 7.39999999999999));
#209 = CARTESIAN_POINT ('', (-38., -11.1, -7.4));
#210 = CARTESIAN_POINT ('', (-38., 3.70000000000001, -14.8));
#211 = CARTESIAN_POINT ('', (-38., 3.7, -9.06238631369041E-16));
#212 = (
   BOUNDED_CURVE ()
   B_SPLINE_CURVE (5, (#206, #207, #208, #209, #210, #211), .UNSPECIFIED., .T., .U.)
   B_SPLINE_CURVE_WITH_KNOTS ((6, 6), (0., 1.), .UNSPECIFIED.)
   CURVE ()
   GEOMETRIC_REPRESENTATION_ITEM ()
   RATIONAL_B_SPLINE_CURVE ((5., 1., 1., 1., 1., 5.))
   REPRESENTATION_ITEM ('')
);
#213 = EDGE_CURVE ('', #198, #198, #212, .T.);
#214 = ORIENTED_EDGE ('', *, *, #213, .T.);
#215 = ORIENTED_EDGE ('', *, *, #204, .T.);
#216 = ORIENTED_EDGE ('', *, *, #35, .F.);
#217 = EDGE_LOOP ('', (#205, #214, #215, #216));
#218 = FACE_OUTER_BOUND ('', #217, .T.);
#219 = CARTESIAN_POINT ('', (-38., 3.7, -9.06238631369041E-16));
#220 = CARTESIAN_POINT ('', (-25.7580040563905, 3.70000000000001, -9.06238631369042E-16));
#221 = CARTESIAN_POINT ('', (-13.5160081127812, 3.7, -9.06238631369042E-16));
#222 = CARTESIAN_POINT ('', (-1.27401216917175, 3.7, -9.06238631369041E-16));
#223 = CARTESIAN_POINT ('', (-38., 3.69999999999999, 14.8));
#224 = CARTESIAN_POINT ('', (-25.7580040563905, 3.7, 14.8));
#225 = CARTESIAN_POINT ('', (-13.5160081127812, 3.7, 14.8));
#226 = CARTESIAN_POINT ('', (-1.27401216917176, 3.7, 14.8));
#227 = CARTESIAN_POINT ('', (-38., -11.1, 7.39999999999999));
#228 = CARTESIAN_POINT ('', (-25.7580040563905, -11.1, 7.4));
#229 = CARTESIAN_POINT ('', (-13.5160081127812, -11.1, 7.4));
#230 = CARTESIAN_POINT ('', (-1.27401216917176, -11.1, 7.4));
#231 = CARTESIAN_POINT ('', (-38., -11.1, -7.4));
#232 = CARTESIAN_POINT ('', (-25.7580040563905, -11.1, -7.40000000000001));
#233 = CARTESIAN_POINT ('', (-13.5160081127812, -11.1, -7.40000000000001));
#234 = CARTESIAN_POINT ('', (-1.27401216917176, -11.1, -7.4));
#235 = CARTESIAN_POINT ('', (-38., 3.70000000000001, -14.8));
#236 = CARTESIAN_POINT ('', (-25.7580040563905, 3.70000000000001, -14.8));
#237 = CARTESIAN_POINT ('', (-13.5160081127812, 3.7, -14.8));
#238 = CARTESIAN_POINT ('', (-1.27401216917175, 3.7, -14.8));
#239 = CARTESIAN_POINT ('', (-38., 3.7, -9.06238631369041E-16));
#240 = CARTESIAN_POINT ('', (-25.7580040563905, 3.70000000000001, -9.06238631369042E-16));
#241 = CARTESIAN_POINT ('', (-13.5160081127812, 3.7, -9.06238631369042E-16));
#242 = CARTESIAN_POINT ('', (-1.27401216917175, 3.7, -9.06238631369041E-16));
#243 = (
   BOUNDED_SURFACE ()
   B_SPLINE_SURFACE (5, 3, ((#219, #220, #221, #222), (#223, #224, #225, #226), (#227, #228, #229, #230), (#231, #232, #233, #234), (#235, #236, #237, #238), (#239, #240, #241, #242)), .UNSPECIFIED., .T., .F., .U.)
   B_SPLINE_SURFACE_WITH_KNOTS ((6, 6), (4, 4), (0., 1.), (0., 1.), .UNSPECIFIED.)
   SURFACE ()
   GEOMETRIC_REPRESENTATION_ITEM ()
   RATIONAL_B_SPLINE_SURFACE (((5., 5., 5., 5.), (1., 1., 1., 1.), (1., 1., 1., 1.), (1., 1., 1., 1.), (1., 1., 1., 1.), (5., 5., 5., 5.)))
   REPRESENTATION_ITEM ('')
);
#244 = ADVANCED_FACE ('', (#218), #243, .T.);
#245 = CARTESIAN_POINT ('', (-38., 4., -9.79717439317882E-16));
#246 = CARTESIAN_POINT ('', (-38., 3.90000000000001, -9.55224503334937E-16));
#247 = CARTESIAN_POINT ('', (-38.0000000000001, 3.79999999999999, -9.30731567351987E-16));
#248 = CARTESIAN_POINT ('', (-38., 3.7, -9.06238631369041E-16));
#249 = B_SPLINE_CURVE_WITH_KNOTS ('', 3, (#245, #246, #247, #248), .UNSPECIFIED., .F., .U., (4, 4), (0., 1.), .UNSPECIFIED.);
#250 = EDGE_CURVE ('', #69, #198, #249, .T.);
#251 = ORIENTED_EDGE ('', *, *, #250, .F.);
#252 = ORIENTED_EDGE ('', *, *, #94, .T.);
#253 = ORIENTED_EDGE ('', *, *, #250, .T.);
#254 = ORIENTED_EDGE ('', *, *, #213, .F.);
#255 = EDGE_LOOP ('', (#251, #252, #253, #254));
#256 = FACE_OUTER_BOUND ('', #255, .T.);
#257 = CARTESIAN_POINT ('', (-38., 4., -9.79717439317882E-16));
#258 = CARTESIAN_POINT ('', (-38., 3.90000000000001, -9.55224503334937E-16));
#259 = CARTESIAN_POINT ('', (-38.0000000000001, 3.79999999999999, -9.30731567351987E-16));
#260 = CARTESIAN_POINT ('', (-38., 3.7, -9.06238631369041E-16));
#261 = CARTESIAN_POINT ('', (-38., 3.99999999999999, 16.));
#262 = CARTESIAN_POINT ('', (-38., 3.9, 15.6));
#263 = CARTESIAN_POINT ('', (-38.0000000000001, 3.79999999999999, 15.2));
#264 = CARTESIAN_POINT ('', (-38., 3.69999999999999, 14.8));
#265 = CARTESIAN_POINT ('', (-38., -12., 7.99999999999999));
#266 = CARTESIAN_POINT ('', (-38., -11.7, 7.80000000000001));
#267 = CARTESIAN_POINT ('', (-38.0000000000001, -11.4, 7.59999999999998));
#268 = CARTESIAN_POINT ('', (-38., -11.1, 7.39999999999999));
#269 = CARTESIAN_POINT ('', (-38., -12., -8.));
#270 = CARTESIAN_POINT ('', (-38., -11.7, -7.80000000000002));
#271 = CARTESIAN_POINT ('', (-38.0000000000001, -11.4, -7.59999999999999));
#272 = CARTESIAN_POINT ('', (-38., -11.1, -7.4));
#273 = CARTESIAN_POINT ('', (-38., 4.00000000000001, -16.));
#274 = CARTESIAN_POINT ('', (-38., 3.90000000000001, -15.6));
#275 = CARTESIAN_POINT ('', (-38.0000000000001, 3.8, -15.2));
#276 = CARTESIAN_POINT ('', (-38., 3.70000000000001, -14.8));
#277 = CARTESIAN_POINT ('', (-38., 4., -9.79717439317882E-16));
#278 = CARTESIAN_POINT ('', (-38., 3.90000000000001, -9.55224503334937E-16));
#279 = CARTESIAN_POINT ('', (-38.0000000000001, 3.79999999999999, -9.30731567351987E-16));
#280 = CARTESIAN_POINT ('', (-38., 3.7, -9.06238631369041E-16));
#281 = (
   BOUNDED_SURFACE ()
   B_SPLINE_SURFACE (5, 3, ((#257, #258, #259, #260), (#261, #262, #263, #264), (#265, #266, #267, #268), (#269, #270, #271, #272), (#273, #274, #275, #276), (#277, #278, #279, #280)), .UNSPECIFIED., .T., .F., .U.)
   B_SPLINE_SURFACE_WITH_KNOTS ((6, 6), (4, 4), (0., 1.), (0., 1.), .UNSPECIFIED.)
   SURFACE ()
   GEOMETRIC_REPRESENTATION_ITEM ()
   RATIONAL_B_SPLINE_SURFACE (((5., 5., 5., 5.), (1., 1., 1., 1.), (1., 1., 1., 1.), (1., 1., 1., 1.), (1., 1., 1., 1.), (5., 5., 5., 5.)))
   REPRESENTATION_ITEM ('')
);
#282 = ADVANCED_FACE ('', (#256), #281, .T.);
#283 = CLOSED_SHELL ('', (#65, #123, #158, #196, #244, #282));
#284 = MANIFOLD_SOLID_BREP ('', #283);
#285 = (
   LENGTH_UNIT ()
   NAMED_UNIT (*)
   SI_UNIT (.MILLI., .METRE.)
);
#286 = (
   NAMED_UNIT (*)
   SI_UNIT ($, .STERADIAN.)
   SOLID_ANGLE_UNIT ()
);
#287 = (
   NAMED_UNIT (*)
   SI_UNIT ($, .RADIAN.)
   PLANE_ANGLE_UNIT ()
);
#288 = UNCERTAINTY_MEASURE_WITH_UNIT (LENGTH_MEASURE(0.001), #285, 'DISTANCE_ACCURACY_VALUE', '');
#289 = (
   GEOMETRIC_REPRESENTATION_CONTEXT (3)
   GLOBAL_UNCERTAINTY_ASSIGNED_CONTEXT ((#288))
   GLOBAL_UNIT_ASSIGNED_CONTEXT ((#285, #286, #287))
   REPRESENTATION_CONTEXT ('', '3D')
);
#290 = SHAPE_REPRESENTATION ('', (), #289);
#291 = APPLICATION_CONTEXT ('configuration controlled 3D designs of mechanical parts and assemblies');
#292 = APPLICATION_PROTOCOL_DEFINITION ('International Standard', 'config_control_design', 1997, #291);
#293 = MECHANICAL_CONTEXT ('', #291, 'mechanical');
#294 = PRODUCT ('', '', '', (#293));
#295 = PERSON_AND_ORGANIZATION_ROLE ('design_owner');
#296 = PERSON ('', '', $, $, $, $);
#297 = ORGANIZATION ($, '', '');
#298 = PERSON_AND_ORGANIZATION (#296, #297);
#299 = CC_DESIGN_PERSON_AND_ORGANIZATION_ASSIGNMENT (#298, #295, (#294));
#300 = PRODUCT_RELATED_PRODUCT_CATEGORY ('detail', $, (#294));
#301 = PRODUCT_DEFINITION_FORMATION_WITH_SPECIFIED_SOURCE ('', '', #294, .NOT_KNOWN.);
#302 = APPROVAL_STATUS ('approved');
#303 = APPROVAL (#302, '');
#304 = CALENDAR_DATE (2021, 13, 4);
#305 = COORDINATED_UNIVERSAL_TIME_OFFSET (0, $, .AHEAD.);
#306 = LOCAL_TIME (18, 8, 3., #305);
#307 = DATE_AND_TIME (#304, #306);
#308 = APPROVAL_DATE_TIME (#307, #303);
#309 = APPROVAL_ROLE ('');
#310 = PERSON ('', '', $, $, $, $);
#311 = ORGANIZATION ($, '', '');
#312 = PERSON_AND_ORGANIZATION (#310, #311);
#313 = APPROVAL_PERSON_ORGANIZATION (#312, #303, #309);
#314 = CC_DESIGN_APPROVAL (#303, (#301));
#315 = PERSON_AND_ORGANIZATION_ROLE ('creator');
#316 = PERSON ('', '', $, $, $, $);
#317 = ORGANIZATION ($, '', '');
#318 = PERSON_AND_ORGANIZATION (#316, #317);
#319 = CC_DESIGN_PERSON_AND_ORGANIZATION_ASSIGNMENT (#318, #315, (#301));
#320 = PERSON_AND_ORGANIZATION_ROLE ('part_supplier');
#321 = PERSON ('', '', $, $, $, $);
#322 = ORGANIZATION ($, '', '');
#323 = PERSON_AND_ORGANIZATION (#321, #322);
#324 = CC_DESIGN_PERSON_AND_ORGANIZATION_ASSIGNMENT (#323, #320, (#301));
#325 = SECURITY_CLASSIFICATION_LEVEL ('unclassified');
#326 = SECURITY_CLASSIFICATION ('', '', #325);
#327 = APPROVAL_STATUS ('approved');
#328 = APPROVAL (#327, '');
#329 = CALENDAR_DATE (2021, 13, 4);
#330 = COORDINATED_UNIVERSAL_TIME_OFFSET (0, $, .AHEAD.);
#331 = LOCAL_TIME (18, 8, 3., #330);
#332 = DATE_AND_TIME (#329, #331);
#333 = APPROVAL_DATE_TIME (#332, #328);
#334 = APPROVAL_ROLE ('');
#335 = PERSON ('', '', $, $, $, $);
#336 = ORGANIZATION ($, '', '');
#337 = PERSON_AND_ORGANIZATION (#335, #336);
#338 = APPROVAL_PERSON_ORGANIZATION (#337, #328, #334);
#339 = CC_DESIGN_APPROVAL (#328, (#326));
#340 = DATE_TIME_ROLE ('classification_date');
#341 = CALENDAR_DATE (2021, 13, 4);
#342 = COORDINATED_UNIVERSAL_TIME_OFFSET (0, $, .AHEAD.);
#343 = LOCAL_TIME (18, 8, 3., #342);
#344 = DATE_AND_TIME (#341, #343);
#345 = CC_DESIGN_DATE_AND_TIME_ASSIGNMENT (#344, #340, (#326));
#346 = PERSON_AND_ORGANIZATION_ROLE ('classification_officer');
#347 = PERSON ('', '', $, $, $, $);
#348 = ORGANIZATION ($, '', '');
#349 = PERSON_AND_ORGANIZATION (#347, #348);
#350 = CC_DESIGN_PERSON_AND_ORGANIZATION_ASSIGNMENT (#349, #346, (#326));
#351 = CC_DESIGN_SECURITY_CLASSIFICATION (#326, (#301));
#352 = DESIGN_CONTEXT ('', #291, 'design');
#353 = PRODUCT_DEFINITION ('', '', #301, #352);
#354 = APPROVAL_STATUS ('approved');
#355 = APPROVAL (#354, '');
#356 = CALENDAR_DATE (2021, 13, 4);
#357 = COORDINATED_UNIVERSAL_TIME_OFFSET (0, $, .AHEAD.);
#358 = LOCAL_TIME (18, 8, 3., #357);
#359 = DATE_AND_TIME (#356, #358);
#360 = APPROVAL_DATE_TIME (#359, #355);
#361 = APPROVAL_ROLE ('');
#362 = PERSON ('', '', $, $, $, $);
#363 = ORGANIZATION ($, '', '');
#364 = PERSON_AND_ORGANIZATION (#362, #363);
#365 = APPROVAL_PERSON_ORGANIZATION (#364, #355, #361);
#366 = CC_DESIGN_APPROVAL (#355, (#353));
#367 = DATE_TIME_ROLE ('creation_date');
#368 = CALENDAR_DATE (2021, 13, 4);
#369 = COORDINATED_UNIVERSAL_TIME_OFFSET (0, $, .AHEAD.);
#370 = LOCAL_TIME (18, 8, 3., #369);
#371 = DATE_AND_TIME (#368, #370);
#372 = CC_DESIGN_DATE_AND_TIME_ASSIGNMENT (#371, #367, (#353));
#373 = PERSON_AND_ORGANIZATION_ROLE ('creator');
#374 = PERSON ('', '', $, $, $, $);
#375 = ORGANIZATION ($, '', '');
#376 = PERSON_AND_ORGANIZATION (#374, #375);
#377 = CC_DESIGN_PERSON_AND_ORGANIZATION_ASSIGNMENT (#376, #373, (#353));
#378 = PRODUCT_DEFINITION_SHAPE ('', '', #353);
#379 = SHAPE_DEFINITION_REPRESENTATION (#378, #290);
#380 = SHAPE_REPRESENTATION_RELATIONSHIP ('', '', #290, #381);
#381 = GEOMETRICALLY_BOUNDED_WIREFRAME_SHAPE_REPRESENTATION ('', (#4), #289);
#382 = SHAPE_REPRESENTATION_RELATIONSHIP ('', '', #290, #383);
#383 = ADVANCED_BREP_SHAPE_REPRESENTATION ('', (#284), #289);
ENDSEC;
END-ISO-10303-21;
