ISO-10303-21;
HEADER;
FILE_DESCRIPTION ((), '1');
FILE_NAME ('D:\\Documents\\Mark Dainty\\2XDSS\\2XDSSM0780A.STP', '2021-04-13T18:21:14', ('Unknown'), ('M A Ford Europe'), 'OneCNC-XR8 Mill 3D Expert', 'OneCNC-XR8 Mill 3D Expert', '');
FILE_SCHEMA (('CONFIG_CONTROL_DESIGN'));
ENDSEC;

DATA;
#1 = CARTESIAN_POINT ('', (-43., 3.9, 0.));
#2 = CARTESIAN_POINT ('', (-43., 4., 0.));
#3 = B_SPLINE_CURVE_WITH_KNOTS ('', 1, (#1, #2), .UNSPECIFIED., .F., .U., (2, 2), (0., 1.), .UNSPECIFIED.);
#4 = GEOMETRIC_CURVE_SET ('', (#3, #7, #10, #13, #16, #19));
#5 = CARTESIAN_POINT ('', (-43., 4., 0.));
#6 = CARTESIAN_POINT ('', (-43., 3.9, 0.));
#7 = B_SPLINE_CURVE_WITH_KNOTS ('', 1, (#5, #6), .UNSPECIFIED., .F., .U., (2, 2), (0., 1.), .UNSPECIFIED.);
#8 = CARTESIAN_POINT ('', (-1.34287769182969, 3.9, 0.));
#9 = CARTESIAN_POINT ('', (0., 0., 0.));
#10 = B_SPLINE_CURVE_WITH_KNOTS ('', 1, (#8, #9), .UNSPECIFIED., .F., .U., (2, 2), (0., 1.), .UNSPECIFIED.);
#11 = CARTESIAN_POINT ('', (-43., 3.9, 0.));
#12 = CARTESIAN_POINT ('', (-1.3428776918297, 3.9, 0.));
#13 = B_SPLINE_CURVE_WITH_KNOTS ('', 1, (#11, #12), .UNSPECIFIED., .F., .U., (2, 2), (0., 1.), .UNSPECIFIED.);
#14 = CARTESIAN_POINT ('', (-88.5, 4., 0.));
#15 = CARTESIAN_POINT ('', (-43., 4., 0.));
#16 = B_SPLINE_CURVE_WITH_KNOTS ('', 1, (#14, #15), .UNSPECIFIED., .F., .U., (2, 2), (0., 1.), .UNSPECIFIED.);
#17 = CARTESIAN_POINT ('', (-89., 3.5, 0.));
#18 = CARTESIAN_POINT ('', (-88.5, 4., 0.));
#19 = B_SPLINE_CURVE_WITH_KNOTS ('', 1, (#17, #18), .UNSPECIFIED., .F., .U., (2, 2), (0., 1.), .UNSPECIFIED.);
#20 = CARTESIAN_POINT ('', (-88.5, 4., -9.79717439317881E-16));
#21 = VERTEX_POINT ('', #20);
#22 = CARTESIAN_POINT ('', (-43., 4., -9.79717439317882E-16));
#23 = VERTEX_POINT ('', #22);
#24 = CARTESIAN_POINT ('', (-88.5, 4., -9.79717439317881E-16));
#25 = CARTESIAN_POINT ('', (-73.3333333333334, 4., -9.79717439317881E-16));
#26 = CARTESIAN_POINT ('', (-58.1666666666668, 4., -9.79717439317882E-16));
#27 = CARTESIAN_POINT ('', (-43., 4., -9.79717439317882E-16));
#28 = B_SPLINE_CURVE_WITH_KNOTS ('', 3, (#24, #25, #26, #27), .UNSPECIFIED., .F., .U., (4, 4), (0., 1.), .UNSPECIFIED.);
#29 = EDGE_CURVE ('', #21, #23, #28, .T.);
#30 = ORIENTED_EDGE ('', *, *, #29, .F.);
#31 = CARTESIAN_POINT ('', (-88.5, 4., -9.79717439317881E-16));
#32 = CARTESIAN_POINT ('', (-88.5, 3.99999999999998, 16.));
#33 = CARTESIAN_POINT ('', (-88.5, -12., 7.99999999999997));
#34 = CARTESIAN_POINT ('', (-88.5, -12., -8.00000000000001));
#35 = CARTESIAN_POINT ('', (-88.5, 4.00000000000002, -16.));
#36 = CARTESIAN_POINT ('', (-88.5, 4., -9.79717439317881E-16));
#37 = (
   BOUNDED_CURVE ()
   B_SPLINE_CURVE (5, (#31, #32, #33, #34, #35, #36), .UNSPECIFIED., .T., .U.)
   B_SPLINE_CURVE_WITH_KNOTS ((6, 6), (0., 1.), .UNSPECIFIED.)
   CURVE ()
   GEOMETRIC_REPRESENTATION_ITEM ()
   RATIONAL_B_SPLINE_CURVE ((5., 1., 1., 1., 1., 5.))
   REPRESENTATION_ITEM ('')
);
#38 = EDGE_CURVE ('', #21, #21, #37, .T.);
#39 = ORIENTED_EDGE ('', *, *, #38, .T.);
#40 = ORIENTED_EDGE ('', *, *, #29, .T.);
#41 = CARTESIAN_POINT ('', (-43., 4., -9.79717439317882E-16));
#42 = CARTESIAN_POINT ('', (-43., 3.99999999999999, 16.));
#43 = CARTESIAN_POINT ('', (-43., -12., 7.99999999999999));
#44 = CARTESIAN_POINT ('', (-43., -12., -8.));
#45 = CARTESIAN_POINT ('', (-43., 4.00000000000001, -16.));
#46 = CARTESIAN_POINT ('', (-43., 4., -9.79717439317882E-16));
#47 = (
   BOUNDED_CURVE ()
   B_SPLINE_CURVE (5, (#41, #42, #43, #44, #45, #46), .UNSPECIFIED., .T., .U.)
   B_SPLINE_CURVE_WITH_KNOTS ((6, 6), (0., 1.), .UNSPECIFIED.)
   CURVE ()
   GEOMETRIC_REPRESENTATION_ITEM ()
   RATIONAL_B_SPLINE_CURVE ((5., 1., 1., 1., 1., 5.))
   REPRESENTATION_ITEM ('')
);
#48 = EDGE_CURVE ('', #23, #23, #47, .T.);
#49 = ORIENTED_EDGE ('', *, *, #48, .F.);
#50 = EDGE_LOOP ('', (#30, #39, #40, #49));
#51 = FACE_OUTER_BOUND ('', #50, .T.);
#52 = CARTESIAN_POINT ('', (-88.5, 4., -9.79717439317881E-16));
#53 = CARTESIAN_POINT ('', (-73.3333333333334, 4., -9.79717439317881E-16));
#54 = CARTESIAN_POINT ('', (-58.1666666666668, 4., -9.79717439317882E-16));
#55 = CARTESIAN_POINT ('', (-43., 4., -9.79717439317882E-16));
#56 = CARTESIAN_POINT ('', (-88.5, 3.99999999999998, 16.));
#57 = CARTESIAN_POINT ('', (-73.3333333333334, 3.99999999999999, 16.));
#58 = CARTESIAN_POINT ('', (-58.1666666666668, 3.99999999999999, 16.));
#59 = CARTESIAN_POINT ('', (-43., 3.99999999999999, 16.));
#60 = CARTESIAN_POINT ('', (-88.5, -12., 7.99999999999997));
#61 = CARTESIAN_POINT ('', (-73.3333333333334, -12., 7.99999999999998));
#62 = CARTESIAN_POINT ('', (-58.1666666666668, -12., 7.99999999999998));
#63 = CARTESIAN_POINT ('', (-43., -12., 7.99999999999999));
#64 = CARTESIAN_POINT ('', (-88.5, -12., -8.00000000000001));
#65 = CARTESIAN_POINT ('', (-73.3333333333334, -12., -8.00000000000001));
#66 = CARTESIAN_POINT ('', (-58.1666666666668, -12., -8.));
#67 = CARTESIAN_POINT ('', (-43., -12., -8.));
#68 = CARTESIAN_POINT ('', (-88.5, 4.00000000000002, -16.));
#69 = CARTESIAN_POINT ('', (-73.3333333333334, 4.00000000000001, -16.));
#70 = CARTESIAN_POINT ('', (-58.1666666666668, 4.00000000000001, -16.));
#71 = CARTESIAN_POINT ('', (-43., 4.00000000000001, -16.));
#72 = CARTESIAN_POINT ('', (-88.5, 4., -9.79717439317881E-16));
#73 = CARTESIAN_POINT ('', (-73.3333333333334, 4., -9.79717439317881E-16));
#74 = CARTESIAN_POINT ('', (-58.1666666666668, 4., -9.79717439317882E-16));
#75 = CARTESIAN_POINT ('', (-43., 4., -9.79717439317882E-16));
#76 = (
   BOUNDED_SURFACE ()
   B_SPLINE_SURFACE (5, 3, ((#52, #53, #54, #55), (#56, #57, #58, #59), (#60, #61, #62, #63), (#64, #65, #66, #67), (#68, #69, #70, #71), (#72, #73, #74, #75)), .UNSPECIFIED., .T., .F., .U.)
   B_SPLINE_SURFACE_WITH_KNOTS ((6, 6), (4, 4), (0., 1.), (0., 1.), .UNSPECIFIED.)
   SURFACE ()
   GEOMETRIC_REPRESENTATION_ITEM ()
   RATIONAL_B_SPLINE_SURFACE (((5., 5., 5., 5.), (1., 1., 1., 1.), (1., 1., 1., 1.), (1., 1., 1., 1.), (1., 1., 1., 1.), (5., 5., 5., 5.)))
   REPRESENTATION_ITEM ('')
);
#77 = ADVANCED_FACE ('', (#51), #76, .T.);
#78 = CARTESIAN_POINT ('', (-89., 5.44967825620572E-15, -5.44967825620572E-15));
#79 = VERTEX_POINT ('', #78);
#80 = CARTESIAN_POINT ('', (-89., 3.5, -8.57252759403146E-16));
#81 = VERTEX_POINT ('', #80);
#82 = CARTESIAN_POINT ('', (-89., 5.44967825620572E-15, -5.44967825620572E-15));
#83 = CARTESIAN_POINT ('', (-89., 3.5, -8.57252759403146E-16));
#84 = B_SPLINE_CURVE_WITH_KNOTS ('', 1, (#82, #83), .UNSPECIFIED., .F., .U., (2, 2), (0., 1.), .UNSPECIFIED.);
#85 = EDGE_CURVE ('', #79, #81, #84, .T.);
#86 = ORIENTED_EDGE ('', *, *, #85, .F.);
#87 = ORIENTED_EDGE ('', *, *, #85, .T.);
#88 = CARTESIAN_POINT ('', (-89., 3.5, -8.57252759403146E-16));
#89 = CARTESIAN_POINT ('', (-89., 3.49999999999998, 14.));
#90 = CARTESIAN_POINT ('', (-89., -10.5, 6.99999999999997));
#91 = CARTESIAN_POINT ('', (-89., -10.5, -7.00000000000001));
#92 = CARTESIAN_POINT ('', (-89., 3.50000000000002, -14.));
#93 = CARTESIAN_POINT ('', (-89., 3.5, -8.57252759403146E-16));
#94 = (
   BOUNDED_CURVE ()
   B_SPLINE_CURVE (5, (#88, #89, #90, #91, #92, #93), .UNSPECIFIED., .T., .U.)
   B_SPLINE_CURVE_WITH_KNOTS ((6, 6), (0., 1.), .UNSPECIFIED.)
   CURVE ()
   GEOMETRIC_REPRESENTATION_ITEM ()
   RATIONAL_B_SPLINE_CURVE ((5., 1., 1., 1., 1., 5.))
   REPRESENTATION_ITEM ('')
);
#95 = EDGE_CURVE ('', #81, #81, #94, .T.);
#96 = ORIENTED_EDGE ('', *, *, #95, .F.);
#97 = EDGE_LOOP ('', (#86, #87, #96));
#98 = FACE_OUTER_BOUND ('', #97, .T.);
#99 = CARTESIAN_POINT ('', (-89., 5.44967825620572E-15, -5.44967825620572E-15));
#100 = CARTESIAN_POINT ('', (-89., 3.5, -8.57252759403146E-16));
#101 = CARTESIAN_POINT ('', (-89., 5.44967825620572E-15, -5.44967825620572E-15));
#102 = CARTESIAN_POINT ('', (-89., 3.49999999999998, 14.));
#103 = CARTESIAN_POINT ('', (-89., 5.44967825620572E-15, -5.44967825620572E-15));
#104 = CARTESIAN_POINT ('', (-89., -10.5, 6.99999999999997));
#105 = CARTESIAN_POINT ('', (-89., 5.44967825620572E-15, -5.44967825620572E-15));
#106 = CARTESIAN_POINT ('', (-89., -10.5, -7.00000000000001));
#107 = CARTESIAN_POINT ('', (-89., 5.44967825620572E-15, -5.44967825620572E-15));
#108 = CARTESIAN_POINT ('', (-89., 3.50000000000002, -14.));
#109 = CARTESIAN_POINT ('', (-89., 5.44967825620572E-15, -5.44967825620572E-15));
#110 = CARTESIAN_POINT ('', (-89., 3.5, -8.57252759403146E-16));
#111 = (
   BOUNDED_SURFACE ()
   B_SPLINE_SURFACE (5, 1, ((#99, #100), (#101, #102), (#103, #104), (#105, #106), (#107, #108), (#109, #110)), .UNSPECIFIED., .T., .F., .U.)
   B_SPLINE_SURFACE_WITH_KNOTS ((6, 6), (2, 2), (0., 1.), (0., 1.), .UNSPECIFIED.)
   SURFACE ()
   GEOMETRIC_REPRESENTATION_ITEM ()
   RATIONAL_B_SPLINE_SURFACE (((5., 5.), (1., 1.), (1., 1.), (1., 1.), (1., 1.), (5., 5.)))
   REPRESENTATION_ITEM ('')
);
#112 = ADVANCED_FACE ('', (#98), #111, .T.);
#113 = CARTESIAN_POINT ('', (-89., 3.5, -8.57252759403146E-16));
#114 = CARTESIAN_POINT ('', (-88.8333333333332, 3.66666666666667, -8.98074319374724E-16));
#115 = CARTESIAN_POINT ('', (-88.6666666666664, 3.83333333333332, -9.388958793463E-16));
#116 = CARTESIAN_POINT ('', (-88.5, 4., -9.79717439317881E-16));
#117 = B_SPLINE_CURVE_WITH_KNOTS ('', 3, (#113, #114, #115, #116), .UNSPECIFIED., .F., .U., (4, 4), (0., 1.), .UNSPECIFIED.);
#118 = EDGE_CURVE ('', #81, #21, #117, .T.);
#119 = ORIENTED_EDGE ('', *, *, #118, .F.);
#120 = ORIENTED_EDGE ('', *, *, #95, .T.);
#121 = ORIENTED_EDGE ('', *, *, #118, .T.);
#122 = ORIENTED_EDGE ('', *, *, #38, .F.);
#123 = EDGE_LOOP ('', (#119, #120, #121, #122));
#124 = FACE_OUTER_BOUND ('', #123, .T.);
#125 = CARTESIAN_POINT ('', (-89., 3.5, -8.57252759403146E-16));
#126 = CARTESIAN_POINT ('', (-88.8333333333332, 3.66666666666667, -8.98074319374724E-16));
#127 = CARTESIAN_POINT ('', (-88.6666666666664, 3.83333333333332, -9.388958793463E-16));
#128 = CARTESIAN_POINT ('', (-88.5, 4., -9.79717439317881E-16));
#129 = CARTESIAN_POINT ('', (-89., 3.49999999999998, 14.));
#130 = CARTESIAN_POINT ('', (-88.8333333333332, 3.66666666666665, 14.6666666666666));
#131 = CARTESIAN_POINT ('', (-88.6666666666664, 3.83333333333331, 15.3333333333333));
#132 = CARTESIAN_POINT ('', (-88.5, 3.99999999999998, 16.));
#133 = CARTESIAN_POINT ('', (-89., -10.5, 6.99999999999997));
#134 = CARTESIAN_POINT ('', (-88.8333333333332, -11., 7.3333333333333));
#135 = CARTESIAN_POINT ('', (-88.6666666666664, -11.5, 7.66666666666662));
#136 = CARTESIAN_POINT ('', (-88.5, -12., 7.99999999999997));
#137 = CARTESIAN_POINT ('', (-89., -10.5, -7.00000000000001));
#138 = CARTESIAN_POINT ('', (-88.8333333333332, -11., -7.33333333333334));
#139 = CARTESIAN_POINT ('', (-88.6666666666664, -11.4999999999999, -7.66666666666665));
#140 = CARTESIAN_POINT ('', (-88.5, -12., -8.00000000000001));
#141 = CARTESIAN_POINT ('', (-89., 3.50000000000002, -14.));
#142 = CARTESIAN_POINT ('', (-88.8333333333332, 3.66666666666668, -14.6666666666666));
#143 = CARTESIAN_POINT ('', (-88.6666666666664, 3.83333333333334, -15.3333333333333));
#144 = CARTESIAN_POINT ('', (-88.5, 4.00000000000002, -16.));
#145 = CARTESIAN_POINT ('', (-89., 3.5, -8.57252759403146E-16));
#146 = CARTESIAN_POINT ('', (-88.8333333333332, 3.66666666666667, -8.98074319374724E-16));
#147 = CARTESIAN_POINT ('', (-88.6666666666664, 3.83333333333332, -9.388958793463E-16));
#148 = CARTESIAN_POINT ('', (-88.5, 4., -9.79717439317881E-16));
#149 = (
   BOUNDED_SURFACE ()
   B_SPLINE_SURFACE (5, 3, ((#125, #126, #127, #128), (#129, #130, #131, #132), (#133, #134, #135, #136), (#137, #138, #139, #140), (#141, #142, #143, #144), (#145, #146, #147, #148)), .UNSPECIFIED., .T., .F., .U.)
   B_SPLINE_SURFACE_WITH_KNOTS ((6, 6), (4, 4), (0., 1.), (0., 1.), .UNSPECIFIED.)
   SURFACE ()
   GEOMETRIC_REPRESENTATION_ITEM ()
   RATIONAL_B_SPLINE_SURFACE (((5., 5., 5., 5.), (1., 1., 1., 1.), (1., 1., 1., 1.), (1., 1., 1., 1.), (1., 1., 1., 1.), (5., 5., 5., 5.)))
   REPRESENTATION_ITEM ('')
);
#150 = ADVANCED_FACE ('', (#124), #149, .T.);
#151 = CARTESIAN_POINT ('', (-43., 3.9, -9.55224503334935E-16));
#152 = VERTEX_POINT ('', #151);
#153 = CARTESIAN_POINT ('', (-1.3428776918297, 3.9, -9.55224503334935E-16));
#154 = VERTEX_POINT ('', #153);
#155 = CARTESIAN_POINT ('', (-43., 3.9, -9.55224503334935E-16));
#156 = CARTESIAN_POINT ('', (-29.1142925639433, 3.9, -9.55224503334934E-16));
#157 = CARTESIAN_POINT ('', (-15.2285851278865, 3.9, -9.55224503334935E-16));
#158 = CARTESIAN_POINT ('', (-1.3428776918297, 3.9, -9.55224503334935E-16));
#159 = B_SPLINE_CURVE_WITH_KNOTS ('', 3, (#155, #156, #157, #158), .UNSPECIFIED., .F., .U., (4, 4), (0., 1.), .UNSPECIFIED.);
#160 = EDGE_CURVE ('', #152, #154, #159, .T.);
#161 = ORIENTED_EDGE ('', *, *, #160, .F.);
#162 = CARTESIAN_POINT ('', (-43., 3.9, -9.55224503334935E-16));
#163 = CARTESIAN_POINT ('', (-43., 3.89999999999999, 15.6));
#164 = CARTESIAN_POINT ('', (-43., -11.7, 7.79999999999999));
#165 = CARTESIAN_POINT ('', (-43., -11.7, -7.8));
#166 = CARTESIAN_POINT ('', (-43., 3.90000000000001, -15.6));
#167 = CARTESIAN_POINT ('', (-43., 3.9, -9.55224503334935E-16));
#168 = (
   BOUNDED_CURVE ()
   B_SPLINE_CURVE (5, (#162, #163, #164, #165, #166, #167), .UNSPECIFIED., .T., .U.)
   B_SPLINE_CURVE_WITH_KNOTS ((6, 6), (0., 1.), .UNSPECIFIED.)
   CURVE ()
   GEOMETRIC_REPRESENTATION_ITEM ()
   RATIONAL_B_SPLINE_CURVE ((5., 1., 1., 1., 1., 5.))
   REPRESENTATION_ITEM ('')
);
#169 = EDGE_CURVE ('', #152, #152, #168, .T.);
#170 = ORIENTED_EDGE ('', *, *, #169, .T.);
#171 = ORIENTED_EDGE ('', *, *, #160, .T.);
#172 = CARTESIAN_POINT ('', (-1.34287769182969, 3.9, -9.55224503334935E-16));
#173 = CARTESIAN_POINT ('', (-1.3428776918297, 3.9, 15.6));
#174 = CARTESIAN_POINT ('', (-1.3428776918297, -11.7, 7.8));
#175 = CARTESIAN_POINT ('', (-1.3428776918297, -11.7, -7.8));
#176 = CARTESIAN_POINT ('', (-1.34287769182969, 3.9, -15.6));
#177 = CARTESIAN_POINT ('', (-1.34287769182969, 3.9, -9.55224503334935E-16));
#178 = (
   BOUNDED_CURVE ()
   B_SPLINE_CURVE (5, (#172, #173, #174, #175, #176, #177), .UNSPECIFIED., .T., .U.)
   B_SPLINE_CURVE_WITH_KNOTS ((6, 6), (0., 1.), .UNSPECIFIED.)
   CURVE ()
   GEOMETRIC_REPRESENTATION_ITEM ()
   RATIONAL_B_SPLINE_CURVE ((5., 1., 1., 1., 1., 5.))
   REPRESENTATION_ITEM ('')
);
#179 = EDGE_CURVE ('', #154, #154, #178, .T.);
#180 = ORIENTED_EDGE ('', *, *, #179, .F.);
#181 = EDGE_LOOP ('', (#161, #170, #171, #180));
#182 = FACE_OUTER_BOUND ('', #181, .T.);
#183 = CARTESIAN_POINT ('', (-43., 3.9, -9.55224503334935E-16));
#184 = CARTESIAN_POINT ('', (-29.1142925639433, 3.9, -9.55224503334934E-16));
#185 = CARTESIAN_POINT ('', (-15.2285851278865, 3.9, -9.55224503334935E-16));
#186 = CARTESIAN_POINT ('', (-1.3428776918297, 3.9, -9.55224503334935E-16));
#187 = CARTESIAN_POINT ('', (-43., 3.89999999999999, 15.6));
#188 = CARTESIAN_POINT ('', (-29.1142925639433, 3.89999999999999, 15.6));
#189 = CARTESIAN_POINT ('', (-15.2285851278865, 3.9, 15.6));
#190 = CARTESIAN_POINT ('', (-1.3428776918297, 3.9, 15.6));
#191 = CARTESIAN_POINT ('', (-43., -11.7, 7.79999999999999));
#192 = CARTESIAN_POINT ('', (-29.1142925639433, -11.7, 7.79999999999999));
#193 = CARTESIAN_POINT ('', (-15.2285851278865, -11.7, 7.79999999999999));
#194 = CARTESIAN_POINT ('', (-1.3428776918297, -11.7, 7.8));
#195 = CARTESIAN_POINT ('', (-43., -11.7, -7.8));
#196 = CARTESIAN_POINT ('', (-29.1142925639433, -11.7, -7.8));
#197 = CARTESIAN_POINT ('', (-15.2285851278865, -11.7, -7.79999999999999));
#198 = CARTESIAN_POINT ('', (-1.3428776918297, -11.7, -7.8));
#199 = CARTESIAN_POINT ('', (-43., 3.90000000000001, -15.6));
#200 = CARTESIAN_POINT ('', (-29.1142925639433, 3.9, -15.6));
#201 = CARTESIAN_POINT ('', (-15.2285851278865, 3.9, -15.6));
#202 = CARTESIAN_POINT ('', (-1.3428776918297, 3.9, -15.6));
#203 = CARTESIAN_POINT ('', (-43., 3.9, -9.55224503334935E-16));
#204 = CARTESIAN_POINT ('', (-29.1142925639433, 3.9, -9.55224503334934E-16));
#205 = CARTESIAN_POINT ('', (-15.2285851278865, 3.9, -9.55224503334935E-16));
#206 = CARTESIAN_POINT ('', (-1.3428776918297, 3.9, -9.55224503334935E-16));
#207 = (
   BOUNDED_SURFACE ()
   B_SPLINE_SURFACE (5, 3, ((#183, #184, #185, #186), (#187, #188, #189, #190), (#191, #192, #193, #194), (#195, #196, #197, #198), (#199, #200, #201, #202), (#203, #204, #205, #206)), .UNSPECIFIED., .T., .F., .U.)
   B_SPLINE_SURFACE_WITH_KNOTS ((6, 6), (4, 4), (0., 1.), (0., 1.), .UNSPECIFIED.)
   SURFACE ()
   GEOMETRIC_REPRESENTATION_ITEM ()
   RATIONAL_B_SPLINE_SURFACE (((5., 5., 5., 5.), (1., 1., 1., 1.), (1., 1., 1., 1.), (1., 1., 1., 1.), (1., 1., 1., 1.), (5., 5., 5., 5.)))
   REPRESENTATION_ITEM ('')
);
#208 = ADVANCED_FACE ('', (#182), #207, .T.);
#209 = CARTESIAN_POINT ('', (-43., 4., -9.79717439317882E-16));
#210 = CARTESIAN_POINT ('', (-43.0000000000001, 3.96666666666667, -9.71553127323567E-16));
#211 = CARTESIAN_POINT ('', (-43., 3.93333333333332, -9.63388815329248E-16));
#212 = CARTESIAN_POINT ('', (-43., 3.9, -9.55224503334935E-16));
#213 = B_SPLINE_CURVE_WITH_KNOTS ('', 3, (#209, #210, #211, #212), .UNSPECIFIED., .F., .U., (4, 4), (0., 1.), .UNSPECIFIED.);
#214 = EDGE_CURVE ('', #23, #152, #213, .T.);
#215 = ORIENTED_EDGE ('', *, *, #214, .F.);
#216 = ORIENTED_EDGE ('', *, *, #48, .T.);
#217 = ORIENTED_EDGE ('', *, *, #214, .T.);
#218 = ORIENTED_EDGE ('', *, *, #169, .F.);
#219 = EDGE_LOOP ('', (#215, #216, #217, #218));
#220 = FACE_OUTER_BOUND ('', #219, .T.);
#221 = CARTESIAN_POINT ('', (-43., 4., -9.79717439317882E-16));
#222 = CARTESIAN_POINT ('', (-43.0000000000001, 3.96666666666667, -9.71553127323567E-16));
#223 = CARTESIAN_POINT ('', (-43., 3.93333333333332, -9.63388815329248E-16));
#224 = CARTESIAN_POINT ('', (-43., 3.9, -9.55224503334935E-16));
#225 = CARTESIAN_POINT ('', (-43., 3.99999999999999, 16.));
#226 = CARTESIAN_POINT ('', (-43.0000000000001, 3.96666666666666, 15.8666666666667));
#227 = CARTESIAN_POINT ('', (-43., 3.93333333333331, 15.7333333333333));
#228 = CARTESIAN_POINT ('', (-43., 3.89999999999999, 15.6));
#229 = CARTESIAN_POINT ('', (-43., -12., 7.99999999999999));
#230 = CARTESIAN_POINT ('', (-43.0000000000001, -11.9, 7.93333333333332));
#231 = CARTESIAN_POINT ('', (-43., -11.8, 7.86666666666663));
#232 = CARTESIAN_POINT ('', (-43., -11.7, 7.79999999999999));
#233 = CARTESIAN_POINT ('', (-43., -12., -8.));
#234 = CARTESIAN_POINT ('', (-43.0000000000001, -11.9, -7.93333333333334));
#235 = CARTESIAN_POINT ('', (-43., -11.8, -7.86666666666665));
#236 = CARTESIAN_POINT ('', (-43., -11.7, -7.8));
#237 = CARTESIAN_POINT ('', (-43., 4.00000000000001, -16.));
#238 = CARTESIAN_POINT ('', (-43.0000000000001, 3.96666666666668, -15.8666666666667));
#239 = CARTESIAN_POINT ('', (-43., 3.93333333333333, -15.7333333333333));
#240 = CARTESIAN_POINT ('', (-43., 3.90000000000001, -15.6));
#241 = CARTESIAN_POINT ('', (-43., 4., -9.79717439317882E-16));
#242 = CARTESIAN_POINT ('', (-43.0000000000001, 3.96666666666667, -9.71553127323567E-16));
#243 = CARTESIAN_POINT ('', (-43., 3.93333333333332, -9.63388815329248E-16));
#244 = CARTESIAN_POINT ('', (-43., 3.9, -9.55224503334935E-16));
#245 = (
   BOUNDED_SURFACE ()
   B_SPLINE_SURFACE (5, 3, ((#221, #222, #223, #224), (#225, #226, #227, #228), (#229, #230, #231, #232), (#233, #234, #235, #236), (#237, #238, #239, #240), (#241, #242, #243, #244)), .UNSPECIFIED., .T., .F., .U.)
   B_SPLINE_SURFACE_WITH_KNOTS ((6, 6), (4, 4), (0., 1.), (0., 1.), .UNSPECIFIED.)
   SURFACE ()
   GEOMETRIC_REPRESENTATION_ITEM ()
   RATIONAL_B_SPLINE_SURFACE (((5., 5., 5., 5.), (1., 1., 1., 1.), (1., 1., 1., 1.), (1., 1., 1., 1.), (1., 1., 1., 1.), (5., 5., 5., 5.)))
   REPRESENTATION_ITEM ('')
);
#246 = ADVANCED_FACE ('', (#220), #245, .T.);
#247 = CARTESIAN_POINT ('', (0., 0., 0.));
#248 = VERTEX_POINT ('', #247);
#249 = CARTESIAN_POINT ('', (-1.34287769182969, 3.9, -9.55224503334935E-16));
#250 = CARTESIAN_POINT ('', (-0.895251794553128, 2.6, -6.36816335556625E-16));
#251 = CARTESIAN_POINT ('', (-0.447625897276565, 1.3, -3.18408167778312E-16));
#252 = CARTESIAN_POINT ('', (0., 0., 0.));
#253 = B_SPLINE_CURVE_WITH_KNOTS ('', 3, (#249, #250, #251, #252), .UNSPECIFIED., .F., .U., (4, 4), (0., 1.), .UNSPECIFIED.);
#254 = EDGE_CURVE ('', #154, #248, #253, .T.);
#255 = ORIENTED_EDGE ('', *, *, #254, .F.);
#256 = ORIENTED_EDGE ('', *, *, #179, .T.);
#257 = ORIENTED_EDGE ('', *, *, #254, .T.);
#258 = EDGE_LOOP ('', (#255, #256, #257));
#259 = FACE_OUTER_BOUND ('', #258, .T.);
#260 = CARTESIAN_POINT ('', (-1.34287769182969, 3.9, -9.55224503334935E-16));
#261 = CARTESIAN_POINT ('', (-0.895251794553128, 2.6, -6.36816335556625E-16));
#262 = CARTESIAN_POINT ('', (-0.447625897276565, 1.3, -3.18408167778312E-16));
#263 = CARTESIAN_POINT ('', (0., 0., 0.));
#264 = CARTESIAN_POINT ('', (-1.3428776918297, 3.9, 15.6));
#265 = CARTESIAN_POINT ('', (-0.895251794553128, 2.60000000000001, 10.4));
#266 = CARTESIAN_POINT ('', (-0.447625897276565, 1.3, 5.2));
#267 = CARTESIAN_POINT ('', (0., 0., 0.));
#268 = CARTESIAN_POINT ('', (-1.3428776918297, -11.7, 7.8));
#269 = CARTESIAN_POINT ('', (-0.895251794553129, -7.80000000000001, 5.20000000000001));
#270 = CARTESIAN_POINT ('', (-0.447625897276565, -3.9, 2.6));
#271 = CARTESIAN_POINT ('', (0., 0., 0.));
#272 = CARTESIAN_POINT ('', (-1.3428776918297, -11.7, -7.8));
#273 = CARTESIAN_POINT ('', (-0.895251794553128, -7.80000000000001, -5.20000000000001));
#274 = CARTESIAN_POINT ('', (-0.447625897276565, -3.9, -2.6));
#275 = CARTESIAN_POINT ('', (0., 0., 0.));
#276 = CARTESIAN_POINT ('', (-1.34287769182969, 3.9, -15.6));
#277 = CARTESIAN_POINT ('', (-0.895251794553127, 2.6, -10.4));
#278 = CARTESIAN_POINT ('', (-0.447625897276564, 1.3, -5.2));
#279 = CARTESIAN_POINT ('', (0., 0., 0.));
#280 = CARTESIAN_POINT ('', (-1.34287769182969, 3.9, -9.55224503334935E-16));
#281 = CARTESIAN_POINT ('', (-0.895251794553128, 2.6, -6.36816335556625E-16));
#282 = CARTESIAN_POINT ('', (-0.447625897276565, 1.3, -3.18408167778312E-16));
#283 = CARTESIAN_POINT ('', (0., 0., 0.));
#284 = (
   BOUNDED_SURFACE ()
   B_SPLINE_SURFACE (5, 3, ((#260, #261, #262, #263), (#264, #265, #266, #267), (#268, #269, #270, #271), (#272, #273, #274, #275), (#276, #277, #278, #279), (#280, #281, #282, #283)), .UNSPECIFIED., .T., .F., .U.)
   B_SPLINE_SURFACE_WITH_KNOTS ((6, 6), (4, 4), (0., 1.), (0., 1.), .UNSPECIFIED.)
   SURFACE ()
   GEOMETRIC_REPRESENTATION_ITEM ()
   RATIONAL_B_SPLINE_SURFACE (((5., 5., 5., 5.), (1., 1., 1., 1.), (1., 1., 1., 1.), (1., 1., 1., 1.), (1., 1., 1., 1.), (5., 5., 5., 5.)))
   REPRESENTATION_ITEM ('')
);
#285 = ADVANCED_FACE ('', (#259), #284, .T.);
#286 = CLOSED_SHELL ('', (#77, #112, #150, #208, #246, #285));
#287 = MANIFOLD_SOLID_BREP ('', #286);
#288 = (
   LENGTH_UNIT ()
   NAMED_UNIT (*)
   SI_UNIT (.MILLI., .METRE.)
);
#289 = (
   NAMED_UNIT (*)
   SI_UNIT ($, .STERADIAN.)
   SOLID_ANGLE_UNIT ()
);
#290 = (
   NAMED_UNIT (*)
   SI_UNIT ($, .RADIAN.)
   PLANE_ANGLE_UNIT ()
);
#291 = UNCERTAINTY_MEASURE_WITH_UNIT (LENGTH_MEASURE(0.001), #288, 'DISTANCE_ACCURACY_VALUE', '');
#292 = (
   GEOMETRIC_REPRESENTATION_CONTEXT (3)
   GLOBAL_UNCERTAINTY_ASSIGNED_CONTEXT ((#291))
   GLOBAL_UNIT_ASSIGNED_CONTEXT ((#288, #289, #290))
   REPRESENTATION_CONTEXT ('', '3D')
);
#293 = SHAPE_REPRESENTATION ('', (), #292);
#294 = APPLICATION_CONTEXT ('configuration controlled 3D designs of mechanical parts and assemblies');
#295 = APPLICATION_PROTOCOL_DEFINITION ('International Standard', 'config_control_design', 1997, #294);
#296 = MECHANICAL_CONTEXT ('', #294, 'mechanical');
#297 = PRODUCT ('', '', '', (#296));
#298 = PERSON_AND_ORGANIZATION_ROLE ('design_owner');
#299 = PERSON ('', '', $, $, $, $);
#300 = ORGANIZATION ($, '', '');
#301 = PERSON_AND_ORGANIZATION (#299, #300);
#302 = CC_DESIGN_PERSON_AND_ORGANIZATION_ASSIGNMENT (#301, #298, (#297));
#303 = PRODUCT_RELATED_PRODUCT_CATEGORY ('detail', $, (#297));
#304 = PRODUCT_DEFINITION_FORMATION_WITH_SPECIFIED_SOURCE ('', '', #297, .NOT_KNOWN.);
#305 = APPROVAL_STATUS ('approved');
#306 = APPROVAL (#305, '');
#307 = CALENDAR_DATE (2021, 13, 4);
#308 = COORDINATED_UNIVERSAL_TIME_OFFSET (0, $, .AHEAD.);
#309 = LOCAL_TIME (18, 21, 14., #308);
#310 = DATE_AND_TIME (#307, #309);
#311 = APPROVAL_DATE_TIME (#310, #306);
#312 = APPROVAL_ROLE ('');
#313 = PERSON ('', '', $, $, $, $);
#314 = ORGANIZATION ($, '', '');
#315 = PERSON_AND_ORGANIZATION (#313, #314);
#316 = APPROVAL_PERSON_ORGANIZATION (#315, #306, #312);
#317 = CC_DESIGN_APPROVAL (#306, (#304));
#318 = PERSON_AND_ORGANIZATION_ROLE ('creator');
#319 = PERSON ('', '', $, $, $, $);
#320 = ORGANIZATION ($, '', '');
#321 = PERSON_AND_ORGANIZATION (#319, #320);
#322 = CC_DESIGN_PERSON_AND_ORGANIZATION_ASSIGNMENT (#321, #318, (#304));
#323 = PERSON_AND_ORGANIZATION_ROLE ('part_supplier');
#324 = PERSON ('', '', $, $, $, $);
#325 = ORGANIZATION ($, '', '');
#326 = PERSON_AND_ORGANIZATION (#324, #325);
#327 = CC_DESIGN_PERSON_AND_ORGANIZATION_ASSIGNMENT (#326, #323, (#304));
#328 = SECURITY_CLASSIFICATION_LEVEL ('unclassified');
#329 = SECURITY_CLASSIFICATION ('', '', #328);
#330 = APPROVAL_STATUS ('approved');
#331 = APPROVAL (#330, '');
#332 = CALENDAR_DATE (2021, 13, 4);
#333 = COORDINATED_UNIVERSAL_TIME_OFFSET (0, $, .AHEAD.);
#334 = LOCAL_TIME (18, 21, 14., #333);
#335 = DATE_AND_TIME (#332, #334);
#336 = APPROVAL_DATE_TIME (#335, #331);
#337 = APPROVAL_ROLE ('');
#338 = PERSON ('', '', $, $, $, $);
#339 = ORGANIZATION ($, '', '');
#340 = PERSON_AND_ORGANIZATION (#338, #339);
#341 = APPROVAL_PERSON_ORGANIZATION (#340, #331, #337);
#342 = CC_DESIGN_APPROVAL (#331, (#329));
#343 = DATE_TIME_ROLE ('classification_date');
#344 = CALENDAR_DATE (2021, 13, 4);
#345 = COORDINATED_UNIVERSAL_TIME_OFFSET (0, $, .AHEAD.);
#346 = LOCAL_TIME (18, 21, 14., #345);
#347 = DATE_AND_TIME (#344, #346);
#348 = CC_DESIGN_DATE_AND_TIME_ASSIGNMENT (#347, #343, (#329));
#349 = PERSON_AND_ORGANIZATION_ROLE ('classification_officer');
#350 = PERSON ('', '', $, $, $, $);
#351 = ORGANIZATION ($, '', '');
#352 = PERSON_AND_ORGANIZATION (#350, #351);
#353 = CC_DESIGN_PERSON_AND_ORGANIZATION_ASSIGNMENT (#352, #349, (#329));
#354 = CC_DESIGN_SECURITY_CLASSIFICATION (#329, (#304));
#355 = DESIGN_CONTEXT ('', #294, 'design');
#356 = PRODUCT_DEFINITION ('', '', #304, #355);
#357 = APPROVAL_STATUS ('approved');
#358 = APPROVAL (#357, '');
#359 = CALENDAR_DATE (2021, 13, 4);
#360 = COORDINATED_UNIVERSAL_TIME_OFFSET (0, $, .AHEAD.);
#361 = LOCAL_TIME (18, 21, 14., #360);
#362 = DATE_AND_TIME (#359, #361);
#363 = APPROVAL_DATE_TIME (#362, #358);
#364 = APPROVAL_ROLE ('');
#365 = PERSON ('', '', $, $, $, $);
#366 = ORGANIZATION ($, '', '');
#367 = PERSON_AND_ORGANIZATION (#365, #366);
#368 = APPROVAL_PERSON_ORGANIZATION (#367, #358, #364);
#369 = CC_DESIGN_APPROVAL (#358, (#356));
#370 = DATE_TIME_ROLE ('creation_date');
#371 = CALENDAR_DATE (2021, 13, 4);
#372 = COORDINATED_UNIVERSAL_TIME_OFFSET (0, $, .AHEAD.);
#373 = LOCAL_TIME (18, 21, 14., #372);
#374 = DATE_AND_TIME (#371, #373);
#375 = CC_DESIGN_DATE_AND_TIME_ASSIGNMENT (#374, #370, (#356));
#376 = PERSON_AND_ORGANIZATION_ROLE ('creator');
#377 = PERSON ('', '', $, $, $, $);
#378 = ORGANIZATION ($, '', '');
#379 = PERSON_AND_ORGANIZATION (#377, #378);
#380 = CC_DESIGN_PERSON_AND_ORGANIZATION_ASSIGNMENT (#379, #376, (#356));
#381 = PRODUCT_DEFINITION_SHAPE ('', '', #356);
#382 = SHAPE_DEFINITION_REPRESENTATION (#381, #293);
#383 = SHAPE_REPRESENTATION_RELATIONSHIP ('', '', #293, #384);
#384 = GEOMETRICALLY_BOUNDED_WIREFRAME_SHAPE_REPRESENTATION ('', (#4), #292);
#385 = SHAPE_REPRESENTATION_RELATIONSHIP ('', '', #293, #386);
#386 = ADVANCED_BREP_SHAPE_REPRESENTATION ('', (#287), #292);
ENDSEC;
END-ISO-10303-21;
