ISO-10303-21;
HEADER;
FILE_DESCRIPTION ((), '1');
FILE_NAME ('D:\\Documents\\Mark Dainty\\2XDSS\\2XDSSM0890A.STP', '2021-04-14T11:28:45', ('Unknown'), ('M A Ford Europe'), 'OneCNC-XR8 Mill 3D Expert', 'OneCNC-XR8 Mill 3D Expert', '');
FILE_SCHEMA (('CONFIG_CONTROL_DESIGN'));
ENDSEC;

DATA;
#1 = CARTESIAN_POINT ('', (-43., 5., 0.));
#2 = CARTESIAN_POINT ('', (-43., 4.45, 0.));
#3 = B_SPLINE_CURVE_WITH_KNOTS ('', 1, (#1, #2), .UNSPECIFIED., .F., .U., (2, 2), (0., 1.), .UNSPECIFIED.);
#4 = GEOMETRIC_CURVE_SET ('', (#3, #7, #10, #13, #16));
#5 = CARTESIAN_POINT ('', (-1.53225787913901, 4.45, 0.));
#6 = CARTESIAN_POINT ('', (0., 0., 0.));
#7 = B_SPLINE_CURVE_WITH_KNOTS ('', 1, (#5, #6), .UNSPECIFIED., .F., .U., (2, 2), (0., 1.), .UNSPECIFIED.);
#8 = CARTESIAN_POINT ('', (-43., 4.45, 0.));
#9 = CARTESIAN_POINT ('', (-1.53225787913901, 4.45, 0.));
#10 = B_SPLINE_CURVE_WITH_KNOTS ('', 1, (#8, #9), .UNSPECIFIED., .F., .U., (2, 2), (0., 1.), .UNSPECIFIED.);
#11 = CARTESIAN_POINT ('', (-88.5, 5., 0.));
#12 = CARTESIAN_POINT ('', (-43., 5., 0.));
#13 = B_SPLINE_CURVE_WITH_KNOTS ('', 1, (#11, #12), .UNSPECIFIED., .F., .U., (2, 2), (0., 1.), .UNSPECIFIED.);
#14 = CARTESIAN_POINT ('', (-89., 4.5, 0.));
#15 = CARTESIAN_POINT ('', (-88.5, 5., 0.));
#16 = B_SPLINE_CURVE_WITH_KNOTS ('', 1, (#14, #15), .UNSPECIFIED., .F., .U., (2, 2), (0., 1.), .UNSPECIFIED.);
#17 = CARTESIAN_POINT ('', (-88.5, 5., -1.22464679914735E-15));
#18 = VERTEX_POINT ('', #17);
#19 = CARTESIAN_POINT ('', (-43., 5., -1.22464679914735E-15));
#20 = VERTEX_POINT ('', #19);
#21 = CARTESIAN_POINT ('', (-88.5, 5., -1.22464679914735E-15));
#22 = CARTESIAN_POINT ('', (-73.3333333333333, 5., -1.22464679914735E-15));
#23 = CARTESIAN_POINT ('', (-58.1666666666667, 5., -1.22464679914735E-15));
#24 = CARTESIAN_POINT ('', (-43., 5., -1.22464679914735E-15));
#25 = B_SPLINE_CURVE_WITH_KNOTS ('', 3, (#21, #22, #23, #24), .UNSPECIFIED., .F., .U., (4, 4), (0., 1.), .UNSPECIFIED.);
#26 = EDGE_CURVE ('', #18, #20, #25, .T.);
#27 = ORIENTED_EDGE ('', *, *, #26, .F.);
#28 = CARTESIAN_POINT ('', (-88.5, 5., -1.22464679914735E-15));
#29 = CARTESIAN_POINT ('', (-88.5, 4.99999999999998, 20.));
#30 = CARTESIAN_POINT ('', (-88.5, -15., 9.99999999999997));
#31 = CARTESIAN_POINT ('', (-88.5, -15., -10.));
#32 = CARTESIAN_POINT ('', (-88.5, 5.00000000000002, -20.));
#33 = CARTESIAN_POINT ('', (-88.5, 5., -1.22464679914735E-15));
#34 = (
   BOUNDED_CURVE ()
   B_SPLINE_CURVE (5, (#28, #29, #30, #31, #32, #33), .UNSPECIFIED., .T., .U.)
   B_SPLINE_CURVE_WITH_KNOTS ((6, 6), (0., 1.), .UNSPECIFIED.)
   CURVE ()
   GEOMETRIC_REPRESENTATION_ITEM ()
   RATIONAL_B_SPLINE_CURVE ((5., 1., 1., 1., 1., 5.))
   REPRESENTATION_ITEM ('')
);
#35 = EDGE_CURVE ('', #18, #18, #34, .T.);
#36 = ORIENTED_EDGE ('', *, *, #35, .T.);
#37 = ORIENTED_EDGE ('', *, *, #26, .T.);
#38 = CARTESIAN_POINT ('', (-43., 5., -1.22464679914735E-15));
#39 = CARTESIAN_POINT ('', (-43., 4.99999999999999, 20.));
#40 = CARTESIAN_POINT ('', (-43., -15., 9.99999999999999));
#41 = CARTESIAN_POINT ('', (-43., -15., -10.));
#42 = CARTESIAN_POINT ('', (-43., 5., -20.));
#43 = CARTESIAN_POINT ('', (-43., 5., -1.22464679914735E-15));
#44 = (
   BOUNDED_CURVE ()
   B_SPLINE_CURVE (5, (#38, #39, #40, #41, #42, #43), .UNSPECIFIED., .T., .U.)
   B_SPLINE_CURVE_WITH_KNOTS ((6, 6), (0., 1.), .UNSPECIFIED.)
   CURVE ()
   GEOMETRIC_REPRESENTATION_ITEM ()
   RATIONAL_B_SPLINE_CURVE ((5., 1., 1., 1., 1., 5.))
   REPRESENTATION_ITEM ('')
);
#45 = EDGE_CURVE ('', #20, #20, #44, .T.);
#46 = ORIENTED_EDGE ('', *, *, #45, .F.);
#47 = EDGE_LOOP ('', (#27, #36, #37, #46));
#48 = FACE_OUTER_BOUND ('', #47, .T.);
#49 = CARTESIAN_POINT ('', (-88.5, 5., -1.22464679914735E-15));
#50 = CARTESIAN_POINT ('', (-73.3333333333333, 5., -1.22464679914735E-15));
#51 = CARTESIAN_POINT ('', (-58.1666666666667, 5., -1.22464679914735E-15));
#52 = CARTESIAN_POINT ('', (-43., 5., -1.22464679914735E-15));
#53 = CARTESIAN_POINT ('', (-88.5, 4.99999999999998, 20.));
#54 = CARTESIAN_POINT ('', (-73.3333333333333, 4.99999999999999, 20.));
#55 = CARTESIAN_POINT ('', (-58.1666666666667, 4.99999999999999, 20.));
#56 = CARTESIAN_POINT ('', (-43., 4.99999999999999, 20.));
#57 = CARTESIAN_POINT ('', (-88.5, -15., 9.99999999999997));
#58 = CARTESIAN_POINT ('', (-73.3333333333333, -15., 9.99999999999997));
#59 = CARTESIAN_POINT ('', (-58.1666666666667, -15., 9.99999999999998));
#60 = CARTESIAN_POINT ('', (-43., -15., 9.99999999999999));
#61 = CARTESIAN_POINT ('', (-88.5, -15., -10.));
#62 = CARTESIAN_POINT ('', (-73.3333333333333, -15., -10.));
#63 = CARTESIAN_POINT ('', (-58.1666666666667, -15., -10.));
#64 = CARTESIAN_POINT ('', (-43., -15., -10.));
#65 = CARTESIAN_POINT ('', (-88.5, 5.00000000000002, -20.));
#66 = CARTESIAN_POINT ('', (-73.3333333333333, 5.00000000000001, -20.));
#67 = CARTESIAN_POINT ('', (-58.1666666666667, 5.00000000000001, -20.));
#68 = CARTESIAN_POINT ('', (-43., 5., -20.));
#69 = CARTESIAN_POINT ('', (-88.5, 5., -1.22464679914735E-15));
#70 = CARTESIAN_POINT ('', (-73.3333333333333, 5., -1.22464679914735E-15));
#71 = CARTESIAN_POINT ('', (-58.1666666666667, 5., -1.22464679914735E-15));
#72 = CARTESIAN_POINT ('', (-43., 5., -1.22464679914735E-15));
#73 = (
   BOUNDED_SURFACE ()
   B_SPLINE_SURFACE (5, 3, ((#49, #50, #51, #52), (#53, #54, #55, #56), (#57, #58, #59, #60), (#61, #62, #63, #64), (#65, #66, #67, #68), (#69, #70, #71, #72)), .UNSPECIFIED., .T., .F., .U.)
   B_SPLINE_SURFACE_WITH_KNOTS ((6, 6), (4, 4), (0., 1.), (0., 1.), .UNSPECIFIED.)
   SURFACE ()
   GEOMETRIC_REPRESENTATION_ITEM ()
   RATIONAL_B_SPLINE_SURFACE (((5., 5., 5., 5.), (1., 1., 1., 1.), (1., 1., 1., 1.), (1., 1., 1., 1.), (1., 1., 1., 1.), (5., 5., 5., 5.)))
   REPRESENTATION_ITEM ('')
);
#74 = ADVANCED_FACE ('', (#48), #73, .T.);
#75 = CARTESIAN_POINT ('', (-89., 5.44967825620572E-15, -5.44967825620572E-15));
#76 = VERTEX_POINT ('', #75);
#77 = CARTESIAN_POINT ('', (-89., 4.5, -1.10218211923262E-15));
#78 = VERTEX_POINT ('', #77);
#79 = CARTESIAN_POINT ('', (-89., 5.44967825620572E-15, -5.44967825620572E-15));
#80 = CARTESIAN_POINT ('', (-89., 4.5, -1.10218211923262E-15));
#81 = B_SPLINE_CURVE_WITH_KNOTS ('', 1, (#79, #80), .UNSPECIFIED., .F., .U., (2, 2), (0., 1.), .UNSPECIFIED.);
#82 = EDGE_CURVE ('', #76, #78, #81, .T.);
#83 = ORIENTED_EDGE ('', *, *, #82, .F.);
#84 = ORIENTED_EDGE ('', *, *, #82, .T.);
#85 = CARTESIAN_POINT ('', (-89., 4.5, -1.10218211923262E-15));
#86 = CARTESIAN_POINT ('', (-89., 4.49999999999998, 18.));
#87 = CARTESIAN_POINT ('', (-89., -13.5, 8.99999999999997));
#88 = CARTESIAN_POINT ('', (-89., -13.5, -9.00000000000001));
#89 = CARTESIAN_POINT ('', (-89., 4.50000000000002, -18.));
#90 = CARTESIAN_POINT ('', (-89., 4.5, -1.10218211923262E-15));
#91 = (
   BOUNDED_CURVE ()
   B_SPLINE_CURVE (5, (#85, #86, #87, #88, #89, #90), .UNSPECIFIED., .T., .U.)
   B_SPLINE_CURVE_WITH_KNOTS ((6, 6), (0., 1.), .UNSPECIFIED.)
   CURVE ()
   GEOMETRIC_REPRESENTATION_ITEM ()
   RATIONAL_B_SPLINE_CURVE ((5., 1., 1., 1., 1., 5.))
   REPRESENTATION_ITEM ('')
);
#92 = EDGE_CURVE ('', #78, #78, #91, .T.);
#93 = ORIENTED_EDGE ('', *, *, #92, .F.);
#94 = EDGE_LOOP ('', (#83, #84, #93));
#95 = FACE_OUTER_BOUND ('', #94, .T.);
#96 = CARTESIAN_POINT ('', (-89., 5.44967825620572E-15, -5.44967825620572E-15));
#97 = CARTESIAN_POINT ('', (-89., 4.5, -1.10218211923262E-15));
#98 = CARTESIAN_POINT ('', (-89., 5.44967825620572E-15, -5.44967825620572E-15));
#99 = CARTESIAN_POINT ('', (-89., 4.49999999999998, 18.));
#100 = CARTESIAN_POINT ('', (-89., 5.44967825620572E-15, -5.44967825620572E-15));
#101 = CARTESIAN_POINT ('', (-89., -13.5, 8.99999999999997));
#102 = CARTESIAN_POINT ('', (-89., 5.44967825620572E-15, -5.44967825620572E-15));
#103 = CARTESIAN_POINT ('', (-89., -13.5, -9.00000000000001));
#104 = CARTESIAN_POINT ('', (-89., 5.44967825620572E-15, -5.44967825620572E-15));
#105 = CARTESIAN_POINT ('', (-89., 4.50000000000002, -18.));
#106 = CARTESIAN_POINT ('', (-89., 5.44967825620572E-15, -5.44967825620572E-15));
#107 = CARTESIAN_POINT ('', (-89., 4.5, -1.10218211923262E-15));
#108 = (
   BOUNDED_SURFACE ()
   B_SPLINE_SURFACE (5, 1, ((#96, #97), (#98, #99), (#100, #101), (#102, #103), (#104, #105), (#106, #107)), .UNSPECIFIED., .T., .F., .U.)
   B_SPLINE_SURFACE_WITH_KNOTS ((6, 6), (2, 2), (0., 1.), (0., 1.), .UNSPECIFIED.)
   SURFACE ()
   GEOMETRIC_REPRESENTATION_ITEM ()
   RATIONAL_B_SPLINE_SURFACE (((5., 5.), (1., 1.), (1., 1.), (1., 1.), (1., 1.), (5., 5.)))
   REPRESENTATION_ITEM ('')
);
#109 = ADVANCED_FACE ('', (#95), #108, .T.);
#110 = CARTESIAN_POINT ('', (-89., 4.5, -1.10218211923262E-15));
#111 = CARTESIAN_POINT ('', (-88.8333333333336, 4.66666666666665, -1.14300367920419E-15));
#112 = CARTESIAN_POINT ('', (-88.6666666666663, 4.83333333333335, -1.18382523917578E-15));
#113 = CARTESIAN_POINT ('', (-88.5, 5., -1.22464679914735E-15));
#114 = B_SPLINE_CURVE_WITH_KNOTS ('', 3, (#110, #111, #112, #113), .UNSPECIFIED., .F., .U., (4, 4), (0., 1.), .UNSPECIFIED.);
#115 = EDGE_CURVE ('', #78, #18, #114, .T.);
#116 = ORIENTED_EDGE ('', *, *, #115, .F.);
#117 = ORIENTED_EDGE ('', *, *, #92, .T.);
#118 = ORIENTED_EDGE ('', *, *, #115, .T.);
#119 = ORIENTED_EDGE ('', *, *, #35, .F.);
#120 = EDGE_LOOP ('', (#116, #117, #118, #119));
#121 = FACE_OUTER_BOUND ('', #120, .T.);
#122 = CARTESIAN_POINT ('', (-89., 4.5, -1.10218211923262E-15));
#123 = CARTESIAN_POINT ('', (-88.8333333333336, 4.66666666666665, -1.14300367920419E-15));
#124 = CARTESIAN_POINT ('', (-88.6666666666663, 4.83333333333335, -1.18382523917578E-15));
#125 = CARTESIAN_POINT ('', (-88.5, 5., -1.22464679914735E-15));
#126 = CARTESIAN_POINT ('', (-89., 4.49999999999998, 18.));
#127 = CARTESIAN_POINT ('', (-88.8333333333336, 4.66666666666663, 18.6666666666666));
#128 = CARTESIAN_POINT ('', (-88.6666666666663, 4.83333333333333, 19.3333333333334));
#129 = CARTESIAN_POINT ('', (-88.5, 4.99999999999998, 20.));
#130 = CARTESIAN_POINT ('', (-89., -13.5, 8.99999999999997));
#131 = CARTESIAN_POINT ('', (-88.8333333333336, -13.9999999999999, 9.33333333333328));
#132 = CARTESIAN_POINT ('', (-88.6666666666663, -14.5, 9.66666666666666));
#133 = CARTESIAN_POINT ('', (-88.5, -15., 9.99999999999997));
#134 = CARTESIAN_POINT ('', (-89., -13.5, -9.00000000000001));
#135 = CARTESIAN_POINT ('', (-88.8333333333336, -13.9999999999999, -9.33333333333331));
#136 = CARTESIAN_POINT ('', (-88.6666666666663, -14.5, -9.6666666666667));
#137 = CARTESIAN_POINT ('', (-88.5, -15., -10.));
#138 = CARTESIAN_POINT ('', (-89., 4.50000000000002, -18.));
#139 = CARTESIAN_POINT ('', (-88.8333333333336, 4.66666666666667, -18.6666666666666));
#140 = CARTESIAN_POINT ('', (-88.6666666666663, 4.83333333333336, -19.3333333333334));
#141 = CARTESIAN_POINT ('', (-88.5, 5.00000000000002, -20.));
#142 = CARTESIAN_POINT ('', (-89., 4.5, -1.10218211923262E-15));
#143 = CARTESIAN_POINT ('', (-88.8333333333336, 4.66666666666665, -1.14300367920419E-15));
#144 = CARTESIAN_POINT ('', (-88.6666666666663, 4.83333333333335, -1.18382523917578E-15));
#145 = CARTESIAN_POINT ('', (-88.5, 5., -1.22464679914735E-15));
#146 = (
   BOUNDED_SURFACE ()
   B_SPLINE_SURFACE (5, 3, ((#122, #123, #124, #125), (#126, #127, #128, #129), (#130, #131, #132, #133), (#134, #135, #136, #137), (#138, #139, #140, #141), (#142, #143, #144, #145)), .UNSPECIFIED., .T., .F., .U.)
   B_SPLINE_SURFACE_WITH_KNOTS ((6, 6), (4, 4), (0., 1.), (0., 1.), .UNSPECIFIED.)
   SURFACE ()
   GEOMETRIC_REPRESENTATION_ITEM ()
   RATIONAL_B_SPLINE_SURFACE (((5., 5., 5., 5.), (1., 1., 1., 1.), (1., 1., 1., 1.), (1., 1., 1., 1.), (1., 1., 1., 1.), (5., 5., 5., 5.)))
   REPRESENTATION_ITEM ('')
);
#147 = ADVANCED_FACE ('', (#121), #146, .T.);
#148 = CARTESIAN_POINT ('', (-43., 4.45, -1.08993565124114E-15));
#149 = VERTEX_POINT ('', #148);
#150 = CARTESIAN_POINT ('', (-1.53225787913901, 4.45, -1.08993565124114E-15));
#151 = VERTEX_POINT ('', #150);
#152 = CARTESIAN_POINT ('', (-43., 4.45, -1.08993565124114E-15));
#153 = CARTESIAN_POINT ('', (-29.1774192930462, 4.44999999999999, -1.08993565124114E-15));
#154 = CARTESIAN_POINT ('', (-15.3548385860927, 4.45, -1.08993565124114E-15));
#155 = CARTESIAN_POINT ('', (-1.53225787913901, 4.45, -1.08993565124114E-15));
#156 = B_SPLINE_CURVE_WITH_KNOTS ('', 3, (#152, #153, #154, #155), .UNSPECIFIED., .F., .U., (4, 4), (0., 1.), .UNSPECIFIED.);
#157 = EDGE_CURVE ('', #149, #151, #156, .T.);
#158 = ORIENTED_EDGE ('', *, *, #157, .F.);
#159 = CARTESIAN_POINT ('', (-43., 4.45, -1.08993565124114E-15));
#160 = CARTESIAN_POINT ('', (-43., 4.44999999999999, 17.8));
#161 = CARTESIAN_POINT ('', (-43., -13.35, 8.89999999999999));
#162 = CARTESIAN_POINT ('', (-43., -13.35, -8.9));
#163 = CARTESIAN_POINT ('', (-43., 4.45000000000001, -17.8));
#164 = CARTESIAN_POINT ('', (-43., 4.45, -1.08993565124114E-15));
#165 = (
   BOUNDED_CURVE ()
   B_SPLINE_CURVE (5, (#159, #160, #161, #162, #163, #164), .UNSPECIFIED., .T., .U.)
   B_SPLINE_CURVE_WITH_KNOTS ((6, 6), (0., 1.), .UNSPECIFIED.)
   CURVE ()
   GEOMETRIC_REPRESENTATION_ITEM ()
   RATIONAL_B_SPLINE_CURVE ((5., 1., 1., 1., 1., 5.))
   REPRESENTATION_ITEM ('')
);
#166 = EDGE_CURVE ('', #149, #149, #165, .T.);
#167 = ORIENTED_EDGE ('', *, *, #166, .T.);
#168 = ORIENTED_EDGE ('', *, *, #157, .T.);
#169 = CARTESIAN_POINT ('', (-1.53225787913901, 4.45, -1.08993565124114E-15));
#170 = CARTESIAN_POINT ('', (-1.53225787913901, 4.45, 17.8));
#171 = CARTESIAN_POINT ('', (-1.53225787913901, -13.35, 8.9));
#172 = CARTESIAN_POINT ('', (-1.53225787913901, -13.35, -8.9));
#173 = CARTESIAN_POINT ('', (-1.53225787913901, 4.45, -17.8));
#174 = CARTESIAN_POINT ('', (-1.53225787913901, 4.45, -1.08993565124114E-15));
#175 = (
   BOUNDED_CURVE ()
   B_SPLINE_CURVE (5, (#169, #170, #171, #172, #173, #174), .UNSPECIFIED., .T., .U.)
   B_SPLINE_CURVE_WITH_KNOTS ((6, 6), (0., 1.), .UNSPECIFIED.)
   CURVE ()
   GEOMETRIC_REPRESENTATION_ITEM ()
   RATIONAL_B_SPLINE_CURVE ((5., 1., 1., 1., 1., 5.))
   REPRESENTATION_ITEM ('')
);
#176 = EDGE_CURVE ('', #151, #151, #175, .T.);
#177 = ORIENTED_EDGE ('', *, *, #176, .F.);
#178 = EDGE_LOOP ('', (#158, #167, #168, #177));
#179 = FACE_OUTER_BOUND ('', #178, .T.);
#180 = CARTESIAN_POINT ('', (-43., 4.45, -1.08993565124114E-15));
#181 = CARTESIAN_POINT ('', (-29.1774192930462, 4.44999999999999, -1.08993565124114E-15));
#182 = CARTESIAN_POINT ('', (-15.3548385860927, 4.45, -1.08993565124114E-15));
#183 = CARTESIAN_POINT ('', (-1.53225787913901, 4.45, -1.08993565124114E-15));
#184 = CARTESIAN_POINT ('', (-43., 4.44999999999999, 17.8));
#185 = CARTESIAN_POINT ('', (-29.1774192930462, 4.44999999999999, 17.7999999999999));
#186 = CARTESIAN_POINT ('', (-15.3548385860927, 4.45, 17.8));
#187 = CARTESIAN_POINT ('', (-1.53225787913901, 4.45, 17.8));
#188 = CARTESIAN_POINT ('', (-43., -13.35, 8.89999999999999));
#189 = CARTESIAN_POINT ('', (-29.1774192930462, -13.35, 8.89999999999997));
#190 = CARTESIAN_POINT ('', (-15.3548385860927, -13.35, 8.9));
#191 = CARTESIAN_POINT ('', (-1.53225787913901, -13.35, 8.9));
#192 = CARTESIAN_POINT ('', (-43., -13.35, -8.9));
#193 = CARTESIAN_POINT ('', (-29.1774192930462, -13.35, -8.89999999999998));
#194 = CARTESIAN_POINT ('', (-15.3548385860927, -13.35, -8.9));
#195 = CARTESIAN_POINT ('', (-1.53225787913901, -13.35, -8.9));
#196 = CARTESIAN_POINT ('', (-43., 4.45000000000001, -17.8));
#197 = CARTESIAN_POINT ('', (-29.1774192930462, 4.44999999999999, -17.8));
#198 = CARTESIAN_POINT ('', (-15.3548385860927, 4.45, -17.8));
#199 = CARTESIAN_POINT ('', (-1.53225787913901, 4.45, -17.8));
#200 = CARTESIAN_POINT ('', (-43., 4.45, -1.08993565124114E-15));
#201 = CARTESIAN_POINT ('', (-29.1774192930462, 4.44999999999999, -1.08993565124114E-15));
#202 = CARTESIAN_POINT ('', (-15.3548385860927, 4.45, -1.08993565124114E-15));
#203 = CARTESIAN_POINT ('', (-1.53225787913901, 4.45, -1.08993565124114E-15));
#204 = (
   BOUNDED_SURFACE ()
   B_SPLINE_SURFACE (5, 3, ((#180, #181, #182, #183), (#184, #185, #186, #187), (#188, #189, #190, #191), (#192, #193, #194, #195), (#196, #197, #198, #199), (#200, #201, #202, #203)), .UNSPECIFIED., .T., .F., .U.)
   B_SPLINE_SURFACE_WITH_KNOTS ((6, 6), (4, 4), (0., 1.), (0., 1.), .UNSPECIFIED.)
   SURFACE ()
   GEOMETRIC_REPRESENTATION_ITEM ()
   RATIONAL_B_SPLINE_SURFACE (((5., 5., 5., 5.), (1., 1., 1., 1.), (1., 1., 1., 1.), (1., 1., 1., 1.), (1., 1., 1., 1.), (5., 5., 5., 5.)))
   REPRESENTATION_ITEM ('')
);
#205 = ADVANCED_FACE ('', (#179), #204, .T.);
#206 = CARTESIAN_POINT ('', (-43., 5., -1.22464679914735E-15));
#207 = CARTESIAN_POINT ('', (-43., 4.81666666666666, -1.17974308317861E-15));
#208 = CARTESIAN_POINT ('', (-43., 4.63333333333334, -1.13483936720988E-15));
#209 = CARTESIAN_POINT ('', (-43., 4.45, -1.08993565124114E-15));
#210 = B_SPLINE_CURVE_WITH_KNOTS ('', 3, (#206, #207, #208, #209), .UNSPECIFIED., .F., .U., (4, 4), (0., 1.), .UNSPECIFIED.);
#211 = EDGE_CURVE ('', #20, #149, #210, .T.);
#212 = ORIENTED_EDGE ('', *, *, #211, .F.);
#213 = ORIENTED_EDGE ('', *, *, #45, .T.);
#214 = ORIENTED_EDGE ('', *, *, #211, .T.);
#215 = ORIENTED_EDGE ('', *, *, #166, .F.);
#216 = EDGE_LOOP ('', (#212, #213, #214, #215));
#217 = FACE_OUTER_BOUND ('', #216, .T.);
#218 = CARTESIAN_POINT ('', (-43., 5., -1.22464679914735E-15));
#219 = CARTESIAN_POINT ('', (-43., 4.81666666666666, -1.17974308317861E-15));
#220 = CARTESIAN_POINT ('', (-43., 4.63333333333334, -1.13483936720988E-15));
#221 = CARTESIAN_POINT ('', (-43., 4.45, -1.08993565124114E-15));
#222 = CARTESIAN_POINT ('', (-43., 4.99999999999999, 20.));
#223 = CARTESIAN_POINT ('', (-43., 4.81666666666666, 19.2666666666666));
#224 = CARTESIAN_POINT ('', (-43., 4.63333333333333, 18.5333333333333));
#225 = CARTESIAN_POINT ('', (-43., 4.44999999999999, 17.8));
#226 = CARTESIAN_POINT ('', (-43., -15., 9.99999999999999));
#227 = CARTESIAN_POINT ('', (-43., -14.45, 9.63333333333332));
#228 = CARTESIAN_POINT ('', (-43., -13.9, 9.26666666666666));
#229 = CARTESIAN_POINT ('', (-43., -13.35, 8.89999999999999));
#230 = CARTESIAN_POINT ('', (-43., -15., -10.));
#231 = CARTESIAN_POINT ('', (-43., -14.45, -9.63333333333333));
#232 = CARTESIAN_POINT ('', (-43., -13.9, -9.26666666666667));
#233 = CARTESIAN_POINT ('', (-43., -13.35, -8.9));
#234 = CARTESIAN_POINT ('', (-43., 5., -20.));
#235 = CARTESIAN_POINT ('', (-43., 4.81666666666667, -19.2666666666666));
#236 = CARTESIAN_POINT ('', (-43., 4.63333333333334, -18.5333333333333));
#237 = CARTESIAN_POINT ('', (-43., 4.45000000000001, -17.8));
#238 = CARTESIAN_POINT ('', (-43., 5., -1.22464679914735E-15));
#239 = CARTESIAN_POINT ('', (-43., 4.81666666666666, -1.17974308317861E-15));
#240 = CARTESIAN_POINT ('', (-43., 4.63333333333334, -1.13483936720988E-15));
#241 = CARTESIAN_POINT ('', (-43., 4.45, -1.08993565124114E-15));
#242 = (
   BOUNDED_SURFACE ()
   B_SPLINE_SURFACE (5, 3, ((#218, #219, #220, #221), (#222, #223, #224, #225), (#226, #227, #228, #229), (#230, #231, #232, #233), (#234, #235, #236, #237), (#238, #239, #240, #241)), .UNSPECIFIED., .T., .F., .U.)
   B_SPLINE_SURFACE_WITH_KNOTS ((6, 6), (4, 4), (0., 1.), (0., 1.), .UNSPECIFIED.)
   SURFACE ()
   GEOMETRIC_REPRESENTATION_ITEM ()
   RATIONAL_B_SPLINE_SURFACE (((5., 5., 5., 5.), (1., 1., 1., 1.), (1., 1., 1., 1.), (1., 1., 1., 1.), (1., 1., 1., 1.), (5., 5., 5., 5.)))
   REPRESENTATION_ITEM ('')
);
#243 = ADVANCED_FACE ('', (#217), #242, .T.);
#244 = CARTESIAN_POINT ('', (0., 0., 0.));
#245 = VERTEX_POINT ('', #244);
#246 = CARTESIAN_POINT ('', (-1.53225787913901, 4.45, -1.08993565124114E-15));
#247 = CARTESIAN_POINT ('', (-1.02150525275934, 2.96666666666668, -7.26623767494099E-16));
#248 = CARTESIAN_POINT ('', (-0.51075262637967, 1.48333333333333, -3.63311883747048E-16));
#249 = CARTESIAN_POINT ('', (0., 0., 0.));
#250 = B_SPLINE_CURVE_WITH_KNOTS ('', 3, (#246, #247, #248, #249), .UNSPECIFIED., .F., .U., (4, 4), (0., 1.), .UNSPECIFIED.);
#251 = EDGE_CURVE ('', #151, #245, #250, .T.);
#252 = ORIENTED_EDGE ('', *, *, #251, .F.);
#253 = ORIENTED_EDGE ('', *, *, #176, .T.);
#254 = ORIENTED_EDGE ('', *, *, #251, .T.);
#255 = EDGE_LOOP ('', (#252, #253, #254));
#256 = FACE_OUTER_BOUND ('', #255, .T.);
#257 = CARTESIAN_POINT ('', (-1.53225787913901, 4.45, -1.08993565124114E-15));
#258 = CARTESIAN_POINT ('', (-1.02150525275934, 2.96666666666668, -7.26623767494099E-16));
#259 = CARTESIAN_POINT ('', (-0.51075262637967, 1.48333333333333, -3.63311883747048E-16));
#260 = CARTESIAN_POINT ('', (0., 0., 0.));
#261 = CARTESIAN_POINT ('', (-1.53225787913901, 4.45, 17.8));
#262 = CARTESIAN_POINT ('', (-1.02150525275934, 2.96666666666668, 11.8666666666667));
#263 = CARTESIAN_POINT ('', (-0.51075262637967, 1.48333333333333, 5.93333333333333));
#264 = CARTESIAN_POINT ('', (0., 0., 0.));
#265 = CARTESIAN_POINT ('', (-1.53225787913901, -13.35, 8.90000000000001));
#266 = CARTESIAN_POINT ('', (-1.02150525275934, -8.90000000000003, 5.93333333333336));
#267 = CARTESIAN_POINT ('', (-0.510752626379671, -4.45, 2.96666666666667));
#268 = CARTESIAN_POINT ('', (0., 0., 0.));
#269 = CARTESIAN_POINT ('', (-1.53225787913901, -13.35, -8.9));
#270 = CARTESIAN_POINT ('', (-1.02150525275934, -8.90000000000004, -5.93333333333335));
#271 = CARTESIAN_POINT ('', (-0.51075262637967, -4.45, -2.96666666666667));
#272 = CARTESIAN_POINT ('', (0., 0., 0.));
#273 = CARTESIAN_POINT ('', (-1.53225787913901, 4.45, -17.8));
#274 = CARTESIAN_POINT ('', (-1.02150525275934, 2.96666666666668, -11.8666666666667));
#275 = CARTESIAN_POINT ('', (-0.51075262637967, 1.48333333333333, -5.93333333333333));
#276 = CARTESIAN_POINT ('', (0., 0., 0.));
#277 = CARTESIAN_POINT ('', (-1.53225787913901, 4.45, -1.08993565124114E-15));
#278 = CARTESIAN_POINT ('', (-1.02150525275934, 2.96666666666668, -7.26623767494099E-16));
#279 = CARTESIAN_POINT ('', (-0.51075262637967, 1.48333333333333, -3.63311883747048E-16));
#280 = CARTESIAN_POINT ('', (0., 0., 0.));
#281 = (
   BOUNDED_SURFACE ()
   B_SPLINE_SURFACE (5, 3, ((#257, #258, #259, #260), (#261, #262, #263, #264), (#265, #266, #267, #268), (#269, #270, #271, #272), (#273, #274, #275, #276), (#277, #278, #279, #280)), .UNSPECIFIED., .T., .F., .U.)
   B_SPLINE_SURFACE_WITH_KNOTS ((6, 6), (4, 4), (0., 1.), (0., 1.), .UNSPECIFIED.)
   SURFACE ()
   GEOMETRIC_REPRESENTATION_ITEM ()
   RATIONAL_B_SPLINE_SURFACE (((5., 5., 5., 5.), (1., 1., 1., 1.), (1., 1., 1., 1.), (1., 1., 1., 1.), (1., 1., 1., 1.), (5., 5., 5., 5.)))
   REPRESENTATION_ITEM ('')
);
#282 = ADVANCED_FACE ('', (#256), #281, .T.);
#283 = CLOSED_SHELL ('', (#74, #109, #147, #205, #243, #282));
#284 = MANIFOLD_SOLID_BREP ('', #283);
#285 = (
   LENGTH_UNIT ()
   NAMED_UNIT (*)
   SI_UNIT (.MILLI., .METRE.)
);
#286 = (
   NAMED_UNIT (*)
   SI_UNIT ($, .STERADIAN.)
   SOLID_ANGLE_UNIT ()
);
#287 = (
   NAMED_UNIT (*)
   SI_UNIT ($, .RADIAN.)
   PLANE_ANGLE_UNIT ()
);
#288 = UNCERTAINTY_MEASURE_WITH_UNIT (LENGTH_MEASURE(0.001), #285, 'DISTANCE_ACCURACY_VALUE', '');
#289 = (
   GEOMETRIC_REPRESENTATION_CONTEXT (3)
   GLOBAL_UNCERTAINTY_ASSIGNED_CONTEXT ((#288))
   GLOBAL_UNIT_ASSIGNED_CONTEXT ((#285, #286, #287))
   REPRESENTATION_CONTEXT ('', '3D')
);
#290 = SHAPE_REPRESENTATION ('', (), #289);
#291 = APPLICATION_CONTEXT ('configuration controlled 3D designs of mechanical parts and assemblies');
#292 = APPLICATION_PROTOCOL_DEFINITION ('International Standard', 'config_control_design', 1997, #291);
#293 = MECHANICAL_CONTEXT ('', #291, 'mechanical');
#294 = PRODUCT ('', '', '', (#293));
#295 = PERSON_AND_ORGANIZATION_ROLE ('design_owner');
#296 = PERSON ('', '', $, $, $, $);
#297 = ORGANIZATION ($, '', '');
#298 = PERSON_AND_ORGANIZATION (#296, #297);
#299 = CC_DESIGN_PERSON_AND_ORGANIZATION_ASSIGNMENT (#298, #295, (#294));
#300 = PRODUCT_RELATED_PRODUCT_CATEGORY ('detail', $, (#294));
#301 = PRODUCT_DEFINITION_FORMATION_WITH_SPECIFIED_SOURCE ('', '', #294, .NOT_KNOWN.);
#302 = APPROVAL_STATUS ('approved');
#303 = APPROVAL (#302, '');
#304 = CALENDAR_DATE (2021, 14, 4);
#305 = COORDINATED_UNIVERSAL_TIME_OFFSET (0, $, .AHEAD.);
#306 = LOCAL_TIME (11, 28, 45., #305);
#307 = DATE_AND_TIME (#304, #306);
#308 = APPROVAL_DATE_TIME (#307, #303);
#309 = APPROVAL_ROLE ('');
#310 = PERSON ('', '', $, $, $, $);
#311 = ORGANIZATION ($, '', '');
#312 = PERSON_AND_ORGANIZATION (#310, #311);
#313 = APPROVAL_PERSON_ORGANIZATION (#312, #303, #309);
#314 = CC_DESIGN_APPROVAL (#303, (#301));
#315 = PERSON_AND_ORGANIZATION_ROLE ('creator');
#316 = PERSON ('', '', $, $, $, $);
#317 = ORGANIZATION ($, '', '');
#318 = PERSON_AND_ORGANIZATION (#316, #317);
#319 = CC_DESIGN_PERSON_AND_ORGANIZATION_ASSIGNMENT (#318, #315, (#301));
#320 = PERSON_AND_ORGANIZATION_ROLE ('part_supplier');
#321 = PERSON ('', '', $, $, $, $);
#322 = ORGANIZATION ($, '', '');
#323 = PERSON_AND_ORGANIZATION (#321, #322);
#324 = CC_DESIGN_PERSON_AND_ORGANIZATION_ASSIGNMENT (#323, #320, (#301));
#325 = SECURITY_CLASSIFICATION_LEVEL ('unclassified');
#326 = SECURITY_CLASSIFICATION ('', '', #325);
#327 = APPROVAL_STATUS ('approved');
#328 = APPROVAL (#327, '');
#329 = CALENDAR_DATE (2021, 14, 4);
#330 = COORDINATED_UNIVERSAL_TIME_OFFSET (0, $, .AHEAD.);
#331 = LOCAL_TIME (11, 28, 45., #330);
#332 = DATE_AND_TIME (#329, #331);
#333 = APPROVAL_DATE_TIME (#332, #328);
#334 = APPROVAL_ROLE ('');
#335 = PERSON ('', '', $, $, $, $);
#336 = ORGANIZATION ($, '', '');
#337 = PERSON_AND_ORGANIZATION (#335, #336);
#338 = APPROVAL_PERSON_ORGANIZATION (#337, #328, #334);
#339 = CC_DESIGN_APPROVAL (#328, (#326));
#340 = DATE_TIME_ROLE ('classification_date');
#341 = CALENDAR_DATE (2021, 14, 4);
#342 = COORDINATED_UNIVERSAL_TIME_OFFSET (0, $, .AHEAD.);
#343 = LOCAL_TIME (11, 28, 45., #342);
#344 = DATE_AND_TIME (#341, #343);
#345 = CC_DESIGN_DATE_AND_TIME_ASSIGNMENT (#344, #340, (#326));
#346 = PERSON_AND_ORGANIZATION_ROLE ('classification_officer');
#347 = PERSON ('', '', $, $, $, $);
#348 = ORGANIZATION ($, '', '');
#349 = PERSON_AND_ORGANIZATION (#347, #348);
#350 = CC_DESIGN_PERSON_AND_ORGANIZATION_ASSIGNMENT (#349, #346, (#326));
#351 = CC_DESIGN_SECURITY_CLASSIFICATION (#326, (#301));
#352 = DESIGN_CONTEXT ('', #291, 'design');
#353 = PRODUCT_DEFINITION ('', '', #301, #352);
#354 = APPROVAL_STATUS ('approved');
#355 = APPROVAL (#354, '');
#356 = CALENDAR_DATE (2021, 14, 4);
#357 = COORDINATED_UNIVERSAL_TIME_OFFSET (0, $, .AHEAD.);
#358 = LOCAL_TIME (11, 28, 45., #357);
#359 = DATE_AND_TIME (#356, #358);
#360 = APPROVAL_DATE_TIME (#359, #355);
#361 = APPROVAL_ROLE ('');
#362 = PERSON ('', '', $, $, $, $);
#363 = ORGANIZATION ($, '', '');
#364 = PERSON_AND_ORGANIZATION (#362, #363);
#365 = APPROVAL_PERSON_ORGANIZATION (#364, #355, #361);
#366 = CC_DESIGN_APPROVAL (#355, (#353));
#367 = DATE_TIME_ROLE ('creation_date');
#368 = CALENDAR_DATE (2021, 14, 4);
#369 = COORDINATED_UNIVERSAL_TIME_OFFSET (0, $, .AHEAD.);
#370 = LOCAL_TIME (11, 28, 45., #369);
#371 = DATE_AND_TIME (#368, #370);
#372 = CC_DESIGN_DATE_AND_TIME_ASSIGNMENT (#371, #367, (#353));
#373 = PERSON_AND_ORGANIZATION_ROLE ('creator');
#374 = PERSON ('', '', $, $, $, $);
#375 = ORGANIZATION ($, '', '');
#376 = PERSON_AND_ORGANIZATION (#374, #375);
#377 = CC_DESIGN_PERSON_AND_ORGANIZATION_ASSIGNMENT (#376, #373, (#353));
#378 = PRODUCT_DEFINITION_SHAPE ('', '', #353);
#379 = SHAPE_DEFINITION_REPRESENTATION (#378, #290);
#380 = SHAPE_REPRESENTATION_RELATIONSHIP ('', '', #290, #381);
#381 = GEOMETRICALLY_BOUNDED_WIREFRAME_SHAPE_REPRESENTATION ('', (#4), #289);
#382 = SHAPE_REPRESENTATION_RELATIONSHIP ('', '', #290, #383);
#383 = ADVANCED_BREP_SHAPE_REPRESENTATION ('', (#284), #289);
ENDSEC;
END-ISO-10303-21;
