ISO-10303-21;
HEADER;
FILE_DESCRIPTION ((), '1');
FILE_NAME ('D:\\Documents\\Mark Dainty\\2XDSS\\2XDSSM1160A.STP', '2021-04-14T14:36:07', ('Unknown'), ('M A Ford Europe'), 'OneCNC-XR8 Mill 3D Expert', 'OneCNC-XR8 Mill 3D Expert', '');
FILE_SCHEMA (('CONFIG_CONTROL_DESIGN'));
ENDSEC;

DATA;
#1 = CARTESIAN_POINT ('', (-51., 6., 0.));
#2 = CARTESIAN_POINT ('', (-51., 5.8, 0.));
#3 = B_SPLINE_CURVE_WITH_KNOTS ('', 1, (#1, #2), .UNSPECIFIED., .F., .U., (2, 2), (0., 1.), .UNSPECIFIED.);
#4 = GEOMETRIC_CURVE_SET ('', (#3, #7, #10, #13, #16));
#5 = CARTESIAN_POINT ('', (-1.99710015708006, 5.8, 0.));
#6 = CARTESIAN_POINT ('', (0., 0., 0.));
#7 = B_SPLINE_CURVE_WITH_KNOTS ('', 1, (#5, #6), .UNSPECIFIED., .F., .U., (2, 2), (0., 1.), .UNSPECIFIED.);
#8 = CARTESIAN_POINT ('', (-51., 5.8, 0.));
#9 = CARTESIAN_POINT ('', (-1.99710015708006, 5.8, 0.));
#10 = B_SPLINE_CURVE_WITH_KNOTS ('', 1, (#8, #9), .UNSPECIFIED., .F., .U., (2, 2), (0., 1.), .UNSPECIFIED.);
#11 = CARTESIAN_POINT ('', (-100.5, 6., 0.));
#12 = CARTESIAN_POINT ('', (-51., 6., 0.));
#13 = B_SPLINE_CURVE_WITH_KNOTS ('', 1, (#11, #12), .UNSPECIFIED., .F., .U., (2, 2), (0., 1.), .UNSPECIFIED.);
#14 = CARTESIAN_POINT ('', (-101., 5.5, 0.));
#15 = CARTESIAN_POINT ('', (-100.5, 6., 0.));
#16 = B_SPLINE_CURVE_WITH_KNOTS ('', 1, (#14, #15), .UNSPECIFIED., .F., .U., (2, 2), (0., 1.), .UNSPECIFIED.);
#17 = CARTESIAN_POINT ('', (-51., 5.8, -1.42059028701093E-15));
#18 = VERTEX_POINT ('', #17);
#19 = CARTESIAN_POINT ('', (-1.99710015708006, 5.8, -1.42059028701093E-15));
#20 = VERTEX_POINT ('', #19);
#21 = CARTESIAN_POINT ('', (-51., 5.8, -1.42059028701093E-15));
#22 = CARTESIAN_POINT ('', (-34.66570005236, 5.80000000000002, -1.42059028701093E-15));
#23 = CARTESIAN_POINT ('', (-18.33140010472, 5.80000000000002, -1.42059028701093E-15));
#24 = CARTESIAN_POINT ('', (-1.99710015708006, 5.8, -1.42059028701093E-15));
#25 = B_SPLINE_CURVE_WITH_KNOTS ('', 3, (#21, #22, #23, #24), .UNSPECIFIED., .F., .U., (4, 4), (0., 1.), .UNSPECIFIED.);
#26 = EDGE_CURVE ('', #18, #20, #25, .T.);
#27 = ORIENTED_EDGE ('', *, *, #26, .F.);
#28 = CARTESIAN_POINT ('', (-51., 5.8, -1.42059028701093E-15));
#29 = CARTESIAN_POINT ('', (-51., 5.79999999999999, 23.2));
#30 = CARTESIAN_POINT ('', (-51., -17.4, 11.6));
#31 = CARTESIAN_POINT ('', (-51., -17.4, -11.6));
#32 = CARTESIAN_POINT ('', (-51., 5.80000000000001, -23.2));
#33 = CARTESIAN_POINT ('', (-51., 5.8, -1.42059028701093E-15));
#34 = (
   BOUNDED_CURVE ()
   B_SPLINE_CURVE (5, (#28, #29, #30, #31, #32, #33), .UNSPECIFIED., .T., .U.)
   B_SPLINE_CURVE_WITH_KNOTS ((6, 6), (0., 1.), .UNSPECIFIED.)
   CURVE ()
   GEOMETRIC_REPRESENTATION_ITEM ()
   RATIONAL_B_SPLINE_CURVE ((5., 1., 1., 1., 1., 5.))
   REPRESENTATION_ITEM ('')
);
#35 = EDGE_CURVE ('', #18, #18, #34, .T.);
#36 = ORIENTED_EDGE ('', *, *, #35, .T.);
#37 = ORIENTED_EDGE ('', *, *, #26, .T.);
#38 = CARTESIAN_POINT ('', (-1.99710015708006, 5.8, -1.42059028701093E-15));
#39 = CARTESIAN_POINT ('', (-1.99710015708006, 5.80000000000001, 23.2));
#40 = CARTESIAN_POINT ('', (-1.99710015708006, -17.4, 11.6));
#41 = CARTESIAN_POINT ('', (-1.99710015708006, -17.4, -11.6));
#42 = CARTESIAN_POINT ('', (-1.99710015708005, 5.79999999999999, -23.2));
#43 = CARTESIAN_POINT ('', (-1.99710015708006, 5.8, -1.42059028701093E-15));
#44 = (
   BOUNDED_CURVE ()
   B_SPLINE_CURVE (5, (#38, #39, #40, #41, #42, #43), .UNSPECIFIED., .T., .U.)
   B_SPLINE_CURVE_WITH_KNOTS ((6, 6), (0., 1.), .UNSPECIFIED.)
   CURVE ()
   GEOMETRIC_REPRESENTATION_ITEM ()
   RATIONAL_B_SPLINE_CURVE ((5., 1., 1., 1., 1., 5.))
   REPRESENTATION_ITEM ('')
);
#45 = EDGE_CURVE ('', #20, #20, #44, .T.);
#46 = ORIENTED_EDGE ('', *, *, #45, .F.);
#47 = EDGE_LOOP ('', (#27, #36, #37, #46));
#48 = FACE_OUTER_BOUND ('', #47, .T.);
#49 = CARTESIAN_POINT ('', (-51., 5.8, -1.42059028701093E-15));
#50 = CARTESIAN_POINT ('', (-34.66570005236, 5.80000000000002, -1.42059028701093E-15));
#51 = CARTESIAN_POINT ('', (-18.33140010472, 5.80000000000002, -1.42059028701093E-15));
#52 = CARTESIAN_POINT ('', (-1.99710015708006, 5.8, -1.42059028701093E-15));
#53 = CARTESIAN_POINT ('', (-51., 5.79999999999999, 23.2));
#54 = CARTESIAN_POINT ('', (-34.66570005236, 5.80000000000001, 23.2000000000001));
#55 = CARTESIAN_POINT ('', (-18.33140010472, 5.80000000000002, 23.2000000000001));
#56 = CARTESIAN_POINT ('', (-1.99710015708006, 5.80000000000001, 23.2));
#57 = CARTESIAN_POINT ('', (-51., -17.4, 11.6));
#58 = CARTESIAN_POINT ('', (-34.66570005236, -17.4, 11.6));
#59 = CARTESIAN_POINT ('', (-18.33140010472, -17.4000000000001, 11.6));
#60 = CARTESIAN_POINT ('', (-1.99710015708006, -17.4, 11.6));
#61 = CARTESIAN_POINT ('', (-51., -17.4, -11.6));
#62 = CARTESIAN_POINT ('', (-34.66570005236, -17.4, -11.6));
#63 = CARTESIAN_POINT ('', (-18.33140010472, -17.4000000000001, -11.6));
#64 = CARTESIAN_POINT ('', (-1.99710015708006, -17.4, -11.6));
#65 = CARTESIAN_POINT ('', (-51., 5.80000000000001, -23.2));
#66 = CARTESIAN_POINT ('', (-34.66570005236, 5.80000000000002, -23.2000000000001));
#67 = CARTESIAN_POINT ('', (-18.33140010472, 5.80000000000002, -23.2000000000001));
#68 = CARTESIAN_POINT ('', (-1.99710015708005, 5.79999999999999, -23.2));
#69 = CARTESIAN_POINT ('', (-51., 5.8, -1.42059028701093E-15));
#70 = CARTESIAN_POINT ('', (-34.66570005236, 5.80000000000002, -1.42059028701093E-15));
#71 = CARTESIAN_POINT ('', (-18.33140010472, 5.80000000000002, -1.42059028701093E-15));
#72 = CARTESIAN_POINT ('', (-1.99710015708006, 5.8, -1.42059028701093E-15));
#73 = (
   BOUNDED_SURFACE ()
   B_SPLINE_SURFACE (5, 3, ((#49, #50, #51, #52), (#53, #54, #55, #56), (#57, #58, #59, #60), (#61, #62, #63, #64), (#65, #66, #67, #68), (#69, #70, #71, #72)), .UNSPECIFIED., .T., .F., .U.)
   B_SPLINE_SURFACE_WITH_KNOTS ((6, 6), (4, 4), (0., 1.), (0., 1.), .UNSPECIFIED.)
   SURFACE ()
   GEOMETRIC_REPRESENTATION_ITEM ()
   RATIONAL_B_SPLINE_SURFACE (((5., 5., 5., 5.), (1., 1., 1., 1.), (1., 1., 1., 1.), (1., 1., 1., 1.), (1., 1., 1., 1.), (5., 5., 5., 5.)))
   REPRESENTATION_ITEM ('')
);
#74 = ADVANCED_FACE ('', (#48), #73, .T.);
#75 = CARTESIAN_POINT ('', (-51., 6., -1.46957615897682E-15));
#76 = VERTEX_POINT ('', #75);
#77 = CARTESIAN_POINT ('', (-51., 6., -1.46957615897682E-15));
#78 = CARTESIAN_POINT ('', (-50.9999999999998, 5.93333333333336, -1.4532475349882E-15));
#79 = CARTESIAN_POINT ('', (-51., 5.86666666666666, -1.43691891099956E-15));
#80 = CARTESIAN_POINT ('', (-51., 5.8, -1.42059028701093E-15));
#81 = B_SPLINE_CURVE_WITH_KNOTS ('', 3, (#77, #78, #79, #80), .UNSPECIFIED., .F., .U., (4, 4), (0., 1.), .UNSPECIFIED.);
#82 = EDGE_CURVE ('', #76, #18, #81, .T.);
#83 = ORIENTED_EDGE ('', *, *, #82, .F.);
#84 = CARTESIAN_POINT ('', (-51., 6., -1.46957615897682E-15));
#85 = CARTESIAN_POINT ('', (-51., 5.99999999999999, 24.));
#86 = CARTESIAN_POINT ('', (-51., -18., 12.));
#87 = CARTESIAN_POINT ('', (-51., -18., -12.));
#88 = CARTESIAN_POINT ('', (-51., 6.00000000000001, -24.));
#89 = CARTESIAN_POINT ('', (-51., 6., -1.46957615897682E-15));
#90 = (
   BOUNDED_CURVE ()
   B_SPLINE_CURVE (5, (#84, #85, #86, #87, #88, #89), .UNSPECIFIED., .T., .U.)
   B_SPLINE_CURVE_WITH_KNOTS ((6, 6), (0., 1.), .UNSPECIFIED.)
   CURVE ()
   GEOMETRIC_REPRESENTATION_ITEM ()
   RATIONAL_B_SPLINE_CURVE ((5., 1., 1., 1., 1., 5.))
   REPRESENTATION_ITEM ('')
);
#91 = EDGE_CURVE ('', #76, #76, #90, .T.);
#92 = ORIENTED_EDGE ('', *, *, #91, .T.);
#93 = ORIENTED_EDGE ('', *, *, #82, .T.);
#94 = ORIENTED_EDGE ('', *, *, #35, .F.);
#95 = EDGE_LOOP ('', (#83, #92, #93, #94));
#96 = FACE_OUTER_BOUND ('', #95, .T.);
#97 = CARTESIAN_POINT ('', (-51., 6., -1.46957615897682E-15));
#98 = CARTESIAN_POINT ('', (-50.9999999999998, 5.93333333333336, -1.4532475349882E-15));
#99 = CARTESIAN_POINT ('', (-51., 5.86666666666666, -1.43691891099956E-15));
#100 = CARTESIAN_POINT ('', (-51., 5.8, -1.42059028701093E-15));
#101 = CARTESIAN_POINT ('', (-51., 5.99999999999999, 24.));
#102 = CARTESIAN_POINT ('', (-50.9999999999998, 5.93333333333335, 23.7333333333334));
#103 = CARTESIAN_POINT ('', (-51., 5.86666666666665, 23.4666666666666));
#104 = CARTESIAN_POINT ('', (-51., 5.79999999999999, 23.2));
#105 = CARTESIAN_POINT ('', (-51., -18., 12.));
#106 = CARTESIAN_POINT ('', (-50.9999999999998, -17.8000000000001, 11.8666666666667));
#107 = CARTESIAN_POINT ('', (-51., -17.6, 11.7333333333333));
#108 = CARTESIAN_POINT ('', (-51., -17.4, 11.6));
#109 = CARTESIAN_POINT ('', (-51., -18., -12.));
#110 = CARTESIAN_POINT ('', (-50.9999999999998, -17.8000000000001, -11.8666666666667));
#111 = CARTESIAN_POINT ('', (-51., -17.6, -11.7333333333333));
#112 = CARTESIAN_POINT ('', (-51., -17.4, -11.6));
#113 = CARTESIAN_POINT ('', (-51., 6.00000000000001, -24.));
#114 = CARTESIAN_POINT ('', (-50.9999999999998, 5.93333333333336, -23.7333333333334));
#115 = CARTESIAN_POINT ('', (-51., 5.86666666666667, -23.4666666666666));
#116 = CARTESIAN_POINT ('', (-51., 5.80000000000001, -23.2));
#117 = CARTESIAN_POINT ('', (-51., 6., -1.46957615897682E-15));
#118 = CARTESIAN_POINT ('', (-50.9999999999998, 5.93333333333336, -1.4532475349882E-15));
#119 = CARTESIAN_POINT ('', (-51., 5.86666666666666, -1.43691891099956E-15));
#120 = CARTESIAN_POINT ('', (-51., 5.8, -1.42059028701093E-15));
#121 = (
   BOUNDED_SURFACE ()
   B_SPLINE_SURFACE (5, 3, ((#97, #98, #99, #100), (#101, #102, #103, #104), (#105, #106, #107, #108), (#109, #110, #111, #112), (#113, #114, #115, #116), (#117, #118, #119, #120)), .UNSPECIFIED., .T., .F., .U.)
   B_SPLINE_SURFACE_WITH_KNOTS ((6, 6), (4, 4), (0., 1.), (0., 1.), .UNSPECIFIED.)
   SURFACE ()
   GEOMETRIC_REPRESENTATION_ITEM ()
   RATIONAL_B_SPLINE_SURFACE (((5., 5., 5., 5.), (1., 1., 1., 1.), (1., 1., 1., 1.), (1., 1., 1., 1.), (1., 1., 1., 1.), (5., 5., 5., 5.)))
   REPRESENTATION_ITEM ('')
);
#122 = ADVANCED_FACE ('', (#96), #121, .T.);
#123 = CARTESIAN_POINT ('', (-100.5, 6., -1.46957615897682E-15));
#124 = VERTEX_POINT ('', #123);
#125 = CARTESIAN_POINT ('', (-100.5, 6., -1.46957615897682E-15));
#126 = CARTESIAN_POINT ('', (-84., 6., -1.46957615897682E-15));
#127 = CARTESIAN_POINT ('', (-67.5, 6., -1.46957615897682E-15));
#128 = CARTESIAN_POINT ('', (-51., 6., -1.46957615897682E-15));
#129 = B_SPLINE_CURVE_WITH_KNOTS ('', 3, (#125, #126, #127, #128), .UNSPECIFIED., .F., .U., (4, 4), (0., 1.), .UNSPECIFIED.);
#130 = EDGE_CURVE ('', #124, #76, #129, .T.);
#131 = ORIENTED_EDGE ('', *, *, #130, .F.);
#132 = CARTESIAN_POINT ('', (-100.5, 6., -1.46957615897682E-15));
#133 = CARTESIAN_POINT ('', (-100.5, 5.99999999999998, 24.));
#134 = CARTESIAN_POINT ('', (-100.5, -18., 12.));
#135 = CARTESIAN_POINT ('', (-100.5, -18., -12.));
#136 = CARTESIAN_POINT ('', (-100.5, 6.00000000000002, -24.));
#137 = CARTESIAN_POINT ('', (-100.5, 6., -1.46957615897682E-15));
#138 = (
   BOUNDED_CURVE ()
   B_SPLINE_CURVE (5, (#132, #133, #134, #135, #136, #137), .UNSPECIFIED., .T., .U.)
   B_SPLINE_CURVE_WITH_KNOTS ((6, 6), (0., 1.), .UNSPECIFIED.)
   CURVE ()
   GEOMETRIC_REPRESENTATION_ITEM ()
   RATIONAL_B_SPLINE_CURVE ((5., 1., 1., 1., 1., 5.))
   REPRESENTATION_ITEM ('')
);
#139 = EDGE_CURVE ('', #124, #124, #138, .T.);
#140 = ORIENTED_EDGE ('', *, *, #139, .T.);
#141 = ORIENTED_EDGE ('', *, *, #130, .T.);
#142 = ORIENTED_EDGE ('', *, *, #91, .F.);
#143 = EDGE_LOOP ('', (#131, #140, #141, #142));
#144 = FACE_OUTER_BOUND ('', #143, .T.);
#145 = CARTESIAN_POINT ('', (-100.5, 6., -1.46957615897682E-15));
#146 = CARTESIAN_POINT ('', (-84., 6., -1.46957615897682E-15));
#147 = CARTESIAN_POINT ('', (-67.5, 6., -1.46957615897682E-15));
#148 = CARTESIAN_POINT ('', (-51., 6., -1.46957615897682E-15));
#149 = CARTESIAN_POINT ('', (-100.5, 5.99999999999998, 24.));
#150 = CARTESIAN_POINT ('', (-84., 5.99999999999998, 24.));
#151 = CARTESIAN_POINT ('', (-67.5, 5.99999999999999, 24.));
#152 = CARTESIAN_POINT ('', (-51., 5.99999999999999, 24.));
#153 = CARTESIAN_POINT ('', (-100.5, -18., 12.));
#154 = CARTESIAN_POINT ('', (-84., -18., 12.));
#155 = CARTESIAN_POINT ('', (-67.5, -18., 12.));
#156 = CARTESIAN_POINT ('', (-51., -18., 12.));
#157 = CARTESIAN_POINT ('', (-100.5, -18., -12.));
#158 = CARTESIAN_POINT ('', (-84., -18., -12.));
#159 = CARTESIAN_POINT ('', (-67.5, -18., -12.));
#160 = CARTESIAN_POINT ('', (-51., -18., -12.));
#161 = CARTESIAN_POINT ('', (-100.5, 6.00000000000002, -24.));
#162 = CARTESIAN_POINT ('', (-84., 6.00000000000002, -24.));
#163 = CARTESIAN_POINT ('', (-67.5, 6.00000000000001, -24.));
#164 = CARTESIAN_POINT ('', (-51., 6.00000000000001, -24.));
#165 = CARTESIAN_POINT ('', (-100.5, 6., -1.46957615897682E-15));
#166 = CARTESIAN_POINT ('', (-84., 6., -1.46957615897682E-15));
#167 = CARTESIAN_POINT ('', (-67.5, 6., -1.46957615897682E-15));
#168 = CARTESIAN_POINT ('', (-51., 6., -1.46957615897682E-15));
#169 = (
   BOUNDED_SURFACE ()
   B_SPLINE_SURFACE (5, 3, ((#145, #146, #147, #148), (#149, #150, #151, #152), (#153, #154, #155, #156), (#157, #158, #159, #160), (#161, #162, #163, #164), (#165, #166, #167, #168)), .UNSPECIFIED., .T., .F., .U.)
   B_SPLINE_SURFACE_WITH_KNOTS ((6, 6), (4, 4), (0., 1.), (0., 1.), .UNSPECIFIED.)
   SURFACE ()
   GEOMETRIC_REPRESENTATION_ITEM ()
   RATIONAL_B_SPLINE_SURFACE (((5., 5., 5., 5.), (1., 1., 1., 1.), (1., 1., 1., 1.), (1., 1., 1., 1.), (1., 1., 1., 1.), (5., 5., 5., 5.)))
   REPRESENTATION_ITEM ('')
);
#170 = ADVANCED_FACE ('', (#144), #169, .T.);
#171 = CARTESIAN_POINT ('', (-101., 5.5, -1.34711147906209E-15));
#172 = VERTEX_POINT ('', #171);
#173 = CARTESIAN_POINT ('', (-101., 5.5, -1.34711147906209E-15));
#174 = CARTESIAN_POINT ('', (-100.833333333333, 5.66666666666666, -1.38793303903366E-15));
#175 = CARTESIAN_POINT ('', (-100.666666666667, 5.83333333333333, -1.42875459900524E-15));
#176 = CARTESIAN_POINT ('', (-100.5, 6., -1.46957615897682E-15));
#177 = B_SPLINE_CURVE_WITH_KNOTS ('', 3, (#173, #174, #175, #176), .UNSPECIFIED., .F., .U., (4, 4), (0., 1.), .UNSPECIFIED.);
#178 = EDGE_CURVE ('', #172, #124, #177, .T.);
#179 = ORIENTED_EDGE ('', *, *, #178, .F.);
#180 = CARTESIAN_POINT ('', (-101., 5.5, -1.34711147906209E-15));
#181 = CARTESIAN_POINT ('', (-101., 5.49999999999998, 22.));
#182 = CARTESIAN_POINT ('', (-101., -16.5, 11.));
#183 = CARTESIAN_POINT ('', (-101., -16.5, -11.));
#184 = CARTESIAN_POINT ('', (-101., 5.50000000000002, -22.));
#185 = CARTESIAN_POINT ('', (-101., 5.5, -1.34711147906209E-15));
#186 = (
   BOUNDED_CURVE ()
   B_SPLINE_CURVE (5, (#180, #181, #182, #183, #184, #185), .UNSPECIFIED., .T., .U.)
   B_SPLINE_CURVE_WITH_KNOTS ((6, 6), (0., 1.), .UNSPECIFIED.)
   CURVE ()
   GEOMETRIC_REPRESENTATION_ITEM ()
   RATIONAL_B_SPLINE_CURVE ((5., 1., 1., 1., 1., 5.))
   REPRESENTATION_ITEM ('')
);
#187 = EDGE_CURVE ('', #172, #172, #186, .T.);
#188 = ORIENTED_EDGE ('', *, *, #187, .T.);
#189 = ORIENTED_EDGE ('', *, *, #178, .T.);
#190 = ORIENTED_EDGE ('', *, *, #139, .F.);
#191 = EDGE_LOOP ('', (#179, #188, #189, #190));
#192 = FACE_OUTER_BOUND ('', #191, .T.);
#193 = CARTESIAN_POINT ('', (-101., 5.5, -1.34711147906209E-15));
#194 = CARTESIAN_POINT ('', (-100.833333333333, 5.66666666666666, -1.38793303903366E-15));
#195 = CARTESIAN_POINT ('', (-100.666666666667, 5.83333333333333, -1.42875459900524E-15));
#196 = CARTESIAN_POINT ('', (-100.5, 6., -1.46957615897682E-15));
#197 = CARTESIAN_POINT ('', (-101., 5.49999999999998, 22.));
#198 = CARTESIAN_POINT ('', (-100.833333333333, 5.66666666666664, 22.6666666666666));
#199 = CARTESIAN_POINT ('', (-100.666666666667, 5.83333333333331, 23.3333333333333));
#200 = CARTESIAN_POINT ('', (-100.5, 5.99999999999998, 24.));
#201 = CARTESIAN_POINT ('', (-101., -16.5, 11.));
#202 = CARTESIAN_POINT ('', (-100.833333333333, -17., 11.3333333333333));
#203 = CARTESIAN_POINT ('', (-100.666666666667, -17.5, 11.6666666666666));
#204 = CARTESIAN_POINT ('', (-100.5, -18., 12.));
#205 = CARTESIAN_POINT ('', (-101., -16.5, -11.));
#206 = CARTESIAN_POINT ('', (-100.833333333333, -16.9999999999999, -11.3333333333333));
#207 = CARTESIAN_POINT ('', (-100.666666666667, -17.5, -11.6666666666667));
#208 = CARTESIAN_POINT ('', (-100.5, -18., -12.));
#209 = CARTESIAN_POINT ('', (-101., 5.50000000000002, -22.));
#210 = CARTESIAN_POINT ('', (-100.833333333333, 5.66666666666668, -22.6666666666666));
#211 = CARTESIAN_POINT ('', (-100.666666666667, 5.83333333333335, -23.3333333333333));
#212 = CARTESIAN_POINT ('', (-100.5, 6.00000000000002, -24.));
#213 = CARTESIAN_POINT ('', (-101., 5.5, -1.34711147906209E-15));
#214 = CARTESIAN_POINT ('', (-100.833333333333, 5.66666666666666, -1.38793303903366E-15));
#215 = CARTESIAN_POINT ('', (-100.666666666667, 5.83333333333333, -1.42875459900524E-15));
#216 = CARTESIAN_POINT ('', (-100.5, 6., -1.46957615897682E-15));
#217 = (
   BOUNDED_SURFACE ()
   B_SPLINE_SURFACE (5, 3, ((#193, #194, #195, #196), (#197, #198, #199, #200), (#201, #202, #203, #204), (#205, #206, #207, #208), (#209, #210, #211, #212), (#213, #214, #215, #216)), .UNSPECIFIED., .T., .F., .U.)
   B_SPLINE_SURFACE_WITH_KNOTS ((6, 6), (4, 4), (0., 1.), (0., 1.), .UNSPECIFIED.)
   SURFACE ()
   GEOMETRIC_REPRESENTATION_ITEM ()
   RATIONAL_B_SPLINE_SURFACE (((5., 5., 5., 5.), (1., 1., 1., 1.), (1., 1., 1., 1.), (1., 1., 1., 1.), (1., 1., 1., 1.), (5., 5., 5., 5.)))
   REPRESENTATION_ITEM ('')
);
#218 = ADVANCED_FACE ('', (#192), #217, .T.);
#219 = CARTESIAN_POINT ('', (-101., 6.18446633569413E-15, -6.18446633569413E-15));
#220 = VERTEX_POINT ('', #219);
#221 = CARTESIAN_POINT ('', (-101., 6.18446633569413E-15, -6.18446633569413E-15));
#222 = CARTESIAN_POINT ('', (-101., 5.5, -1.34711147906209E-15));
#223 = B_SPLINE_CURVE_WITH_KNOTS ('', 1, (#221, #222), .UNSPECIFIED., .F., .U., (2, 2), (0., 1.), .UNSPECIFIED.);
#224 = EDGE_CURVE ('', #220, #172, #223, .T.);
#225 = ORIENTED_EDGE ('', *, *, #224, .F.);
#226 = ORIENTED_EDGE ('', *, *, #224, .T.);
#227 = ORIENTED_EDGE ('', *, *, #187, .F.);
#228 = EDGE_LOOP ('', (#225, #226, #227));
#229 = FACE_OUTER_BOUND ('', #228, .T.);
#230 = CARTESIAN_POINT ('', (-101., 6.18446633569413E-15, -6.18446633569413E-15));
#231 = CARTESIAN_POINT ('', (-101., 5.5, -1.34711147906209E-15));
#232 = CARTESIAN_POINT ('', (-101., 6.18446633569413E-15, -6.18446633569413E-15));
#233 = CARTESIAN_POINT ('', (-101., 5.49999999999998, 22.));
#234 = CARTESIAN_POINT ('', (-101., 6.18446633569413E-15, -6.18446633569413E-15));
#235 = CARTESIAN_POINT ('', (-101., -16.5, 11.));
#236 = CARTESIAN_POINT ('', (-101., 6.18446633569413E-15, -6.18446633569413E-15));
#237 = CARTESIAN_POINT ('', (-101., -16.5, -11.));
#238 = CARTESIAN_POINT ('', (-101., 6.18446633569413E-15, -6.18446633569413E-15));
#239 = CARTESIAN_POINT ('', (-101., 5.50000000000002, -22.));
#240 = CARTESIAN_POINT ('', (-101., 6.18446633569413E-15, -6.18446633569413E-15));
#241 = CARTESIAN_POINT ('', (-101., 5.5, -1.34711147906209E-15));
#242 = (
   BOUNDED_SURFACE ()
   B_SPLINE_SURFACE (5, 1, ((#230, #231), (#232, #233), (#234, #235), (#236, #237), (#238, #239), (#240, #241)), .UNSPECIFIED., .T., .F., .U.)
   B_SPLINE_SURFACE_WITH_KNOTS ((6, 6), (2, 2), (0., 1.), (0., 1.), .UNSPECIFIED.)
   SURFACE ()
   GEOMETRIC_REPRESENTATION_ITEM ()
   RATIONAL_B_SPLINE_SURFACE (((5., 5.), (1., 1.), (1., 1.), (1., 1.), (1., 1.), (5., 5.)))
   REPRESENTATION_ITEM ('')
);
#243 = ADVANCED_FACE ('', (#229), #242, .T.);
#244 = CARTESIAN_POINT ('', (0., 0., 0.));
#245 = VERTEX_POINT ('', #244);
#246 = CARTESIAN_POINT ('', (-1.99710015708006, 5.8, -1.42059028701093E-15));
#247 = CARTESIAN_POINT ('', (-1.33140010472004, 3.86666666666666, -9.47060191340619E-16));
#248 = CARTESIAN_POINT ('', (-0.665700052360019, 1.93333333333333, -4.7353009567031E-16));
#249 = CARTESIAN_POINT ('', (0., 0., 0.));
#250 = B_SPLINE_CURVE_WITH_KNOTS ('', 3, (#246, #247, #248, #249), .UNSPECIFIED., .F., .U., (4, 4), (0., 1.), .UNSPECIFIED.);
#251 = EDGE_CURVE ('', #20, #245, #250, .T.);
#252 = ORIENTED_EDGE ('', *, *, #251, .F.);
#253 = ORIENTED_EDGE ('', *, *, #45, .T.);
#254 = ORIENTED_EDGE ('', *, *, #251, .T.);
#255 = EDGE_LOOP ('', (#252, #253, #254));
#256 = FACE_OUTER_BOUND ('', #255, .T.);
#257 = CARTESIAN_POINT ('', (-1.99710015708006, 5.8, -1.42059028701093E-15));
#258 = CARTESIAN_POINT ('', (-1.33140010472004, 3.86666666666666, -9.47060191340619E-16));
#259 = CARTESIAN_POINT ('', (-0.665700052360019, 1.93333333333333, -4.7353009567031E-16));
#260 = CARTESIAN_POINT ('', (0., 0., 0.));
#261 = CARTESIAN_POINT ('', (-1.99710015708006, 5.8, 23.2));
#262 = CARTESIAN_POINT ('', (-1.33140010472004, 3.86666666666667, 15.4666666666667));
#263 = CARTESIAN_POINT ('', (-0.66570005236002, 1.93333333333333, 7.73333333333333));
#264 = CARTESIAN_POINT ('', (0., 0., 0.));
#265 = CARTESIAN_POINT ('', (-1.99710015708006, -17.4, 11.6));
#266 = CARTESIAN_POINT ('', (-1.33140010472004, -11.6, 7.73333333333333));
#267 = CARTESIAN_POINT ('', (-0.66570005236002, -5.8, 3.86666666666667));
#268 = CARTESIAN_POINT ('', (0., 0., 0.));
#269 = CARTESIAN_POINT ('', (-1.99710015708006, -17.4, -11.6));
#270 = CARTESIAN_POINT ('', (-1.33140010472004, -11.6, -7.73333333333332));
#271 = CARTESIAN_POINT ('', (-0.66570005236002, -5.8, -3.86666666666666));
#272 = CARTESIAN_POINT ('', (0., 0., 0.));
#273 = CARTESIAN_POINT ('', (-1.99710015708006, 5.79999999999999, -23.2));
#274 = CARTESIAN_POINT ('', (-1.33140010472004, 3.86666666666666, -15.4666666666667));
#275 = CARTESIAN_POINT ('', (-0.665700052360019, 1.93333333333333, -7.73333333333333));
#276 = CARTESIAN_POINT ('', (0., 0., 0.));
#277 = CARTESIAN_POINT ('', (-1.99710015708006, 5.8, -1.42059028701093E-15));
#278 = CARTESIAN_POINT ('', (-1.33140010472004, 3.86666666666666, -9.47060191340619E-16));
#279 = CARTESIAN_POINT ('', (-0.665700052360019, 1.93333333333333, -4.7353009567031E-16));
#280 = CARTESIAN_POINT ('', (0., 0., 0.));
#281 = (
   BOUNDED_SURFACE ()
   B_SPLINE_SURFACE (5, 3, ((#257, #258, #259, #260), (#261, #262, #263, #264), (#265, #266, #267, #268), (#269, #270, #271, #272), (#273, #274, #275, #276), (#277, #278, #279, #280)), .UNSPECIFIED., .T., .F., .U.)
   B_SPLINE_SURFACE_WITH_KNOTS ((6, 6), (4, 4), (0., 1.), (0., 1.), .UNSPECIFIED.)
   SURFACE ()
   GEOMETRIC_REPRESENTATION_ITEM ()
   RATIONAL_B_SPLINE_SURFACE (((5., 5., 5., 5.), (1., 1., 1., 1.), (1., 1., 1., 1.), (1., 1., 1., 1.), (1., 1., 1., 1.), (5., 5., 5., 5.)))
   REPRESENTATION_ITEM ('')
);
#282 = ADVANCED_FACE ('', (#256), #281, .T.);
#283 = CLOSED_SHELL ('', (#74, #122, #170, #218, #243, #282));
#284 = MANIFOLD_SOLID_BREP ('', #283);
#285 = (
   LENGTH_UNIT ()
   NAMED_UNIT (*)
   SI_UNIT (.MILLI., .METRE.)
);
#286 = (
   NAMED_UNIT (*)
   SI_UNIT ($, .STERADIAN.)
   SOLID_ANGLE_UNIT ()
);
#287 = (
   NAMED_UNIT (*)
   SI_UNIT ($, .RADIAN.)
   PLANE_ANGLE_UNIT ()
);
#288 = UNCERTAINTY_MEASURE_WITH_UNIT (LENGTH_MEASURE(0.001), #285, 'DISTANCE_ACCURACY_VALUE', '');
#289 = (
   GEOMETRIC_REPRESENTATION_CONTEXT (3)
   GLOBAL_UNCERTAINTY_ASSIGNED_CONTEXT ((#288))
   GLOBAL_UNIT_ASSIGNED_CONTEXT ((#285, #286, #287))
   REPRESENTATION_CONTEXT ('', '3D')
);
#290 = SHAPE_REPRESENTATION ('', (), #289);
#291 = APPLICATION_CONTEXT ('configuration controlled 3D designs of mechanical parts and assemblies');
#292 = APPLICATION_PROTOCOL_DEFINITION ('International Standard', 'config_control_design', 1997, #291);
#293 = MECHANICAL_CONTEXT ('', #291, 'mechanical');
#294 = PRODUCT ('', '', '', (#293));
#295 = PERSON_AND_ORGANIZATION_ROLE ('design_owner');
#296 = PERSON ('', '', $, $, $, $);
#297 = ORGANIZATION ($, '', '');
#298 = PERSON_AND_ORGANIZATION (#296, #297);
#299 = CC_DESIGN_PERSON_AND_ORGANIZATION_ASSIGNMENT (#298, #295, (#294));
#300 = PRODUCT_RELATED_PRODUCT_CATEGORY ('detail', $, (#294));
#301 = PRODUCT_DEFINITION_FORMATION_WITH_SPECIFIED_SOURCE ('', '', #294, .NOT_KNOWN.);
#302 = APPROVAL_STATUS ('approved');
#303 = APPROVAL (#302, '');
#304 = CALENDAR_DATE (2021, 14, 4);
#305 = COORDINATED_UNIVERSAL_TIME_OFFSET (0, $, .AHEAD.);
#306 = LOCAL_TIME (14, 36, 7., #305);
#307 = DATE_AND_TIME (#304, #306);
#308 = APPROVAL_DATE_TIME (#307, #303);
#309 = APPROVAL_ROLE ('');
#310 = PERSON ('', '', $, $, $, $);
#311 = ORGANIZATION ($, '', '');
#312 = PERSON_AND_ORGANIZATION (#310, #311);
#313 = APPROVAL_PERSON_ORGANIZATION (#312, #303, #309);
#314 = CC_DESIGN_APPROVAL (#303, (#301));
#315 = PERSON_AND_ORGANIZATION_ROLE ('creator');
#316 = PERSON ('', '', $, $, $, $);
#317 = ORGANIZATION ($, '', '');
#318 = PERSON_AND_ORGANIZATION (#316, #317);
#319 = CC_DESIGN_PERSON_AND_ORGANIZATION_ASSIGNMENT (#318, #315, (#301));
#320 = PERSON_AND_ORGANIZATION_ROLE ('part_supplier');
#321 = PERSON ('', '', $, $, $, $);
#322 = ORGANIZATION ($, '', '');
#323 = PERSON_AND_ORGANIZATION (#321, #322);
#324 = CC_DESIGN_PERSON_AND_ORGANIZATION_ASSIGNMENT (#323, #320, (#301));
#325 = SECURITY_CLASSIFICATION_LEVEL ('unclassified');
#326 = SECURITY_CLASSIFICATION ('', '', #325);
#327 = APPROVAL_STATUS ('approved');
#328 = APPROVAL (#327, '');
#329 = CALENDAR_DATE (2021, 14, 4);
#330 = COORDINATED_UNIVERSAL_TIME_OFFSET (0, $, .AHEAD.);
#331 = LOCAL_TIME (14, 36, 7., #330);
#332 = DATE_AND_TIME (#329, #331);
#333 = APPROVAL_DATE_TIME (#332, #328);
#334 = APPROVAL_ROLE ('');
#335 = PERSON ('', '', $, $, $, $);
#336 = ORGANIZATION ($, '', '');
#337 = PERSON_AND_ORGANIZATION (#335, #336);
#338 = APPROVAL_PERSON_ORGANIZATION (#337, #328, #334);
#339 = CC_DESIGN_APPROVAL (#328, (#326));
#340 = DATE_TIME_ROLE ('classification_date');
#341 = CALENDAR_DATE (2021, 14, 4);
#342 = COORDINATED_UNIVERSAL_TIME_OFFSET (0, $, .AHEAD.);
#343 = LOCAL_TIME (14, 36, 7., #342);
#344 = DATE_AND_TIME (#341, #343);
#345 = CC_DESIGN_DATE_AND_TIME_ASSIGNMENT (#344, #340, (#326));
#346 = PERSON_AND_ORGANIZATION_ROLE ('classification_officer');
#347 = PERSON ('', '', $, $, $, $);
#348 = ORGANIZATION ($, '', '');
#349 = PERSON_AND_ORGANIZATION (#347, #348);
#350 = CC_DESIGN_PERSON_AND_ORGANIZATION_ASSIGNMENT (#349, #346, (#326));
#351 = CC_DESIGN_SECURITY_CLASSIFICATION (#326, (#301));
#352 = DESIGN_CONTEXT ('', #291, 'design');
#353 = PRODUCT_DEFINITION ('', '', #301, #352);
#354 = APPROVAL_STATUS ('approved');
#355 = APPROVAL (#354, '');
#356 = CALENDAR_DATE (2021, 14, 4);
#357 = COORDINATED_UNIVERSAL_TIME_OFFSET (0, $, .AHEAD.);
#358 = LOCAL_TIME (14, 36, 7., #357);
#359 = DATE_AND_TIME (#356, #358);
#360 = APPROVAL_DATE_TIME (#359, #355);
#361 = APPROVAL_ROLE ('');
#362 = PERSON ('', '', $, $, $, $);
#363 = ORGANIZATION ($, '', '');
#364 = PERSON_AND_ORGANIZATION (#362, #363);
#365 = APPROVAL_PERSON_ORGANIZATION (#364, #355, #361);
#366 = CC_DESIGN_APPROVAL (#355, (#353));
#367 = DATE_TIME_ROLE ('creation_date');
#368 = CALENDAR_DATE (2021, 14, 4);
#369 = COORDINATED_UNIVERSAL_TIME_OFFSET (0, $, .AHEAD.);
#370 = LOCAL_TIME (14, 36, 7., #369);
#371 = DATE_AND_TIME (#368, #370);
#372 = CC_DESIGN_DATE_AND_TIME_ASSIGNMENT (#371, #367, (#353));
#373 = PERSON_AND_ORGANIZATION_ROLE ('creator');
#374 = PERSON ('', '', $, $, $, $);
#375 = ORGANIZATION ($, '', '');
#376 = PERSON_AND_ORGANIZATION (#374, #375);
#377 = CC_DESIGN_PERSON_AND_ORGANIZATION_ASSIGNMENT (#376, #373, (#353));
#378 = PRODUCT_DEFINITION_SHAPE ('', '', #353);
#379 = SHAPE_DEFINITION_REPRESENTATION (#378, #290);
#380 = SHAPE_REPRESENTATION_RELATIONSHIP ('', '', #290, #381);
#381 = GEOMETRICALLY_BOUNDED_WIREFRAME_SHAPE_REPRESENTATION ('', (#4), #289);
#382 = SHAPE_REPRESENTATION_RELATIONSHIP ('', '', #290, #383);
#383 = ADVANCED_BREP_SHAPE_REPRESENTATION ('', (#284), #289);
ENDSEC;
END-ISO-10303-21;
