ISO-10303-21;
HEADER;
FILE_DESCRIPTION ((), '1');
FILE_NAME ('D:\\Documents\\Mark Dainty\\2XDSS\\2XDSSM1190A.STP', '2021-04-14T14:44:08', ('Unknown'), ('M A Ford Europe'), 'OneCNC-XR8 Mill 3D Expert', 'OneCNC-XR8 Mill 3D Expert', '');
FILE_SCHEMA (('CONFIG_CONTROL_DESIGN'));
ENDSEC;

DATA;
#1 = CARTESIAN_POINT ('', (-51., 6., 0.));
#2 = CARTESIAN_POINT ('', (-51., 5.95, 0.));
#3 = B_SPLINE_CURVE_WITH_KNOTS ('', 1, (#1, #2), .UNSPECIFIED., .F., .U., (2, 2), (0., 1.), .UNSPECIFIED.);
#4 = GEOMETRIC_CURVE_SET ('', (#3, #7, #10, #13, #16));
#5 = CARTESIAN_POINT ('', (-2.04874929907351, 5.95, 0.));
#6 = CARTESIAN_POINT ('', (0., 0., 0.));
#7 = B_SPLINE_CURVE_WITH_KNOTS ('', 1, (#5, #6), .UNSPECIFIED., .F., .U., (2, 2), (0., 1.), .UNSPECIFIED.);
#8 = CARTESIAN_POINT ('', (-51., 5.95, 0.));
#9 = CARTESIAN_POINT ('', (-2.04874929907351, 5.95, 0.));
#10 = B_SPLINE_CURVE_WITH_KNOTS ('', 1, (#8, #9), .UNSPECIFIED., .F., .U., (2, 2), (0., 1.), .UNSPECIFIED.);
#11 = CARTESIAN_POINT ('', (-100.5, 6., 0.));
#12 = CARTESIAN_POINT ('', (-51., 6., 0.));
#13 = B_SPLINE_CURVE_WITH_KNOTS ('', 1, (#11, #12), .UNSPECIFIED., .F., .U., (2, 2), (0., 1.), .UNSPECIFIED.);
#14 = CARTESIAN_POINT ('', (-101., 5.5, 0.));
#15 = CARTESIAN_POINT ('', (-100.5, 6., 0.));
#16 = B_SPLINE_CURVE_WITH_KNOTS ('', 1, (#14, #15), .UNSPECIFIED., .F., .U., (2, 2), (0., 1.), .UNSPECIFIED.);
#17 = CARTESIAN_POINT ('', (-2.04874929907351, 5.95, -1.45732969098535E-15));
#18 = VERTEX_POINT ('', #17);
#19 = CARTESIAN_POINT ('', (0., 0., 0.));
#20 = VERTEX_POINT ('', #19);
#21 = CARTESIAN_POINT ('', (-2.04874929907351, 5.95, -1.45732969098535E-15));
#22 = CARTESIAN_POINT ('', (-1.36583286604901, 3.96666666666665, -9.71553127323563E-16));
#23 = CARTESIAN_POINT ('', (-0.682916433024503, 1.98333333333333, -4.85776563661783E-16));
#24 = CARTESIAN_POINT ('', (0., 0., 0.));
#25 = B_SPLINE_CURVE_WITH_KNOTS ('', 3, (#21, #22, #23, #24), .UNSPECIFIED., .F., .U., (4, 4), (0., 1.), .UNSPECIFIED.);
#26 = EDGE_CURVE ('', #18, #20, #25, .T.);
#27 = ORIENTED_EDGE ('', *, *, #26, .F.);
#28 = CARTESIAN_POINT ('', (-2.04874929907351, 5.95, -1.45732969098535E-15));
#29 = CARTESIAN_POINT ('', (-2.04874929907351, 5.95000000000001, 23.8));
#30 = CARTESIAN_POINT ('', (-2.04874929907351, -17.85, 11.9));
#31 = CARTESIAN_POINT ('', (-2.04874929907351, -17.85, -11.9));
#32 = CARTESIAN_POINT ('', (-2.04874929907351, 5.94999999999999, -23.8));
#33 = CARTESIAN_POINT ('', (-2.04874929907351, 5.95, -1.45732969098535E-15));
#34 = (
   BOUNDED_CURVE ()
   B_SPLINE_CURVE (5, (#28, #29, #30, #31, #32, #33), .UNSPECIFIED., .T., .U.)
   B_SPLINE_CURVE_WITH_KNOTS ((6, 6), (0., 1.), .UNSPECIFIED.)
   CURVE ()
   GEOMETRIC_REPRESENTATION_ITEM ()
   RATIONAL_B_SPLINE_CURVE ((5., 1., 1., 1., 1., 5.))
   REPRESENTATION_ITEM ('')
);
#35 = EDGE_CURVE ('', #18, #18, #34, .T.);
#36 = ORIENTED_EDGE ('', *, *, #35, .T.);
#37 = ORIENTED_EDGE ('', *, *, #26, .T.);
#38 = EDGE_LOOP ('', (#27, #36, #37));
#39 = FACE_OUTER_BOUND ('', #38, .T.);
#40 = CARTESIAN_POINT ('', (-2.04874929907351, 5.95, -1.45732969098535E-15));
#41 = CARTESIAN_POINT ('', (-1.36583286604901, 3.96666666666665, -9.71553127323563E-16));
#42 = CARTESIAN_POINT ('', (-0.682916433024503, 1.98333333333333, -4.85776563661783E-16));
#43 = CARTESIAN_POINT ('', (0., 0., 0.));
#44 = CARTESIAN_POINT ('', (-2.04874929907351, 5.95000000000001, 23.8));
#45 = CARTESIAN_POINT ('', (-1.36583286604901, 3.96666666666665, 15.8666666666666));
#46 = CARTESIAN_POINT ('', (-0.682916433024503, 1.98333333333334, 7.93333333333333));
#47 = CARTESIAN_POINT ('', (0., 0., 0.));
#48 = CARTESIAN_POINT ('', (-2.04874929907351, -17.85, 11.9));
#49 = CARTESIAN_POINT ('', (-1.36583286604901, -11.9, 7.9333333333333));
#50 = CARTESIAN_POINT ('', (-0.682916433024503, -5.95, 3.96666666666667));
#51 = CARTESIAN_POINT ('', (0., 0., 0.));
#52 = CARTESIAN_POINT ('', (-2.04874929907351, -17.85, -11.9));
#53 = CARTESIAN_POINT ('', (-1.36583286604901, -11.9, -7.9333333333333));
#54 = CARTESIAN_POINT ('', (-0.682916433024503, -5.95, -3.96666666666667));
#55 = CARTESIAN_POINT ('', (0., 0., 0.));
#56 = CARTESIAN_POINT ('', (-2.04874929907351, 5.94999999999999, -23.8));
#57 = CARTESIAN_POINT ('', (-1.36583286604901, 3.96666666666665, -15.8666666666666));
#58 = CARTESIAN_POINT ('', (-0.682916433024502, 1.98333333333333, -7.93333333333333));
#59 = CARTESIAN_POINT ('', (0., 0., 0.));
#60 = CARTESIAN_POINT ('', (-2.04874929907351, 5.95, -1.45732969098535E-15));
#61 = CARTESIAN_POINT ('', (-1.36583286604901, 3.96666666666665, -9.71553127323563E-16));
#62 = CARTESIAN_POINT ('', (-0.682916433024503, 1.98333333333333, -4.85776563661783E-16));
#63 = CARTESIAN_POINT ('', (0., 0., 0.));
#64 = (
   BOUNDED_SURFACE ()
   B_SPLINE_SURFACE (5, 3, ((#40, #41, #42, #43), (#44, #45, #46, #47), (#48, #49, #50, #51), (#52, #53, #54, #55), (#56, #57, #58, #59), (#60, #61, #62, #63)), .UNSPECIFIED., .T., .F., .U.)
   B_SPLINE_SURFACE_WITH_KNOTS ((6, 6), (4, 4), (0., 1.), (0., 1.), .UNSPECIFIED.)
   SURFACE ()
   GEOMETRIC_REPRESENTATION_ITEM ()
   RATIONAL_B_SPLINE_SURFACE (((5., 5., 5., 5.), (1., 1., 1., 1.), (1., 1., 1., 1.), (1., 1., 1., 1.), (1., 1., 1., 1.), (5., 5., 5., 5.)))
   REPRESENTATION_ITEM ('')
);
#65 = ADVANCED_FACE ('', (#39), #64, .T.);
#66 = CARTESIAN_POINT ('', (-100.5, 6., -1.46957615897682E-15));
#67 = VERTEX_POINT ('', #66);
#68 = CARTESIAN_POINT ('', (-51., 6., -1.46957615897682E-15));
#69 = VERTEX_POINT ('', #68);
#70 = CARTESIAN_POINT ('', (-100.5, 6., -1.46957615897682E-15));
#71 = CARTESIAN_POINT ('', (-84., 6., -1.46957615897682E-15));
#72 = CARTESIAN_POINT ('', (-67.5, 6., -1.46957615897682E-15));
#73 = CARTESIAN_POINT ('', (-51., 6., -1.46957615897682E-15));
#74 = B_SPLINE_CURVE_WITH_KNOTS ('', 3, (#70, #71, #72, #73), .UNSPECIFIED., .F., .U., (4, 4), (0., 1.), .UNSPECIFIED.);
#75 = EDGE_CURVE ('', #67, #69, #74, .T.);
#76 = ORIENTED_EDGE ('', *, *, #75, .F.);
#77 = CARTESIAN_POINT ('', (-100.5, 6., -1.46957615897682E-15));
#78 = CARTESIAN_POINT ('', (-100.5, 5.99999999999998, 24.));
#79 = CARTESIAN_POINT ('', (-100.5, -18., 12.));
#80 = CARTESIAN_POINT ('', (-100.5, -18., -12.));
#81 = CARTESIAN_POINT ('', (-100.5, 6.00000000000002, -24.));
#82 = CARTESIAN_POINT ('', (-100.5, 6., -1.46957615897682E-15));
#83 = (
   BOUNDED_CURVE ()
   B_SPLINE_CURVE (5, (#77, #78, #79, #80, #81, #82), .UNSPECIFIED., .T., .U.)
   B_SPLINE_CURVE_WITH_KNOTS ((6, 6), (0., 1.), .UNSPECIFIED.)
   CURVE ()
   GEOMETRIC_REPRESENTATION_ITEM ()
   RATIONAL_B_SPLINE_CURVE ((5., 1., 1., 1., 1., 5.))
   REPRESENTATION_ITEM ('')
);
#84 = EDGE_CURVE ('', #67, #67, #83, .T.);
#85 = ORIENTED_EDGE ('', *, *, #84, .T.);
#86 = ORIENTED_EDGE ('', *, *, #75, .T.);
#87 = CARTESIAN_POINT ('', (-51., 6., -1.46957615897682E-15));
#88 = CARTESIAN_POINT ('', (-51., 5.99999999999999, 24.));
#89 = CARTESIAN_POINT ('', (-51., -18., 12.));
#90 = CARTESIAN_POINT ('', (-51., -18., -12.));
#91 = CARTESIAN_POINT ('', (-51., 6.00000000000001, -24.));
#92 = CARTESIAN_POINT ('', (-51., 6., -1.46957615897682E-15));
#93 = (
   BOUNDED_CURVE ()
   B_SPLINE_CURVE (5, (#87, #88, #89, #90, #91, #92), .UNSPECIFIED., .T., .U.)
   B_SPLINE_CURVE_WITH_KNOTS ((6, 6), (0., 1.), .UNSPECIFIED.)
   CURVE ()
   GEOMETRIC_REPRESENTATION_ITEM ()
   RATIONAL_B_SPLINE_CURVE ((5., 1., 1., 1., 1., 5.))
   REPRESENTATION_ITEM ('')
);
#94 = EDGE_CURVE ('', #69, #69, #93, .T.);
#95 = ORIENTED_EDGE ('', *, *, #94, .F.);
#96 = EDGE_LOOP ('', (#76, #85, #86, #95));
#97 = FACE_OUTER_BOUND ('', #96, .T.);
#98 = CARTESIAN_POINT ('', (-100.5, 6., -1.46957615897682E-15));
#99 = CARTESIAN_POINT ('', (-84., 6., -1.46957615897682E-15));
#100 = CARTESIAN_POINT ('', (-67.5, 6., -1.46957615897682E-15));
#101 = CARTESIAN_POINT ('', (-51., 6., -1.46957615897682E-15));
#102 = CARTESIAN_POINT ('', (-100.5, 5.99999999999998, 24.));
#103 = CARTESIAN_POINT ('', (-84., 5.99999999999998, 24.));
#104 = CARTESIAN_POINT ('', (-67.5, 5.99999999999999, 24.));
#105 = CARTESIAN_POINT ('', (-51., 5.99999999999999, 24.));
#106 = CARTESIAN_POINT ('', (-100.5, -18., 12.));
#107 = CARTESIAN_POINT ('', (-84., -18., 12.));
#108 = CARTESIAN_POINT ('', (-67.5, -18., 12.));
#109 = CARTESIAN_POINT ('', (-51., -18., 12.));
#110 = CARTESIAN_POINT ('', (-100.5, -18., -12.));
#111 = CARTESIAN_POINT ('', (-84., -18., -12.));
#112 = CARTESIAN_POINT ('', (-67.5, -18., -12.));
#113 = CARTESIAN_POINT ('', (-51., -18., -12.));
#114 = CARTESIAN_POINT ('', (-100.5, 6.00000000000002, -24.));
#115 = CARTESIAN_POINT ('', (-84., 6.00000000000002, -24.));
#116 = CARTESIAN_POINT ('', (-67.5, 6.00000000000001, -24.));
#117 = CARTESIAN_POINT ('', (-51., 6.00000000000001, -24.));
#118 = CARTESIAN_POINT ('', (-100.5, 6., -1.46957615897682E-15));
#119 = CARTESIAN_POINT ('', (-84., 6., -1.46957615897682E-15));
#120 = CARTESIAN_POINT ('', (-67.5, 6., -1.46957615897682E-15));
#121 = CARTESIAN_POINT ('', (-51., 6., -1.46957615897682E-15));
#122 = (
   BOUNDED_SURFACE ()
   B_SPLINE_SURFACE (5, 3, ((#98, #99, #100, #101), (#102, #103, #104, #105), (#106, #107, #108, #109), (#110, #111, #112, #113), (#114, #115, #116, #117), (#118, #119, #120, #121)), .UNSPECIFIED., .T., .F., .U.)
   B_SPLINE_SURFACE_WITH_KNOTS ((6, 6), (4, 4), (0., 1.), (0., 1.), .UNSPECIFIED.)
   SURFACE ()
   GEOMETRIC_REPRESENTATION_ITEM ()
   RATIONAL_B_SPLINE_SURFACE (((5., 5., 5., 5.), (1., 1., 1., 1.), (1., 1., 1., 1.), (1., 1., 1., 1.), (1., 1., 1., 1.), (5., 5., 5., 5.)))
   REPRESENTATION_ITEM ('')
);
#123 = ADVANCED_FACE ('', (#97), #122, .T.);
#124 = CARTESIAN_POINT ('', (-101., 6.18446633569413E-15, -6.18446633569413E-15));
#125 = VERTEX_POINT ('', #124);
#126 = CARTESIAN_POINT ('', (-101., 5.5, -1.34711147906209E-15));
#127 = VERTEX_POINT ('', #126);
#128 = CARTESIAN_POINT ('', (-101., 6.18446633569413E-15, -6.18446633569413E-15));
#129 = CARTESIAN_POINT ('', (-101., 5.5, -1.34711147906209E-15));
#130 = B_SPLINE_CURVE_WITH_KNOTS ('', 1, (#128, #129), .UNSPECIFIED., .F., .U., (2, 2), (0., 1.), .UNSPECIFIED.);
#131 = EDGE_CURVE ('', #125, #127, #130, .T.);
#132 = ORIENTED_EDGE ('', *, *, #131, .F.);
#133 = ORIENTED_EDGE ('', *, *, #131, .T.);
#134 = CARTESIAN_POINT ('', (-101., 5.5, -1.34711147906209E-15));
#135 = CARTESIAN_POINT ('', (-101., 5.49999999999998, 22.));
#136 = CARTESIAN_POINT ('', (-101., -16.5, 11.));
#137 = CARTESIAN_POINT ('', (-101., -16.5, -11.));
#138 = CARTESIAN_POINT ('', (-101., 5.50000000000002, -22.));
#139 = CARTESIAN_POINT ('', (-101., 5.5, -1.34711147906209E-15));
#140 = (
   BOUNDED_CURVE ()
   B_SPLINE_CURVE (5, (#134, #135, #136, #137, #138, #139), .UNSPECIFIED., .T., .U.)
   B_SPLINE_CURVE_WITH_KNOTS ((6, 6), (0., 1.), .UNSPECIFIED.)
   CURVE ()
   GEOMETRIC_REPRESENTATION_ITEM ()
   RATIONAL_B_SPLINE_CURVE ((5., 1., 1., 1., 1., 5.))
   REPRESENTATION_ITEM ('')
);
#141 = EDGE_CURVE ('', #127, #127, #140, .T.);
#142 = ORIENTED_EDGE ('', *, *, #141, .F.);
#143 = EDGE_LOOP ('', (#132, #133, #142));
#144 = FACE_OUTER_BOUND ('', #143, .T.);
#145 = CARTESIAN_POINT ('', (-101., 6.18446633569413E-15, -6.18446633569413E-15));
#146 = CARTESIAN_POINT ('', (-101., 5.5, -1.34711147906209E-15));
#147 = CARTESIAN_POINT ('', (-101., 6.18446633569413E-15, -6.18446633569413E-15));
#148 = CARTESIAN_POINT ('', (-101., 5.49999999999998, 22.));
#149 = CARTESIAN_POINT ('', (-101., 6.18446633569413E-15, -6.18446633569413E-15));
#150 = CARTESIAN_POINT ('', (-101., -16.5, 11.));
#151 = CARTESIAN_POINT ('', (-101., 6.18446633569413E-15, -6.18446633569413E-15));
#152 = CARTESIAN_POINT ('', (-101., -16.5, -11.));
#153 = CARTESIAN_POINT ('', (-101., 6.18446633569413E-15, -6.18446633569413E-15));
#154 = CARTESIAN_POINT ('', (-101., 5.50000000000002, -22.));
#155 = CARTESIAN_POINT ('', (-101., 6.18446633569413E-15, -6.18446633569413E-15));
#156 = CARTESIAN_POINT ('', (-101., 5.5, -1.34711147906209E-15));
#157 = (
   BOUNDED_SURFACE ()
   B_SPLINE_SURFACE (5, 1, ((#145, #146), (#147, #148), (#149, #150), (#151, #152), (#153, #154), (#155, #156)), .UNSPECIFIED., .T., .F., .U.)
   B_SPLINE_SURFACE_WITH_KNOTS ((6, 6), (2, 2), (0., 1.), (0., 1.), .UNSPECIFIED.)
   SURFACE ()
   GEOMETRIC_REPRESENTATION_ITEM ()
   RATIONAL_B_SPLINE_SURFACE (((5., 5.), (1., 1.), (1., 1.), (1., 1.), (1., 1.), (5., 5.)))
   REPRESENTATION_ITEM ('')
);
#158 = ADVANCED_FACE ('', (#144), #157, .T.);
#159 = CARTESIAN_POINT ('', (-101., 5.5, -1.34711147906209E-15));
#160 = CARTESIAN_POINT ('', (-100.833333333333, 5.66666666666666, -1.38793303903366E-15));
#161 = CARTESIAN_POINT ('', (-100.666666666667, 5.83333333333333, -1.42875459900524E-15));
#162 = CARTESIAN_POINT ('', (-100.5, 6., -1.46957615897682E-15));
#163 = B_SPLINE_CURVE_WITH_KNOTS ('', 3, (#159, #160, #161, #162), .UNSPECIFIED., .F., .U., (4, 4), (0., 1.), .UNSPECIFIED.);
#164 = EDGE_CURVE ('', #127, #67, #163, .T.);
#165 = ORIENTED_EDGE ('', *, *, #164, .F.);
#166 = ORIENTED_EDGE ('', *, *, #141, .T.);
#167 = ORIENTED_EDGE ('', *, *, #164, .T.);
#168 = ORIENTED_EDGE ('', *, *, #84, .F.);
#169 = EDGE_LOOP ('', (#165, #166, #167, #168));
#170 = FACE_OUTER_BOUND ('', #169, .T.);
#171 = CARTESIAN_POINT ('', (-101., 5.5, -1.34711147906209E-15));
#172 = CARTESIAN_POINT ('', (-100.833333333333, 5.66666666666666, -1.38793303903366E-15));
#173 = CARTESIAN_POINT ('', (-100.666666666667, 5.83333333333333, -1.42875459900524E-15));
#174 = CARTESIAN_POINT ('', (-100.5, 6., -1.46957615897682E-15));
#175 = CARTESIAN_POINT ('', (-101., 5.49999999999998, 22.));
#176 = CARTESIAN_POINT ('', (-100.833333333333, 5.66666666666664, 22.6666666666666));
#177 = CARTESIAN_POINT ('', (-100.666666666667, 5.83333333333331, 23.3333333333333));
#178 = CARTESIAN_POINT ('', (-100.5, 5.99999999999998, 24.));
#179 = CARTESIAN_POINT ('', (-101., -16.5, 11.));
#180 = CARTESIAN_POINT ('', (-100.833333333333, -17., 11.3333333333333));
#181 = CARTESIAN_POINT ('', (-100.666666666667, -17.5, 11.6666666666666));
#182 = CARTESIAN_POINT ('', (-100.5, -18., 12.));
#183 = CARTESIAN_POINT ('', (-101., -16.5, -11.));
#184 = CARTESIAN_POINT ('', (-100.833333333333, -16.9999999999999, -11.3333333333333));
#185 = CARTESIAN_POINT ('', (-100.666666666667, -17.5, -11.6666666666667));
#186 = CARTESIAN_POINT ('', (-100.5, -18., -12.));
#187 = CARTESIAN_POINT ('', (-101., 5.50000000000002, -22.));
#188 = CARTESIAN_POINT ('', (-100.833333333333, 5.66666666666668, -22.6666666666666));
#189 = CARTESIAN_POINT ('', (-100.666666666667, 5.83333333333335, -23.3333333333333));
#190 = CARTESIAN_POINT ('', (-100.5, 6.00000000000002, -24.));
#191 = CARTESIAN_POINT ('', (-101., 5.5, -1.34711147906209E-15));
#192 = CARTESIAN_POINT ('', (-100.833333333333, 5.66666666666666, -1.38793303903366E-15));
#193 = CARTESIAN_POINT ('', (-100.666666666667, 5.83333333333333, -1.42875459900524E-15));
#194 = CARTESIAN_POINT ('', (-100.5, 6., -1.46957615897682E-15));
#195 = (
   BOUNDED_SURFACE ()
   B_SPLINE_SURFACE (5, 3, ((#171, #172, #173, #174), (#175, #176, #177, #178), (#179, #180, #181, #182), (#183, #184, #185, #186), (#187, #188, #189, #190), (#191, #192, #193, #194)), .UNSPECIFIED., .T., .F., .U.)
   B_SPLINE_SURFACE_WITH_KNOTS ((6, 6), (4, 4), (0., 1.), (0., 1.), .UNSPECIFIED.)
   SURFACE ()
   GEOMETRIC_REPRESENTATION_ITEM ()
   RATIONAL_B_SPLINE_SURFACE (((5., 5., 5., 5.), (1., 1., 1., 1.), (1., 1., 1., 1.), (1., 1., 1., 1.), (1., 1., 1., 1.), (5., 5., 5., 5.)))
   REPRESENTATION_ITEM ('')
);
#196 = ADVANCED_FACE ('', (#170), #195, .T.);
#197 = CARTESIAN_POINT ('', (-51., 5.95, -1.45732969098535E-15));
#198 = VERTEX_POINT ('', #197);
#199 = CARTESIAN_POINT ('', (-51., 6., -1.46957615897682E-15));
#200 = CARTESIAN_POINT ('', (-51.0000000000002, 5.98333333333331, -1.46549400297966E-15));
#201 = CARTESIAN_POINT ('', (-50.9999999999999, 5.96666666666669, -1.46141184698251E-15));
#202 = CARTESIAN_POINT ('', (-51., 5.95, -1.45732969098535E-15));
#203 = B_SPLINE_CURVE_WITH_KNOTS ('', 3, (#199, #200, #201, #202), .UNSPECIFIED., .F., .U., (4, 4), (0., 1.), .UNSPECIFIED.);
#204 = EDGE_CURVE ('', #69, #198, #203, .T.);
#205 = ORIENTED_EDGE ('', *, *, #204, .F.);
#206 = ORIENTED_EDGE ('', *, *, #94, .T.);
#207 = ORIENTED_EDGE ('', *, *, #204, .T.);
#208 = CARTESIAN_POINT ('', (-51., 5.95, -1.45732969098535E-15));
#209 = CARTESIAN_POINT ('', (-51., 5.94999999999999, 23.8));
#210 = CARTESIAN_POINT ('', (-51., -17.85, 11.9));
#211 = CARTESIAN_POINT ('', (-51., -17.85, -11.9));
#212 = CARTESIAN_POINT ('', (-51., 5.95000000000001, -23.8));
#213 = CARTESIAN_POINT ('', (-51., 5.95, -1.45732969098535E-15));
#214 = (
   BOUNDED_CURVE ()
   B_SPLINE_CURVE (5, (#208, #209, #210, #211, #212, #213), .UNSPECIFIED., .T., .U.)
   B_SPLINE_CURVE_WITH_KNOTS ((6, 6), (0., 1.), .UNSPECIFIED.)
   CURVE ()
   GEOMETRIC_REPRESENTATION_ITEM ()
   RATIONAL_B_SPLINE_CURVE ((5., 1., 1., 1., 1., 5.))
   REPRESENTATION_ITEM ('')
);
#215 = EDGE_CURVE ('', #198, #198, #214, .T.);
#216 = ORIENTED_EDGE ('', *, *, #215, .F.);
#217 = EDGE_LOOP ('', (#205, #206, #207, #216));
#218 = FACE_OUTER_BOUND ('', #217, .T.);
#219 = CARTESIAN_POINT ('', (-51., 6., -1.46957615897682E-15));
#220 = CARTESIAN_POINT ('', (-51.0000000000002, 5.98333333333331, -1.46549400297966E-15));
#221 = CARTESIAN_POINT ('', (-50.9999999999999, 5.96666666666669, -1.46141184698251E-15));
#222 = CARTESIAN_POINT ('', (-51., 5.95, -1.45732969098535E-15));
#223 = CARTESIAN_POINT ('', (-51., 5.99999999999999, 24.));
#224 = CARTESIAN_POINT ('', (-51.0000000000002, 5.9833333333333, 23.9333333333332));
#225 = CARTESIAN_POINT ('', (-50.9999999999999, 5.96666666666668, 23.8666666666667));
#226 = CARTESIAN_POINT ('', (-51., 5.94999999999999, 23.8));
#227 = CARTESIAN_POINT ('', (-51., -18., 12.));
#228 = CARTESIAN_POINT ('', (-51.0000000000002, -17.9499999999999, 11.9666666666666));
#229 = CARTESIAN_POINT ('', (-50.9999999999999, -17.9, 11.9333333333334));
#230 = CARTESIAN_POINT ('', (-51., -17.85, 11.9));
#231 = CARTESIAN_POINT ('', (-51., -18., -12.));
#232 = CARTESIAN_POINT ('', (-51.0000000000002, -17.9499999999999, -11.9666666666666));
#233 = CARTESIAN_POINT ('', (-50.9999999999999, -17.9, -11.9333333333334));
#234 = CARTESIAN_POINT ('', (-51., -17.85, -11.9));
#235 = CARTESIAN_POINT ('', (-51., 6.00000000000001, -24.));
#236 = CARTESIAN_POINT ('', (-51.0000000000002, 5.98333333333331, -23.9333333333332));
#237 = CARTESIAN_POINT ('', (-50.9999999999999, 5.96666666666669, -23.8666666666667));
#238 = CARTESIAN_POINT ('', (-51., 5.95000000000001, -23.8));
#239 = CARTESIAN_POINT ('', (-51., 6., -1.46957615897682E-15));
#240 = CARTESIAN_POINT ('', (-51.0000000000002, 5.98333333333331, -1.46549400297966E-15));
#241 = CARTESIAN_POINT ('', (-50.9999999999999, 5.96666666666669, -1.46141184698251E-15));
#242 = CARTESIAN_POINT ('', (-51., 5.95, -1.45732969098535E-15));
#243 = (
   BOUNDED_SURFACE ()
   B_SPLINE_SURFACE (5, 3, ((#219, #220, #221, #222), (#223, #224, #225, #226), (#227, #228, #229, #230), (#231, #232, #233, #234), (#235, #236, #237, #238), (#239, #240, #241, #242)), .UNSPECIFIED., .T., .F., .U.)
   B_SPLINE_SURFACE_WITH_KNOTS ((6, 6), (4, 4), (0., 1.), (0., 1.), .UNSPECIFIED.)
   SURFACE ()
   GEOMETRIC_REPRESENTATION_ITEM ()
   RATIONAL_B_SPLINE_SURFACE (((5., 5., 5., 5.), (1., 1., 1., 1.), (1., 1., 1., 1.), (1., 1., 1., 1.), (1., 1., 1., 1.), (5., 5., 5., 5.)))
   REPRESENTATION_ITEM ('')
);
#244 = ADVANCED_FACE ('', (#218), #243, .T.);
#245 = CARTESIAN_POINT ('', (-51., 5.95, -1.45732969098535E-15));
#246 = CARTESIAN_POINT ('', (-34.6829164330246, 5.95, -1.45732969098535E-15));
#247 = CARTESIAN_POINT ('', (-18.365832866049, 5.95, -1.45732969098535E-15));
#248 = CARTESIAN_POINT ('', (-2.04874929907351, 5.95, -1.45732969098535E-15));
#249 = B_SPLINE_CURVE_WITH_KNOTS ('', 3, (#245, #246, #247, #248), .UNSPECIFIED., .F., .U., (4, 4), (0., 1.), .UNSPECIFIED.);
#250 = EDGE_CURVE ('', #198, #18, #249, .T.);
#251 = ORIENTED_EDGE ('', *, *, #250, .F.);
#252 = ORIENTED_EDGE ('', *, *, #215, .T.);
#253 = ORIENTED_EDGE ('', *, *, #250, .T.);
#254 = ORIENTED_EDGE ('', *, *, #35, .F.);
#255 = EDGE_LOOP ('', (#251, #252, #253, #254));
#256 = FACE_OUTER_BOUND ('', #255, .T.);
#257 = CARTESIAN_POINT ('', (-51., 5.95, -1.45732969098535E-15));
#258 = CARTESIAN_POINT ('', (-34.6829164330246, 5.95, -1.45732969098535E-15));
#259 = CARTESIAN_POINT ('', (-18.365832866049, 5.95, -1.45732969098535E-15));
#260 = CARTESIAN_POINT ('', (-2.04874929907351, 5.95, -1.45732969098535E-15));
#261 = CARTESIAN_POINT ('', (-51., 5.94999999999999, 23.8));
#262 = CARTESIAN_POINT ('', (-34.6829164330246, 5.94999999999999, 23.8));
#263 = CARTESIAN_POINT ('', (-18.365832866049, 5.95, 23.8));
#264 = CARTESIAN_POINT ('', (-2.04874929907351, 5.95000000000001, 23.8));
#265 = CARTESIAN_POINT ('', (-51., -17.85, 11.9));
#266 = CARTESIAN_POINT ('', (-34.6829164330246, -17.85, 11.9));
#267 = CARTESIAN_POINT ('', (-18.365832866049, -17.85, 11.9));
#268 = CARTESIAN_POINT ('', (-2.04874929907351, -17.85, 11.9));
#269 = CARTESIAN_POINT ('', (-51., -17.85, -11.9));
#270 = CARTESIAN_POINT ('', (-34.6829164330246, -17.85, -11.9));
#271 = CARTESIAN_POINT ('', (-18.365832866049, -17.85, -11.9));
#272 = CARTESIAN_POINT ('', (-2.04874929907351, -17.85, -11.9));
#273 = CARTESIAN_POINT ('', (-51., 5.95000000000001, -23.8));
#274 = CARTESIAN_POINT ('', (-34.6829164330246, 5.95, -23.8));
#275 = CARTESIAN_POINT ('', (-18.365832866049, 5.94999999999999, -23.8));
#276 = CARTESIAN_POINT ('', (-2.04874929907351, 5.94999999999999, -23.8));
#277 = CARTESIAN_POINT ('', (-51., 5.95, -1.45732969098535E-15));
#278 = CARTESIAN_POINT ('', (-34.6829164330246, 5.95, -1.45732969098535E-15));
#279 = CARTESIAN_POINT ('', (-18.365832866049, 5.95, -1.45732969098535E-15));
#280 = CARTESIAN_POINT ('', (-2.04874929907351, 5.95, -1.45732969098535E-15));
#281 = (
   BOUNDED_SURFACE ()
   B_SPLINE_SURFACE (5, 3, ((#257, #258, #259, #260), (#261, #262, #263, #264), (#265, #266, #267, #268), (#269, #270, #271, #272), (#273, #274, #275, #276), (#277, #278, #279, #280)), .UNSPECIFIED., .T., .F., .U.)
   B_SPLINE_SURFACE_WITH_KNOTS ((6, 6), (4, 4), (0., 1.), (0., 1.), .UNSPECIFIED.)
   SURFACE ()
   GEOMETRIC_REPRESENTATION_ITEM ()
   RATIONAL_B_SPLINE_SURFACE (((5., 5., 5., 5.), (1., 1., 1., 1.), (1., 1., 1., 1.), (1., 1., 1., 1.), (1., 1., 1., 1.), (5., 5., 5., 5.)))
   REPRESENTATION_ITEM ('')
);
#282 = ADVANCED_FACE ('', (#256), #281, .T.);
#283 = CLOSED_SHELL ('', (#65, #123, #158, #196, #244, #282));
#284 = MANIFOLD_SOLID_BREP ('', #283);
#285 = (
   LENGTH_UNIT ()
   NAMED_UNIT (*)
   SI_UNIT (.MILLI., .METRE.)
);
#286 = (
   NAMED_UNIT (*)
   SI_UNIT ($, .STERADIAN.)
   SOLID_ANGLE_UNIT ()
);
#287 = (
   NAMED_UNIT (*)
   SI_UNIT ($, .RADIAN.)
   PLANE_ANGLE_UNIT ()
);
#288 = UNCERTAINTY_MEASURE_WITH_UNIT (LENGTH_MEASURE(0.001), #285, 'DISTANCE_ACCURACY_VALUE', '');
#289 = (
   GEOMETRIC_REPRESENTATION_CONTEXT (3)
   GLOBAL_UNCERTAINTY_ASSIGNED_CONTEXT ((#288))
   GLOBAL_UNIT_ASSIGNED_CONTEXT ((#285, #286, #287))
   REPRESENTATION_CONTEXT ('', '3D')
);
#290 = SHAPE_REPRESENTATION ('', (), #289);
#291 = APPLICATION_CONTEXT ('configuration controlled 3D designs of mechanical parts and assemblies');
#292 = APPLICATION_PROTOCOL_DEFINITION ('International Standard', 'config_control_design', 1997, #291);
#293 = MECHANICAL_CONTEXT ('', #291, 'mechanical');
#294 = PRODUCT ('', '', '', (#293));
#295 = PERSON_AND_ORGANIZATION_ROLE ('design_owner');
#296 = PERSON ('', '', $, $, $, $);
#297 = ORGANIZATION ($, '', '');
#298 = PERSON_AND_ORGANIZATION (#296, #297);
#299 = CC_DESIGN_PERSON_AND_ORGANIZATION_ASSIGNMENT (#298, #295, (#294));
#300 = PRODUCT_RELATED_PRODUCT_CATEGORY ('detail', $, (#294));
#301 = PRODUCT_DEFINITION_FORMATION_WITH_SPECIFIED_SOURCE ('', '', #294, .NOT_KNOWN.);
#302 = APPROVAL_STATUS ('approved');
#303 = APPROVAL (#302, '');
#304 = CALENDAR_DATE (2021, 14, 4);
#305 = COORDINATED_UNIVERSAL_TIME_OFFSET (0, $, .AHEAD.);
#306 = LOCAL_TIME (14, 44, 8., #305);
#307 = DATE_AND_TIME (#304, #306);
#308 = APPROVAL_DATE_TIME (#307, #303);
#309 = APPROVAL_ROLE ('');
#310 = PERSON ('', '', $, $, $, $);
#311 = ORGANIZATION ($, '', '');
#312 = PERSON_AND_ORGANIZATION (#310, #311);
#313 = APPROVAL_PERSON_ORGANIZATION (#312, #303, #309);
#314 = CC_DESIGN_APPROVAL (#303, (#301));
#315 = PERSON_AND_ORGANIZATION_ROLE ('creator');
#316 = PERSON ('', '', $, $, $, $);
#317 = ORGANIZATION ($, '', '');
#318 = PERSON_AND_ORGANIZATION (#316, #317);
#319 = CC_DESIGN_PERSON_AND_ORGANIZATION_ASSIGNMENT (#318, #315, (#301));
#320 = PERSON_AND_ORGANIZATION_ROLE ('part_supplier');
#321 = PERSON ('', '', $, $, $, $);
#322 = ORGANIZATION ($, '', '');
#323 = PERSON_AND_ORGANIZATION (#321, #322);
#324 = CC_DESIGN_PERSON_AND_ORGANIZATION_ASSIGNMENT (#323, #320, (#301));
#325 = SECURITY_CLASSIFICATION_LEVEL ('unclassified');
#326 = SECURITY_CLASSIFICATION ('', '', #325);
#327 = APPROVAL_STATUS ('approved');
#328 = APPROVAL (#327, '');
#329 = CALENDAR_DATE (2021, 14, 4);
#330 = COORDINATED_UNIVERSAL_TIME_OFFSET (0, $, .AHEAD.);
#331 = LOCAL_TIME (14, 44, 8., #330);
#332 = DATE_AND_TIME (#329, #331);
#333 = APPROVAL_DATE_TIME (#332, #328);
#334 = APPROVAL_ROLE ('');
#335 = PERSON ('', '', $, $, $, $);
#336 = ORGANIZATION ($, '', '');
#337 = PERSON_AND_ORGANIZATION (#335, #336);
#338 = APPROVAL_PERSON_ORGANIZATION (#337, #328, #334);
#339 = CC_DESIGN_APPROVAL (#328, (#326));
#340 = DATE_TIME_ROLE ('classification_date');
#341 = CALENDAR_DATE (2021, 14, 4);
#342 = COORDINATED_UNIVERSAL_TIME_OFFSET (0, $, .AHEAD.);
#343 = LOCAL_TIME (14, 44, 8., #342);
#344 = DATE_AND_TIME (#341, #343);
#345 = CC_DESIGN_DATE_AND_TIME_ASSIGNMENT (#344, #340, (#326));
#346 = PERSON_AND_ORGANIZATION_ROLE ('classification_officer');
#347 = PERSON ('', '', $, $, $, $);
#348 = ORGANIZATION ($, '', '');
#349 = PERSON_AND_ORGANIZATION (#347, #348);
#350 = CC_DESIGN_PERSON_AND_ORGANIZATION_ASSIGNMENT (#349, #346, (#326));
#351 = CC_DESIGN_SECURITY_CLASSIFICATION (#326, (#301));
#352 = DESIGN_CONTEXT ('', #291, 'design');
#353 = PRODUCT_DEFINITION ('', '', #301, #352);
#354 = APPROVAL_STATUS ('approved');
#355 = APPROVAL (#354, '');
#356 = CALENDAR_DATE (2021, 14, 4);
#357 = COORDINATED_UNIVERSAL_TIME_OFFSET (0, $, .AHEAD.);
#358 = LOCAL_TIME (14, 44, 8., #357);
#359 = DATE_AND_TIME (#356, #358);
#360 = APPROVAL_DATE_TIME (#359, #355);
#361 = APPROVAL_ROLE ('');
#362 = PERSON ('', '', $, $, $, $);
#363 = ORGANIZATION ($, '', '');
#364 = PERSON_AND_ORGANIZATION (#362, #363);
#365 = APPROVAL_PERSON_ORGANIZATION (#364, #355, #361);
#366 = CC_DESIGN_APPROVAL (#355, (#353));
#367 = DATE_TIME_ROLE ('creation_date');
#368 = CALENDAR_DATE (2021, 14, 4);
#369 = COORDINATED_UNIVERSAL_TIME_OFFSET (0, $, .AHEAD.);
#370 = LOCAL_TIME (14, 44, 8., #369);
#371 = DATE_AND_TIME (#368, #370);
#372 = CC_DESIGN_DATE_AND_TIME_ASSIGNMENT (#371, #367, (#353));
#373 = PERSON_AND_ORGANIZATION_ROLE ('creator');
#374 = PERSON ('', '', $, $, $, $);
#375 = ORGANIZATION ($, '', '');
#376 = PERSON_AND_ORGANIZATION (#374, #375);
#377 = CC_DESIGN_PERSON_AND_ORGANIZATION_ASSIGNMENT (#376, #373, (#353));
#378 = PRODUCT_DEFINITION_SHAPE ('', '', #353);
#379 = SHAPE_DEFINITION_REPRESENTATION (#378, #290);
#380 = SHAPE_REPRESENTATION_RELATIONSHIP ('', '', #290, #381);
#381 = GEOMETRICALLY_BOUNDED_WIREFRAME_SHAPE_REPRESENTATION ('', (#4), #289);
#382 = SHAPE_REPRESENTATION_RELATIONSHIP ('', '', #290, #383);
#383 = ADVANCED_BREP_SHAPE_REPRESENTATION ('', (#284), #289);
ENDSEC;
END-ISO-10303-21;
