ISO-10303-21;
HEADER;
FILE_DESCRIPTION ((), '1');
FILE_NAME ('D:\\Documents\\Mark Dainty\\2XDSS\\2XDSSM1470A.STP', '2021-04-15T11:03:36', ('Unknown'), ('M A Ford Europe'), 'OneCNC-XR8 Mill 3D Expert', 'OneCNC-XR8 Mill 3D Expert', '');
FILE_SCHEMA (('CONFIG_CONTROL_DESIGN'));
ENDSEC;

DATA;
#1 = CARTESIAN_POINT ('', (-120., 60., 0.));
#2 = CARTESIAN_POINT ('', (10., 60., 0.));
#3 = B_SPLINE_CURVE_WITH_KNOTS ('', 1, (#1, #2), .UNSPECIFIED., .F., .U., (2, 2), (0., 1.), .UNSPECIFIED.);
#4 = GEOMETRIC_CURVE_SET ('', (#3, #7, #10, #13, #16, #19));
#5 = CARTESIAN_POINT ('', (-60., 8., 0.));
#6 = CARTESIAN_POINT ('', (-60., 7.35, 0.));
#7 = B_SPLINE_CURVE_WITH_KNOTS ('', 1, (#5, #6), .UNSPECIFIED., .F., .U., (2, 2), (0., 1.), .UNSPECIFIED.);
#8 = CARTESIAN_POINT ('', (-2.53080795767904, 7.35, 0.));
#9 = CARTESIAN_POINT ('', (0., 0., 0.));
#10 = B_SPLINE_CURVE_WITH_KNOTS ('', 1, (#8, #9), .UNSPECIFIED., .F., .U., (2, 2), (0., 1.), .UNSPECIFIED.);
#11 = CARTESIAN_POINT ('', (-60., 7.35, 0.));
#12 = CARTESIAN_POINT ('', (-2.53080795767904, 7.35, 0.));
#13 = B_SPLINE_CURVE_WITH_KNOTS ('', 1, (#11, #12), .UNSPECIFIED., .F., .U., (2, 2), (0., 1.), .UNSPECIFIED.);
#14 = CARTESIAN_POINT ('', (-116.5, 8., 0.));
#15 = CARTESIAN_POINT ('', (-60., 8., 0.));
#16 = B_SPLINE_CURVE_WITH_KNOTS ('', 1, (#14, #15), .UNSPECIFIED., .F., .U., (2, 2), (0., 1.), .UNSPECIFIED.);
#17 = CARTESIAN_POINT ('', (-117., 7.5, 0.));
#18 = CARTESIAN_POINT ('', (-116.5, 8., 0.));
#19 = B_SPLINE_CURVE_WITH_KNOTS ('', 1, (#17, #18), .UNSPECIFIED., .F., .U., (2, 2), (0., 1.), .UNSPECIFIED.);
#20 = CARTESIAN_POINT ('', (-60., 7.35, -1.80023079474661E-15));
#21 = VERTEX_POINT ('', #20);
#22 = CARTESIAN_POINT ('', (-2.53080795767904, 7.35, -1.80023079474661E-15));
#23 = VERTEX_POINT ('', #22);
#24 = CARTESIAN_POINT ('', (-60., 7.35, -1.80023079474661E-15));
#25 = CARTESIAN_POINT ('', (-40.8436026525596, 7.35, -1.80023079474661E-15));
#26 = CARTESIAN_POINT ('', (-21.6872053051194, 7.35000000000002, -1.80023079474661E-15));
#27 = CARTESIAN_POINT ('', (-2.53080795767904, 7.35, -1.80023079474661E-15));
#28 = B_SPLINE_CURVE_WITH_KNOTS ('', 3, (#24, #25, #26, #27), .UNSPECIFIED., .F., .U., (4, 4), (0., 1.), .UNSPECIFIED.);
#29 = EDGE_CURVE ('', #21, #23, #28, .T.);
#30 = ORIENTED_EDGE ('', *, *, #29, .F.);
#31 = CARTESIAN_POINT ('', (-60., 7.35, -1.80023079474661E-15));
#32 = CARTESIAN_POINT ('', (-60., 7.34999999999999, 29.4));
#33 = CARTESIAN_POINT ('', (-60., -22.05, 14.7));
#34 = CARTESIAN_POINT ('', (-60., -22.05, -14.7));
#35 = CARTESIAN_POINT ('', (-60., 7.35000000000001, -29.4));
#36 = CARTESIAN_POINT ('', (-60., 7.35, -1.80023079474661E-15));
#37 = (
   BOUNDED_CURVE ()
   B_SPLINE_CURVE (5, (#31, #32, #33, #34, #35, #36), .UNSPECIFIED., .T., .U.)
   B_SPLINE_CURVE_WITH_KNOTS ((6, 6), (0., 1.), .UNSPECIFIED.)
   CURVE ()
   GEOMETRIC_REPRESENTATION_ITEM ()
   RATIONAL_B_SPLINE_CURVE ((5., 1., 1., 1., 1., 5.))
   REPRESENTATION_ITEM ('')
);
#38 = EDGE_CURVE ('', #21, #21, #37, .T.);
#39 = ORIENTED_EDGE ('', *, *, #38, .T.);
#40 = ORIENTED_EDGE ('', *, *, #29, .T.);
#41 = CARTESIAN_POINT ('', (-2.53080795767904, 7.35, -1.80023079474661E-15));
#42 = CARTESIAN_POINT ('', (-2.53080795767904, 7.35000000000001, 29.4));
#43 = CARTESIAN_POINT ('', (-2.53080795767904, -22.05, 14.7));
#44 = CARTESIAN_POINT ('', (-2.53080795767904, -22.05, -14.7));
#45 = CARTESIAN_POINT ('', (-2.53080795767904, 7.35, -29.4));
#46 = CARTESIAN_POINT ('', (-2.53080795767904, 7.35, -1.80023079474661E-15));
#47 = (
   BOUNDED_CURVE ()
   B_SPLINE_CURVE (5, (#41, #42, #43, #44, #45, #46), .UNSPECIFIED., .T., .U.)
   B_SPLINE_CURVE_WITH_KNOTS ((6, 6), (0., 1.), .UNSPECIFIED.)
   CURVE ()
   GEOMETRIC_REPRESENTATION_ITEM ()
   RATIONAL_B_SPLINE_CURVE ((5., 1., 1., 1., 1., 5.))
   REPRESENTATION_ITEM ('')
);
#48 = EDGE_CURVE ('', #23, #23, #47, .T.);
#49 = ORIENTED_EDGE ('', *, *, #48, .F.);
#50 = EDGE_LOOP ('', (#30, #39, #40, #49));
#51 = FACE_OUTER_BOUND ('', #50, .T.);
#52 = CARTESIAN_POINT ('', (-60., 7.35, -1.80023079474661E-15));
#53 = CARTESIAN_POINT ('', (-40.8436026525596, 7.35, -1.80023079474661E-15));
#54 = CARTESIAN_POINT ('', (-21.6872053051194, 7.35000000000002, -1.80023079474661E-15));
#55 = CARTESIAN_POINT ('', (-2.53080795767904, 7.35, -1.80023079474661E-15));
#56 = CARTESIAN_POINT ('', (-60., 7.34999999999999, 29.4));
#57 = CARTESIAN_POINT ('', (-40.8436026525596, 7.35, 29.4));
#58 = CARTESIAN_POINT ('', (-21.6872053051194, 7.35000000000002, 29.4000000000001));
#59 = CARTESIAN_POINT ('', (-2.53080795767905, 7.35000000000001, 29.4));
#60 = CARTESIAN_POINT ('', (-60., -22.05, 14.7));
#61 = CARTESIAN_POINT ('', (-40.8436026525596, -22.05, 14.7));
#62 = CARTESIAN_POINT ('', (-21.6872053051194, -22.0500000000001, 14.7));
#63 = CARTESIAN_POINT ('', (-2.53080795767905, -22.05, 14.7));
#64 = CARTESIAN_POINT ('', (-60., -22.05, -14.7));
#65 = CARTESIAN_POINT ('', (-40.8436026525596, -22.05, -14.7));
#66 = CARTESIAN_POINT ('', (-21.6872053051194, -22.0500000000001, -14.7));
#67 = CARTESIAN_POINT ('', (-2.53080795767905, -22.05, -14.7));
#68 = CARTESIAN_POINT ('', (-60., 7.35000000000001, -29.4));
#69 = CARTESIAN_POINT ('', (-40.8436026525596, 7.35000000000001, -29.4));
#70 = CARTESIAN_POINT ('', (-21.6872053051194, 7.35000000000002, -29.4000000000001));
#71 = CARTESIAN_POINT ('', (-2.53080795767904, 7.34999999999999, -29.4));
#72 = CARTESIAN_POINT ('', (-60., 7.35, -1.80023079474661E-15));
#73 = CARTESIAN_POINT ('', (-40.8436026525596, 7.35, -1.80023079474661E-15));
#74 = CARTESIAN_POINT ('', (-21.6872053051194, 7.35000000000002, -1.80023079474661E-15));
#75 = CARTESIAN_POINT ('', (-2.53080795767904, 7.35, -1.80023079474661E-15));
#76 = (
   BOUNDED_SURFACE ()
   B_SPLINE_SURFACE (5, 3, ((#52, #53, #54, #55), (#56, #57, #58, #59), (#60, #61, #62, #63), (#64, #65, #66, #67), (#68, #69, #70, #71), (#72, #73, #74, #75)), .UNSPECIFIED., .T., .F., .U.)
   B_SPLINE_SURFACE_WITH_KNOTS ((6, 6), (4, 4), (0., 1.), (0., 1.), .UNSPECIFIED.)
   SURFACE ()
   GEOMETRIC_REPRESENTATION_ITEM ()
   RATIONAL_B_SPLINE_SURFACE (((5., 5., 5., 5.), (1., 1., 1., 1.), (1., 1., 1., 1.), (1., 1., 1., 1.), (1., 1., 1., 1.), (5., 5., 5., 5.)))
   REPRESENTATION_ITEM ('')
);
#77 = ADVANCED_FACE ('', (#51), #76, .T.);
#78 = CARTESIAN_POINT ('', (-60., 8., -1.95943487863576E-15));
#79 = VERTEX_POINT ('', #78);
#80 = CARTESIAN_POINT ('', (-60., 8., -1.95943487863576E-15));
#81 = CARTESIAN_POINT ('', (-60., 7.78333333333334, -1.90636685067271E-15));
#82 = CARTESIAN_POINT ('', (-60., 7.56666666666668, -1.85329882270966E-15));
#83 = CARTESIAN_POINT ('', (-60., 7.35, -1.80023079474661E-15));
#84 = B_SPLINE_CURVE_WITH_KNOTS ('', 3, (#80, #81, #82, #83), .UNSPECIFIED., .F., .U., (4, 4), (0., 1.), .UNSPECIFIED.);
#85 = EDGE_CURVE ('', #79, #21, #84, .T.);
#86 = ORIENTED_EDGE ('', *, *, #85, .F.);
#87 = CARTESIAN_POINT ('', (-60., 8., -1.95943487863576E-15));
#88 = CARTESIAN_POINT ('', (-60., 7.99999999999999, 32.));
#89 = CARTESIAN_POINT ('', (-60., -24., 16.));
#90 = CARTESIAN_POINT ('', (-60., -24., -16.));
#91 = CARTESIAN_POINT ('', (-60., 8.00000000000001, -32.));
#92 = CARTESIAN_POINT ('', (-60., 8., -1.95943487863576E-15));
#93 = (
   BOUNDED_CURVE ()
   B_SPLINE_CURVE (5, (#87, #88, #89, #90, #91, #92), .UNSPECIFIED., .T., .U.)
   B_SPLINE_CURVE_WITH_KNOTS ((6, 6), (0., 1.), .UNSPECIFIED.)
   CURVE ()
   GEOMETRIC_REPRESENTATION_ITEM ()
   RATIONAL_B_SPLINE_CURVE ((5., 1., 1., 1., 1., 5.))
   REPRESENTATION_ITEM ('')
);
#94 = EDGE_CURVE ('', #79, #79, #93, .T.);
#95 = ORIENTED_EDGE ('', *, *, #94, .T.);
#96 = ORIENTED_EDGE ('', *, *, #85, .T.);
#97 = ORIENTED_EDGE ('', *, *, #38, .F.);
#98 = EDGE_LOOP ('', (#86, #95, #96, #97));
#99 = FACE_OUTER_BOUND ('', #98, .T.);
#100 = CARTESIAN_POINT ('', (-60., 8., -1.95943487863576E-15));
#101 = CARTESIAN_POINT ('', (-60., 7.78333333333334, -1.90636685067271E-15));
#102 = CARTESIAN_POINT ('', (-60., 7.56666666666668, -1.85329882270966E-15));
#103 = CARTESIAN_POINT ('', (-60., 7.35, -1.80023079474661E-15));
#104 = CARTESIAN_POINT ('', (-60., 7.99999999999999, 32.));
#105 = CARTESIAN_POINT ('', (-60., 7.78333333333333, 31.1333333333334));
#106 = CARTESIAN_POINT ('', (-60., 7.56666666666667, 30.2666666666667));
#107 = CARTESIAN_POINT ('', (-60., 7.34999999999999, 29.4));
#108 = CARTESIAN_POINT ('', (-60., -24., 16.));
#109 = CARTESIAN_POINT ('', (-60., -23.35, 15.5666666666667));
#110 = CARTESIAN_POINT ('', (-60., -22.7, 15.1333333333333));
#111 = CARTESIAN_POINT ('', (-60., -22.05, 14.7));
#112 = CARTESIAN_POINT ('', (-60., -24., -16.));
#113 = CARTESIAN_POINT ('', (-60., -23.35, -15.5666666666667));
#114 = CARTESIAN_POINT ('', (-60., -22.7, -15.1333333333334));
#115 = CARTESIAN_POINT ('', (-60., -22.05, -14.7));
#116 = CARTESIAN_POINT ('', (-60., 8.00000000000001, -32.));
#117 = CARTESIAN_POINT ('', (-60., 7.78333333333335, -31.1333333333334));
#118 = CARTESIAN_POINT ('', (-60., 7.56666666666669, -30.2666666666667));
#119 = CARTESIAN_POINT ('', (-60., 7.35, -29.4));
#120 = CARTESIAN_POINT ('', (-60., 8., -1.95943487863576E-15));
#121 = CARTESIAN_POINT ('', (-60., 7.78333333333334, -1.90636685067271E-15));
#122 = CARTESIAN_POINT ('', (-60., 7.56666666666668, -1.85329882270966E-15));
#123 = CARTESIAN_POINT ('', (-60., 7.35, -1.80023079474661E-15));
#124 = (
   BOUNDED_SURFACE ()
   B_SPLINE_SURFACE (5, 3, ((#100, #101, #102, #103), (#104, #105, #106, #107), (#108, #109, #110, #111), (#112, #113, #114, #115), (#116, #117, #118, #119), (#120, #121, #122, #123)), .UNSPECIFIED., .T., .F., .U.)
   B_SPLINE_SURFACE_WITH_KNOTS ((6, 6), (4, 4), (0., 1.), (0., 1.), .UNSPECIFIED.)
   SURFACE ()
   GEOMETRIC_REPRESENTATION_ITEM ()
   RATIONAL_B_SPLINE_SURFACE (((5., 5., 5., 5.), (1., 1., 1., 1.), (1., 1., 1., 1.), (1., 1., 1., 1.), (1., 1., 1., 1.), (5., 5., 5., 5.)))
   REPRESENTATION_ITEM ('')
);
#125 = ADVANCED_FACE ('', (#99), #124, .T.);
#126 = CARTESIAN_POINT ('', (-116.5, 8., -1.95943487863576E-15));
#127 = VERTEX_POINT ('', #126);
#128 = CARTESIAN_POINT ('', (-116.5, 8., -1.95943487863576E-15));
#129 = CARTESIAN_POINT ('', (-97.6666666666667, 8., -1.95943487863576E-15));
#130 = CARTESIAN_POINT ('', (-78.8333333333333, 8., -1.95943487863576E-15));
#131 = CARTESIAN_POINT ('', (-60., 8., -1.95943487863576E-15));
#132 = B_SPLINE_CURVE_WITH_KNOTS ('', 3, (#128, #129, #130, #131), .UNSPECIFIED., .F., .U., (4, 4), (0., 1.), .UNSPECIFIED.);
#133 = EDGE_CURVE ('', #127, #79, #132, .T.);
#134 = ORIENTED_EDGE ('', *, *, #133, .F.);
#135 = CARTESIAN_POINT ('', (-116.5, 8., -1.95943487863576E-15));
#136 = CARTESIAN_POINT ('', (-116.5, 7.99999999999998, 32.));
#137 = CARTESIAN_POINT ('', (-116.5, -24., 16.));
#138 = CARTESIAN_POINT ('', (-116.5, -24., -16.));
#139 = CARTESIAN_POINT ('', (-116.5, 8.00000000000002, -32.));
#140 = CARTESIAN_POINT ('', (-116.5, 8., -1.95943487863576E-15));
#141 = (
   BOUNDED_CURVE ()
   B_SPLINE_CURVE (5, (#135, #136, #137, #138, #139, #140), .UNSPECIFIED., .T., .U.)
   B_SPLINE_CURVE_WITH_KNOTS ((6, 6), (0., 1.), .UNSPECIFIED.)
   CURVE ()
   GEOMETRIC_REPRESENTATION_ITEM ()
   RATIONAL_B_SPLINE_CURVE ((5., 1., 1., 1., 1., 5.))
   REPRESENTATION_ITEM ('')
);
#142 = EDGE_CURVE ('', #127, #127, #141, .T.);
#143 = ORIENTED_EDGE ('', *, *, #142, .T.);
#144 = ORIENTED_EDGE ('', *, *, #133, .T.);
#145 = ORIENTED_EDGE ('', *, *, #94, .F.);
#146 = EDGE_LOOP ('', (#134, #143, #144, #145));
#147 = FACE_OUTER_BOUND ('', #146, .T.);
#148 = CARTESIAN_POINT ('', (-116.5, 8., -1.95943487863576E-15));
#149 = CARTESIAN_POINT ('', (-97.6666666666667, 8., -1.95943487863576E-15));
#150 = CARTESIAN_POINT ('', (-78.8333333333333, 8., -1.95943487863576E-15));
#151 = CARTESIAN_POINT ('', (-60., 8., -1.95943487863576E-15));
#152 = CARTESIAN_POINT ('', (-116.5, 7.99999999999998, 32.));
#153 = CARTESIAN_POINT ('', (-97.6666666666667, 7.99999999999998, 32.));
#154 = CARTESIAN_POINT ('', (-78.8333333333333, 7.99999999999999, 32.));
#155 = CARTESIAN_POINT ('', (-60., 7.99999999999999, 32.));
#156 = CARTESIAN_POINT ('', (-116.5, -24., 16.));
#157 = CARTESIAN_POINT ('', (-97.6666666666667, -24., 16.));
#158 = CARTESIAN_POINT ('', (-78.8333333333333, -24., 16.));
#159 = CARTESIAN_POINT ('', (-60., -24., 16.));
#160 = CARTESIAN_POINT ('', (-116.5, -24., -16.));
#161 = CARTESIAN_POINT ('', (-97.6666666666667, -24., -16.));
#162 = CARTESIAN_POINT ('', (-78.8333333333333, -24., -16.));
#163 = CARTESIAN_POINT ('', (-60., -24., -16.));
#164 = CARTESIAN_POINT ('', (-116.5, 8.00000000000002, -32.));
#165 = CARTESIAN_POINT ('', (-97.6666666666667, 8.00000000000002, -32.));
#166 = CARTESIAN_POINT ('', (-78.8333333333333, 8.00000000000001, -32.));
#167 = CARTESIAN_POINT ('', (-60., 8.00000000000001, -32.));
#168 = CARTESIAN_POINT ('', (-116.5, 8., -1.95943487863576E-15));
#169 = CARTESIAN_POINT ('', (-97.6666666666667, 8., -1.95943487863576E-15));
#170 = CARTESIAN_POINT ('', (-78.8333333333333, 8., -1.95943487863576E-15));
#171 = CARTESIAN_POINT ('', (-60., 8., -1.95943487863576E-15));
#172 = (
   BOUNDED_SURFACE ()
   B_SPLINE_SURFACE (5, 3, ((#148, #149, #150, #151), (#152, #153, #154, #155), (#156, #157, #158, #159), (#160, #161, #162, #163), (#164, #165, #166, #167), (#168, #169, #170, #171)), .UNSPECIFIED., .T., .F., .U.)
   B_SPLINE_SURFACE_WITH_KNOTS ((6, 6), (4, 4), (0., 1.), (0., 1.), .UNSPECIFIED.)
   SURFACE ()
   GEOMETRIC_REPRESENTATION_ITEM ()
   RATIONAL_B_SPLINE_SURFACE (((5., 5., 5., 5.), (1., 1., 1., 1.), (1., 1., 1., 1.), (1., 1., 1., 1.), (1., 1., 1., 1.), (5., 5., 5., 5.)))
   REPRESENTATION_ITEM ('')
);
#173 = ADVANCED_FACE ('', (#147), #172, .T.);
#174 = CARTESIAN_POINT ('', (-117., 7.16418377501202E-15, -7.16418377501202E-15));
#175 = VERTEX_POINT ('', #174);
#176 = CARTESIAN_POINT ('', (-117., 7.5, -1.83697019872103E-15));
#177 = VERTEX_POINT ('', #176);
#178 = CARTESIAN_POINT ('', (-117., 7.16418377501202E-15, -7.16418377501202E-15));
#179 = CARTESIAN_POINT ('', (-117., 7.5, -1.83697019872103E-15));
#180 = B_SPLINE_CURVE_WITH_KNOTS ('', 1, (#178, #179), .UNSPECIFIED., .F., .U., (2, 2), (0., 1.), .UNSPECIFIED.);
#181 = EDGE_CURVE ('', #175, #177, #180, .T.);
#182 = ORIENTED_EDGE ('', *, *, #181, .F.);
#183 = ORIENTED_EDGE ('', *, *, #181, .T.);
#184 = CARTESIAN_POINT ('', (-117., 7.5, -1.83697019872103E-15));
#185 = CARTESIAN_POINT ('', (-117., 7.49999999999998, 30.));
#186 = CARTESIAN_POINT ('', (-117., -22.5, 15.));
#187 = CARTESIAN_POINT ('', (-117., -22.5, -15.));
#188 = CARTESIAN_POINT ('', (-117., 7.50000000000002, -30.));
#189 = CARTESIAN_POINT ('', (-117., 7.5, -1.83697019872103E-15));
#190 = (
   BOUNDED_CURVE ()
   B_SPLINE_CURVE (5, (#184, #185, #186, #187, #188, #189), .UNSPECIFIED., .T., .U.)
   B_SPLINE_CURVE_WITH_KNOTS ((6, 6), (0., 1.), .UNSPECIFIED.)
   CURVE ()
   GEOMETRIC_REPRESENTATION_ITEM ()
   RATIONAL_B_SPLINE_CURVE ((5., 1., 1., 1., 1., 5.))
   REPRESENTATION_ITEM ('')
);
#191 = EDGE_CURVE ('', #177, #177, #190, .T.);
#192 = ORIENTED_EDGE ('', *, *, #191, .F.);
#193 = EDGE_LOOP ('', (#182, #183, #192));
#194 = FACE_OUTER_BOUND ('', #193, .T.);
#195 = CARTESIAN_POINT ('', (-117., 7.16418377501202E-15, -7.16418377501202E-15));
#196 = CARTESIAN_POINT ('', (-117., 7.5, -1.83697019872103E-15));
#197 = CARTESIAN_POINT ('', (-117., 7.16418377501202E-15, -7.16418377501202E-15));
#198 = CARTESIAN_POINT ('', (-117., 7.49999999999998, 30.));
#199 = CARTESIAN_POINT ('', (-117., 7.16418377501202E-15, -7.16418377501202E-15));
#200 = CARTESIAN_POINT ('', (-117., -22.5, 15.));
#201 = CARTESIAN_POINT ('', (-117., 7.16418377501202E-15, -7.16418377501202E-15));
#202 = CARTESIAN_POINT ('', (-117., -22.5, -15.));
#203 = CARTESIAN_POINT ('', (-117., 7.16418377501202E-15, -7.16418377501202E-15));
#204 = CARTESIAN_POINT ('', (-117., 7.50000000000002, -30.));
#205 = CARTESIAN_POINT ('', (-117., 7.16418377501202E-15, -7.16418377501202E-15));
#206 = CARTESIAN_POINT ('', (-117., 7.5, -1.83697019872103E-15));
#207 = (
   BOUNDED_SURFACE ()
   B_SPLINE_SURFACE (5, 1, ((#195, #196), (#197, #198), (#199, #200), (#201, #202), (#203, #204), (#205, #206)), .UNSPECIFIED., .T., .F., .U.)
   B_SPLINE_SURFACE_WITH_KNOTS ((6, 6), (2, 2), (0., 1.), (0., 1.), .UNSPECIFIED.)
   SURFACE ()
   GEOMETRIC_REPRESENTATION_ITEM ()
   RATIONAL_B_SPLINE_SURFACE (((5., 5.), (1., 1.), (1., 1.), (1., 1.), (1., 1.), (5., 5.)))
   REPRESENTATION_ITEM ('')
);
#208 = ADVANCED_FACE ('', (#194), #207, .T.);
#209 = CARTESIAN_POINT ('', (-117., 7.5, -1.83697019872103E-15));
#210 = CARTESIAN_POINT ('', (-116.833333333334, 7.66666666666665, -1.87779175869261E-15));
#211 = CARTESIAN_POINT ('', (-116.666666666666, 7.83333333333334, -1.91861331866419E-15));
#212 = CARTESIAN_POINT ('', (-116.5, 8., -1.95943487863576E-15));
#213 = B_SPLINE_CURVE_WITH_KNOTS ('', 3, (#209, #210, #211, #212), .UNSPECIFIED., .F., .U., (4, 4), (0., 1.), .UNSPECIFIED.);
#214 = EDGE_CURVE ('', #177, #127, #213, .T.);
#215 = ORIENTED_EDGE ('', *, *, #214, .F.);
#216 = ORIENTED_EDGE ('', *, *, #191, .T.);
#217 = ORIENTED_EDGE ('', *, *, #214, .T.);
#218 = ORIENTED_EDGE ('', *, *, #142, .F.);
#219 = EDGE_LOOP ('', (#215, #216, #217, #218));
#220 = FACE_OUTER_BOUND ('', #219, .T.);
#221 = CARTESIAN_POINT ('', (-117., 7.5, -1.83697019872103E-15));
#222 = CARTESIAN_POINT ('', (-116.833333333334, 7.66666666666665, -1.87779175869261E-15));
#223 = CARTESIAN_POINT ('', (-116.666666666666, 7.83333333333334, -1.91861331866419E-15));
#224 = CARTESIAN_POINT ('', (-116.5, 8., -1.95943487863576E-15));
#225 = CARTESIAN_POINT ('', (-117., 7.49999999999998, 30.));
#226 = CARTESIAN_POINT ('', (-116.833333333334, 7.66666666666663, 30.6666666666666));
#227 = CARTESIAN_POINT ('', (-116.666666666666, 7.83333333333332, 31.3333333333333));
#228 = CARTESIAN_POINT ('', (-116.5, 7.99999999999998, 32.));
#229 = CARTESIAN_POINT ('', (-117., -22.5, 15.));
#230 = CARTESIAN_POINT ('', (-116.833333333334, -22.9999999999999, 15.3333333333333));
#231 = CARTESIAN_POINT ('', (-116.666666666666, -23.5, 15.6666666666666));
#232 = CARTESIAN_POINT ('', (-116.5, -24., 16.));
#233 = CARTESIAN_POINT ('', (-117., -22.5, -15.));
#234 = CARTESIAN_POINT ('', (-116.833333333334, -22.9999999999999, -15.3333333333333));
#235 = CARTESIAN_POINT ('', (-116.666666666666, -23.5, -15.6666666666667));
#236 = CARTESIAN_POINT ('', (-116.5, -24., -16.));
#237 = CARTESIAN_POINT ('', (-117., 7.50000000000002, -30.));
#238 = CARTESIAN_POINT ('', (-116.833333333334, 7.66666666666667, -30.6666666666666));
#239 = CARTESIAN_POINT ('', (-116.666666666666, 7.83333333333336, -31.3333333333333));
#240 = CARTESIAN_POINT ('', (-116.5, 8.00000000000002, -32.));
#241 = CARTESIAN_POINT ('', (-117., 7.5, -1.83697019872103E-15));
#242 = CARTESIAN_POINT ('', (-116.833333333334, 7.66666666666665, -1.87779175869261E-15));
#243 = CARTESIAN_POINT ('', (-116.666666666666, 7.83333333333334, -1.91861331866419E-15));
#244 = CARTESIAN_POINT ('', (-116.5, 8., -1.95943487863576E-15));
#245 = (
   BOUNDED_SURFACE ()
   B_SPLINE_SURFACE (5, 3, ((#221, #222, #223, #224), (#225, #226, #227, #228), (#229, #230, #231, #232), (#233, #234, #235, #236), (#237, #238, #239, #240), (#241, #242, #243, #244)), .UNSPECIFIED., .T., .F., .U.)
   B_SPLINE_SURFACE_WITH_KNOTS ((6, 6), (4, 4), (0., 1.), (0., 1.), .UNSPECIFIED.)
   SURFACE ()
   GEOMETRIC_REPRESENTATION_ITEM ()
   RATIONAL_B_SPLINE_SURFACE (((5., 5., 5., 5.), (1., 1., 1., 1.), (1., 1., 1., 1.), (1., 1., 1., 1.), (1., 1., 1., 1.), (5., 5., 5., 5.)))
   REPRESENTATION_ITEM ('')
);
#246 = ADVANCED_FACE ('', (#220), #245, .T.);
#247 = CARTESIAN_POINT ('', (0., 0., 0.));
#248 = VERTEX_POINT ('', #247);
#249 = CARTESIAN_POINT ('', (-2.53080795767904, 7.35, -1.80023079474661E-15));
#250 = CARTESIAN_POINT ('', (-1.68720530511936, 4.90000000000001, -1.20015386316441E-15));
#251 = CARTESIAN_POINT ('', (-0.84360265255968, 2.45, -6.00076931582203E-16));
#252 = CARTESIAN_POINT ('', (0., 0., 0.));
#253 = B_SPLINE_CURVE_WITH_KNOTS ('', 3, (#249, #250, #251, #252), .UNSPECIFIED., .F., .U., (4, 4), (0., 1.), .UNSPECIFIED.);
#254 = EDGE_CURVE ('', #23, #248, #253, .T.);
#255 = ORIENTED_EDGE ('', *, *, #254, .F.);
#256 = ORIENTED_EDGE ('', *, *, #48, .T.);
#257 = ORIENTED_EDGE ('', *, *, #254, .T.);
#258 = EDGE_LOOP ('', (#255, #256, #257));
#259 = FACE_OUTER_BOUND ('', #258, .T.);
#260 = CARTESIAN_POINT ('', (-2.53080795767904, 7.35, -1.80023079474661E-15));
#261 = CARTESIAN_POINT ('', (-1.68720530511936, 4.90000000000001, -1.20015386316441E-15));
#262 = CARTESIAN_POINT ('', (-0.84360265255968, 2.45, -6.00076931582203E-16));
#263 = CARTESIAN_POINT ('', (0., 0., 0.));
#264 = CARTESIAN_POINT ('', (-2.53080795767904, 7.35000000000001, 29.4));
#265 = CARTESIAN_POINT ('', (-1.68720530511936, 4.90000000000002, 19.6000000000001));
#266 = CARTESIAN_POINT ('', (-0.84360265255968, 2.45, 9.80000000000001));
#267 = CARTESIAN_POINT ('', (0., 0., 0.));
#268 = CARTESIAN_POINT ('', (-2.53080795767904, -22.05, 14.7));
#269 = CARTESIAN_POINT ('', (-1.68720530511936, -14.7, 9.80000000000003));
#270 = CARTESIAN_POINT ('', (-0.843602652559681, -7.35, 4.9));
#271 = CARTESIAN_POINT ('', (0., 0., 0.));
#272 = CARTESIAN_POINT ('', (-2.53080795767904, -22.05, -14.7));
#273 = CARTESIAN_POINT ('', (-1.68720530511936, -14.7, -9.80000000000002));
#274 = CARTESIAN_POINT ('', (-0.84360265255968, -7.35000000000001, -4.9));
#275 = CARTESIAN_POINT ('', (0., 0., 0.));
#276 = CARTESIAN_POINT ('', (-2.53080795767904, 7.35, -29.4));
#277 = CARTESIAN_POINT ('', (-1.68720530511936, 4.90000000000001, -19.6000000000001));
#278 = CARTESIAN_POINT ('', (-0.843602652559679, 2.45, -9.80000000000001));
#279 = CARTESIAN_POINT ('', (0., 0., 0.));
#280 = CARTESIAN_POINT ('', (-2.53080795767904, 7.35, -1.80023079474661E-15));
#281 = CARTESIAN_POINT ('', (-1.68720530511936, 4.90000000000001, -1.20015386316441E-15));
#282 = CARTESIAN_POINT ('', (-0.84360265255968, 2.45, -6.00076931582203E-16));
#283 = CARTESIAN_POINT ('', (0., 0., 0.));
#284 = (
   BOUNDED_SURFACE ()
   B_SPLINE_SURFACE (5, 3, ((#260, #261, #262, #263), (#264, #265, #266, #267), (#268, #269, #270, #271), (#272, #273, #274, #275), (#276, #277, #278, #279), (#280, #281, #282, #283)), .UNSPECIFIED., .T., .F., .U.)
   B_SPLINE_SURFACE_WITH_KNOTS ((6, 6), (4, 4), (0., 1.), (0., 1.), .UNSPECIFIED.)
   SURFACE ()
   GEOMETRIC_REPRESENTATION_ITEM ()
   RATIONAL_B_SPLINE_SURFACE (((5., 5., 5., 5.), (1., 1., 1., 1.), (1., 1., 1., 1.), (1., 1., 1., 1.), (1., 1., 1., 1.), (5., 5., 5., 5.)))
   REPRESENTATION_ITEM ('')
);
#285 = ADVANCED_FACE ('', (#259), #284, .T.);
#286 = CLOSED_SHELL ('', (#77, #125, #173, #208, #246, #285));
#287 = MANIFOLD_SOLID_BREP ('', #286);
#288 = (
   LENGTH_UNIT ()
   NAMED_UNIT (*)
   SI_UNIT (.MILLI., .METRE.)
);
#289 = (
   NAMED_UNIT (*)
   SI_UNIT ($, .STERADIAN.)
   SOLID_ANGLE_UNIT ()
);
#290 = (
   NAMED_UNIT (*)
   SI_UNIT ($, .RADIAN.)
   PLANE_ANGLE_UNIT ()
);
#291 = UNCERTAINTY_MEASURE_WITH_UNIT (LENGTH_MEASURE(0.001), #288, 'DISTANCE_ACCURACY_VALUE', '');
#292 = (
   GEOMETRIC_REPRESENTATION_CONTEXT (3)
   GLOBAL_UNCERTAINTY_ASSIGNED_CONTEXT ((#291))
   GLOBAL_UNIT_ASSIGNED_CONTEXT ((#288, #289, #290))
   REPRESENTATION_CONTEXT ('', '3D')
);
#293 = SHAPE_REPRESENTATION ('', (), #292);
#294 = APPLICATION_CONTEXT ('configuration controlled 3D designs of mechanical parts and assemblies');
#295 = APPLICATION_PROTOCOL_DEFINITION ('International Standard', 'config_control_design', 1997, #294);
#296 = MECHANICAL_CONTEXT ('', #294, 'mechanical');
#297 = PRODUCT ('', '', '', (#296));
#298 = PERSON_AND_ORGANIZATION_ROLE ('design_owner');
#299 = PERSON ('', '', $, $, $, $);
#300 = ORGANIZATION ($, '', '');
#301 = PERSON_AND_ORGANIZATION (#299, #300);
#302 = CC_DESIGN_PERSON_AND_ORGANIZATION_ASSIGNMENT (#301, #298, (#297));
#303 = PRODUCT_RELATED_PRODUCT_CATEGORY ('detail', $, (#297));
#304 = PRODUCT_DEFINITION_FORMATION_WITH_SPECIFIED_SOURCE ('', '', #297, .NOT_KNOWN.);
#305 = APPROVAL_STATUS ('approved');
#306 = APPROVAL (#305, '');
#307 = CALENDAR_DATE (2021, 15, 4);
#308 = COORDINATED_UNIVERSAL_TIME_OFFSET (0, $, .AHEAD.);
#309 = LOCAL_TIME (11, 3, 36., #308);
#310 = DATE_AND_TIME (#307, #309);
#311 = APPROVAL_DATE_TIME (#310, #306);
#312 = APPROVAL_ROLE ('');
#313 = PERSON ('', '', $, $, $, $);
#314 = ORGANIZATION ($, '', '');
#315 = PERSON_AND_ORGANIZATION (#313, #314);
#316 = APPROVAL_PERSON_ORGANIZATION (#315, #306, #312);
#317 = CC_DESIGN_APPROVAL (#306, (#304));
#318 = PERSON_AND_ORGANIZATION_ROLE ('creator');
#319 = PERSON ('', '', $, $, $, $);
#320 = ORGANIZATION ($, '', '');
#321 = PERSON_AND_ORGANIZATION (#319, #320);
#322 = CC_DESIGN_PERSON_AND_ORGANIZATION_ASSIGNMENT (#321, #318, (#304));
#323 = PERSON_AND_ORGANIZATION_ROLE ('part_supplier');
#324 = PERSON ('', '', $, $, $, $);
#325 = ORGANIZATION ($, '', '');
#326 = PERSON_AND_ORGANIZATION (#324, #325);
#327 = CC_DESIGN_PERSON_AND_ORGANIZATION_ASSIGNMENT (#326, #323, (#304));
#328 = SECURITY_CLASSIFICATION_LEVEL ('unclassified');
#329 = SECURITY_CLASSIFICATION ('', '', #328);
#330 = APPROVAL_STATUS ('approved');
#331 = APPROVAL (#330, '');
#332 = CALENDAR_DATE (2021, 15, 4);
#333 = COORDINATED_UNIVERSAL_TIME_OFFSET (0, $, .AHEAD.);
#334 = LOCAL_TIME (11, 3, 36., #333);
#335 = DATE_AND_TIME (#332, #334);
#336 = APPROVAL_DATE_TIME (#335, #331);
#337 = APPROVAL_ROLE ('');
#338 = PERSON ('', '', $, $, $, $);
#339 = ORGANIZATION ($, '', '');
#340 = PERSON_AND_ORGANIZATION (#338, #339);
#341 = APPROVAL_PERSON_ORGANIZATION (#340, #331, #337);
#342 = CC_DESIGN_APPROVAL (#331, (#329));
#343 = DATE_TIME_ROLE ('classification_date');
#344 = CALENDAR_DATE (2021, 15, 4);
#345 = COORDINATED_UNIVERSAL_TIME_OFFSET (0, $, .AHEAD.);
#346 = LOCAL_TIME (11, 3, 36., #345);
#347 = DATE_AND_TIME (#344, #346);
#348 = CC_DESIGN_DATE_AND_TIME_ASSIGNMENT (#347, #343, (#329));
#349 = PERSON_AND_ORGANIZATION_ROLE ('classification_officer');
#350 = PERSON ('', '', $, $, $, $);
#351 = ORGANIZATION ($, '', '');
#352 = PERSON_AND_ORGANIZATION (#350, #351);
#353 = CC_DESIGN_PERSON_AND_ORGANIZATION_ASSIGNMENT (#352, #349, (#329));
#354 = CC_DESIGN_SECURITY_CLASSIFICATION (#329, (#304));
#355 = DESIGN_CONTEXT ('', #294, 'design');
#356 = PRODUCT_DEFINITION ('', '', #304, #355);
#357 = APPROVAL_STATUS ('approved');
#358 = APPROVAL (#357, '');
#359 = CALENDAR_DATE (2021, 15, 4);
#360 = COORDINATED_UNIVERSAL_TIME_OFFSET (0, $, .AHEAD.);
#361 = LOCAL_TIME (11, 3, 36., #360);
#362 = DATE_AND_TIME (#359, #361);
#363 = APPROVAL_DATE_TIME (#362, #358);
#364 = APPROVAL_ROLE ('');
#365 = PERSON ('', '', $, $, $, $);
#366 = ORGANIZATION ($, '', '');
#367 = PERSON_AND_ORGANIZATION (#365, #366);
#368 = APPROVAL_PERSON_ORGANIZATION (#367, #358, #364);
#369 = CC_DESIGN_APPROVAL (#358, (#356));
#370 = DATE_TIME_ROLE ('creation_date');
#371 = CALENDAR_DATE (2021, 15, 4);
#372 = COORDINATED_UNIVERSAL_TIME_OFFSET (0, $, .AHEAD.);
#373 = LOCAL_TIME (11, 3, 36., #372);
#374 = DATE_AND_TIME (#371, #373);
#375 = CC_DESIGN_DATE_AND_TIME_ASSIGNMENT (#374, #370, (#356));
#376 = PERSON_AND_ORGANIZATION_ROLE ('creator');
#377 = PERSON ('', '', $, $, $, $);
#378 = ORGANIZATION ($, '', '');
#379 = PERSON_AND_ORGANIZATION (#377, #378);
#380 = CC_DESIGN_PERSON_AND_ORGANIZATION_ASSIGNMENT (#379, #376, (#356));
#381 = PRODUCT_DEFINITION_SHAPE ('', '', #356);
#382 = SHAPE_DEFINITION_REPRESENTATION (#381, #293);
#383 = SHAPE_REPRESENTATION_RELATIONSHIP ('', '', #293, #384);
#384 = GEOMETRICALLY_BOUNDED_WIREFRAME_SHAPE_REPRESENTATION ('', (#4), #292);
#385 = SHAPE_REPRESENTATION_RELATIONSHIP ('', '', #293, #386);
#386 = ADVANCED_BREP_SHAPE_REPRESENTATION ('', (#287), #292);
ENDSEC;
END-ISO-10303-21;
