ISO-10303-21;
HEADER;
FILE_DESCRIPTION ((), '1');
FILE_NAME ('D:\\Documents\\Mark Dainty\\2XDSS\\2XDSSM1550A.STP', '2021-04-15T11:12:17', ('Unknown'), ('M A Ford Europe'), 'OneCNC-XR8 Mill 3D Expert', 'OneCNC-XR8 Mill 3D Expert', '');
FILE_SCHEMA (('CONFIG_CONTROL_DESIGN'));
ENDSEC;

DATA;
#1 = CARTESIAN_POINT ('', (-60., 8., 0.));
#2 = CARTESIAN_POINT ('', (-60., 7.75, 0.));
#3 = B_SPLINE_CURVE_WITH_KNOTS ('', 1, (#1, #2), .UNSPECIFIED., .F., .U., (2, 2), (0., 1.), .UNSPECIFIED.);
#4 = GEOMETRIC_CURVE_SET ('', (#3, #7, #10, #13, #16));
#5 = CARTESIAN_POINT ('', (-2.6685390029949, 7.75, 0.));
#6 = CARTESIAN_POINT ('', (0., 0., 0.));
#7 = B_SPLINE_CURVE_WITH_KNOTS ('', 1, (#5, #6), .UNSPECIFIED., .F., .U., (2, 2), (0., 1.), .UNSPECIFIED.);
#8 = CARTESIAN_POINT ('', (-60., 7.75, 0.));
#9 = CARTESIAN_POINT ('', (-2.6685390029949, 7.75, 0.));
#10 = B_SPLINE_CURVE_WITH_KNOTS ('', 1, (#8, #9), .UNSPECIFIED., .F., .U., (2, 2), (0., 1.), .UNSPECIFIED.);
#11 = CARTESIAN_POINT ('', (-116.5, 8., 0.));
#12 = CARTESIAN_POINT ('', (-60., 8., 0.));
#13 = B_SPLINE_CURVE_WITH_KNOTS ('', 1, (#11, #12), .UNSPECIFIED., .F., .U., (2, 2), (0., 1.), .UNSPECIFIED.);
#14 = CARTESIAN_POINT ('', (-117., 7.5, 0.));
#15 = CARTESIAN_POINT ('', (-116.5, 8., 0.));
#16 = B_SPLINE_CURVE_WITH_KNOTS ('', 1, (#14, #15), .UNSPECIFIED., .F., .U., (2, 2), (0., 1.), .UNSPECIFIED.);
#17 = CARTESIAN_POINT ('', (-2.6685390029949, 7.75, -1.8982025386784E-15));
#18 = VERTEX_POINT ('', #17);
#19 = CARTESIAN_POINT ('', (0., 0., 0.));
#20 = VERTEX_POINT ('', #19);
#21 = CARTESIAN_POINT ('', (-2.6685390029949, 7.75, -1.8982025386784E-15));
#22 = CARTESIAN_POINT ('', (-1.7790260019966, 5.16666666666666, -1.26546835911893E-15));
#23 = CARTESIAN_POINT ('', (-0.889513000998302, 2.58333333333333, -6.32734179559466E-16));
#24 = CARTESIAN_POINT ('', (0., 0., 0.));
#25 = B_SPLINE_CURVE_WITH_KNOTS ('', 3, (#21, #22, #23, #24), .UNSPECIFIED., .F., .U., (4, 4), (0., 1.), .UNSPECIFIED.);
#26 = EDGE_CURVE ('', #18, #20, #25, .T.);
#27 = ORIENTED_EDGE ('', *, *, #26, .F.);
#28 = CARTESIAN_POINT ('', (-2.6685390029949, 7.75, -1.8982025386784E-15));
#29 = CARTESIAN_POINT ('', (-2.66853900299491, 7.75000000000001, 31.));
#30 = CARTESIAN_POINT ('', (-2.66853900299491, -23.25, 15.5));
#31 = CARTESIAN_POINT ('', (-2.66853900299491, -23.25, -15.5));
#32 = CARTESIAN_POINT ('', (-2.6685390029949, 7.74999999999999, -31.));
#33 = CARTESIAN_POINT ('', (-2.6685390029949, 7.75, -1.8982025386784E-15));
#34 = (
   BOUNDED_CURVE ()
   B_SPLINE_CURVE (5, (#28, #29, #30, #31, #32, #33), .UNSPECIFIED., .T., .U.)
   B_SPLINE_CURVE_WITH_KNOTS ((6, 6), (0., 1.), .UNSPECIFIED.)
   CURVE ()
   GEOMETRIC_REPRESENTATION_ITEM ()
   RATIONAL_B_SPLINE_CURVE ((5., 1., 1., 1., 1., 5.))
   REPRESENTATION_ITEM ('')
);
#35 = EDGE_CURVE ('', #18, #18, #34, .T.);
#36 = ORIENTED_EDGE ('', *, *, #35, .T.);
#37 = ORIENTED_EDGE ('', *, *, #26, .T.);
#38 = EDGE_LOOP ('', (#27, #36, #37));
#39 = FACE_OUTER_BOUND ('', #38, .T.);
#40 = CARTESIAN_POINT ('', (-2.6685390029949, 7.75, -1.8982025386784E-15));
#41 = CARTESIAN_POINT ('', (-1.7790260019966, 5.16666666666666, -1.26546835911893E-15));
#42 = CARTESIAN_POINT ('', (-0.889513000998302, 2.58333333333333, -6.32734179559466E-16));
#43 = CARTESIAN_POINT ('', (0., 0., 0.));
#44 = CARTESIAN_POINT ('', (-2.66853900299491, 7.75000000000001, 31.));
#45 = CARTESIAN_POINT ('', (-1.7790260019966, 5.16666666666667, 20.6666666666666));
#46 = CARTESIAN_POINT ('', (-0.889513000998302, 2.58333333333334, 10.3333333333333));
#47 = CARTESIAN_POINT ('', (0., 0., 0.));
#48 = CARTESIAN_POINT ('', (-2.66853900299491, -23.25, 15.5));
#49 = CARTESIAN_POINT ('', (-1.7790260019966, -15.5, 10.3333333333333));
#50 = CARTESIAN_POINT ('', (-0.889513000998302, -7.75, 5.16666666666667));
#51 = CARTESIAN_POINT ('', (0., 0., 0.));
#52 = CARTESIAN_POINT ('', (-2.66853900299491, -23.25, -15.5));
#53 = CARTESIAN_POINT ('', (-1.7790260019966, -15.5, -10.3333333333333));
#54 = CARTESIAN_POINT ('', (-0.889513000998302, -7.75, -5.16666666666666));
#55 = CARTESIAN_POINT ('', (0., 0., 0.));
#56 = CARTESIAN_POINT ('', (-2.6685390029949, 7.74999999999999, -31.));
#57 = CARTESIAN_POINT ('', (-1.7790260019966, 5.16666666666666, -20.6666666666666));
#58 = CARTESIAN_POINT ('', (-0.889513000998301, 2.58333333333333, -10.3333333333333));
#59 = CARTESIAN_POINT ('', (0., 0., 0.));
#60 = CARTESIAN_POINT ('', (-2.6685390029949, 7.75, -1.8982025386784E-15));
#61 = CARTESIAN_POINT ('', (-1.7790260019966, 5.16666666666666, -1.26546835911893E-15));
#62 = CARTESIAN_POINT ('', (-0.889513000998302, 2.58333333333333, -6.32734179559466E-16));
#63 = CARTESIAN_POINT ('', (0., 0., 0.));
#64 = (
   BOUNDED_SURFACE ()
   B_SPLINE_SURFACE (5, 3, ((#40, #41, #42, #43), (#44, #45, #46, #47), (#48, #49, #50, #51), (#52, #53, #54, #55), (#56, #57, #58, #59), (#60, #61, #62, #63)), .UNSPECIFIED., .T., .F., .U.)
   B_SPLINE_SURFACE_WITH_KNOTS ((6, 6), (4, 4), (0., 1.), (0., 1.), .UNSPECIFIED.)
   SURFACE ()
   GEOMETRIC_REPRESENTATION_ITEM ()
   RATIONAL_B_SPLINE_SURFACE (((5., 5., 5., 5.), (1., 1., 1., 1.), (1., 1., 1., 1.), (1., 1., 1., 1.), (1., 1., 1., 1.), (5., 5., 5., 5.)))
   REPRESENTATION_ITEM ('')
);
#65 = ADVANCED_FACE ('', (#39), #64, .T.);
#66 = CARTESIAN_POINT ('', (-60., 7.75, -1.8982025386784E-15));
#67 = VERTEX_POINT ('', #66);
#68 = CARTESIAN_POINT ('', (-60., 7.75, -1.8982025386784E-15));
#69 = CARTESIAN_POINT ('', (-40.8895130009983, 7.75, -1.8982025386784E-15));
#70 = CARTESIAN_POINT ('', (-21.7790260019966, 7.74999999999998, -1.89820253867839E-15));
#71 = CARTESIAN_POINT ('', (-2.6685390029949, 7.75, -1.8982025386784E-15));
#72 = B_SPLINE_CURVE_WITH_KNOTS ('', 3, (#68, #69, #70, #71), .UNSPECIFIED., .F., .U., (4, 4), (0., 1.), .UNSPECIFIED.);
#73 = EDGE_CURVE ('', #67, #18, #72, .T.);
#74 = ORIENTED_EDGE ('', *, *, #73, .F.);
#75 = CARTESIAN_POINT ('', (-60., 7.75, -1.8982025386784E-15));
#76 = CARTESIAN_POINT ('', (-60., 7.74999999999999, 31.));
#77 = CARTESIAN_POINT ('', (-60., -23.25, 15.5));
#78 = CARTESIAN_POINT ('', (-60., -23.25, -15.5));
#79 = CARTESIAN_POINT ('', (-60., 7.75000000000001, -31.));
#80 = CARTESIAN_POINT ('', (-60., 7.75, -1.8982025386784E-15));
#81 = (
   BOUNDED_CURVE ()
   B_SPLINE_CURVE (5, (#75, #76, #77, #78, #79, #80), .UNSPECIFIED., .T., .U.)
   B_SPLINE_CURVE_WITH_KNOTS ((6, 6), (0., 1.), .UNSPECIFIED.)
   CURVE ()
   GEOMETRIC_REPRESENTATION_ITEM ()
   RATIONAL_B_SPLINE_CURVE ((5., 1., 1., 1., 1., 5.))
   REPRESENTATION_ITEM ('')
);
#82 = EDGE_CURVE ('', #67, #67, #81, .T.);
#83 = ORIENTED_EDGE ('', *, *, #82, .T.);
#84 = ORIENTED_EDGE ('', *, *, #73, .T.);
#85 = ORIENTED_EDGE ('', *, *, #35, .F.);
#86 = EDGE_LOOP ('', (#74, #83, #84, #85));
#87 = FACE_OUTER_BOUND ('', #86, .T.);
#88 = CARTESIAN_POINT ('', (-60., 7.75, -1.8982025386784E-15));
#89 = CARTESIAN_POINT ('', (-40.8895130009983, 7.75, -1.8982025386784E-15));
#90 = CARTESIAN_POINT ('', (-21.7790260019966, 7.74999999999998, -1.89820253867839E-15));
#91 = CARTESIAN_POINT ('', (-2.6685390029949, 7.75, -1.8982025386784E-15));
#92 = CARTESIAN_POINT ('', (-60., 7.74999999999999, 31.));
#93 = CARTESIAN_POINT ('', (-40.8895130009983, 7.75, 31.));
#94 = CARTESIAN_POINT ('', (-21.7790260019966, 7.74999999999998, 30.9999999999999));
#95 = CARTESIAN_POINT ('', (-2.66853900299491, 7.75000000000001, 31.));
#96 = CARTESIAN_POINT ('', (-60., -23.25, 15.5));
#97 = CARTESIAN_POINT ('', (-40.8895130009983, -23.25, 15.5));
#98 = CARTESIAN_POINT ('', (-21.7790260019966, -23.2499999999999, 15.5));
#99 = CARTESIAN_POINT ('', (-2.66853900299491, -23.25, 15.5));
#100 = CARTESIAN_POINT ('', (-60., -23.25, -15.5));
#101 = CARTESIAN_POINT ('', (-40.8895130009983, -23.25, -15.5));
#102 = CARTESIAN_POINT ('', (-21.7790260019966, -23.2499999999999, -15.5));
#103 = CARTESIAN_POINT ('', (-2.66853900299491, -23.25, -15.5));
#104 = CARTESIAN_POINT ('', (-60., 7.75000000000001, -31.));
#105 = CARTESIAN_POINT ('', (-40.8895130009983, 7.75, -31.));
#106 = CARTESIAN_POINT ('', (-21.7790260019966, 7.74999999999998, -30.9999999999999));
#107 = CARTESIAN_POINT ('', (-2.6685390029949, 7.74999999999999, -31.));
#108 = CARTESIAN_POINT ('', (-60., 7.75, -1.8982025386784E-15));
#109 = CARTESIAN_POINT ('', (-40.8895130009983, 7.75, -1.8982025386784E-15));
#110 = CARTESIAN_POINT ('', (-21.7790260019966, 7.74999999999998, -1.89820253867839E-15));
#111 = CARTESIAN_POINT ('', (-2.6685390029949, 7.75, -1.8982025386784E-15));
#112 = (
   BOUNDED_SURFACE ()
   B_SPLINE_SURFACE (5, 3, ((#88, #89, #90, #91), (#92, #93, #94, #95), (#96, #97, #98, #99), (#100, #101, #102, #103), (#104, #105, #106, #107), (#108, #109, #110, #111)), .UNSPECIFIED., .T., .F., .U.)
   B_SPLINE_SURFACE_WITH_KNOTS ((6, 6), (4, 4), (0., 1.), (0., 1.), .UNSPECIFIED.)
   SURFACE ()
   GEOMETRIC_REPRESENTATION_ITEM ()
   RATIONAL_B_SPLINE_SURFACE (((5., 5., 5., 5.), (1., 1., 1., 1.), (1., 1., 1., 1.), (1., 1., 1., 1.), (1., 1., 1., 1.), (5., 5., 5., 5.)))
   REPRESENTATION_ITEM ('')
);
#113 = ADVANCED_FACE ('', (#87), #112, .T.);
#114 = CARTESIAN_POINT ('', (-60., 8., -1.95943487863576E-15));
#115 = VERTEX_POINT ('', #114);
#116 = CARTESIAN_POINT ('', (-60., 8., -1.95943487863576E-15));
#117 = CARTESIAN_POINT ('', (-60., 7.91666666666666, -1.93902409864997E-15));
#118 = CARTESIAN_POINT ('', (-60., 7.83333333333335, -1.91861331866419E-15));
#119 = CARTESIAN_POINT ('', (-60., 7.75, -1.8982025386784E-15));
#120 = B_SPLINE_CURVE_WITH_KNOTS ('', 3, (#116, #117, #118, #119), .UNSPECIFIED., .F., .U., (4, 4), (0., 1.), .UNSPECIFIED.);
#121 = EDGE_CURVE ('', #115, #67, #120, .T.);
#122 = ORIENTED_EDGE ('', *, *, #121, .F.);
#123 = CARTESIAN_POINT ('', (-60., 8., -1.95943487863576E-15));
#124 = CARTESIAN_POINT ('', (-60., 7.99999999999999, 32.));
#125 = CARTESIAN_POINT ('', (-60., -24., 16.));
#126 = CARTESIAN_POINT ('', (-60., -24., -16.));
#127 = CARTESIAN_POINT ('', (-60., 8.00000000000001, -32.));
#128 = CARTESIAN_POINT ('', (-60., 8., -1.95943487863576E-15));
#129 = (
   BOUNDED_CURVE ()
   B_SPLINE_CURVE (5, (#123, #124, #125, #126, #127, #128), .UNSPECIFIED., .T., .U.)
   B_SPLINE_CURVE_WITH_KNOTS ((6, 6), (0., 1.), .UNSPECIFIED.)
   CURVE ()
   GEOMETRIC_REPRESENTATION_ITEM ()
   RATIONAL_B_SPLINE_CURVE ((5., 1., 1., 1., 1., 5.))
   REPRESENTATION_ITEM ('')
);
#130 = EDGE_CURVE ('', #115, #115, #129, .T.);
#131 = ORIENTED_EDGE ('', *, *, #130, .T.);
#132 = ORIENTED_EDGE ('', *, *, #121, .T.);
#133 = ORIENTED_EDGE ('', *, *, #82, .F.);
#134 = EDGE_LOOP ('', (#122, #131, #132, #133));
#135 = FACE_OUTER_BOUND ('', #134, .T.);
#136 = CARTESIAN_POINT ('', (-60., 8., -1.95943487863576E-15));
#137 = CARTESIAN_POINT ('', (-60., 7.91666666666666, -1.93902409864997E-15));
#138 = CARTESIAN_POINT ('', (-60., 7.83333333333335, -1.91861331866419E-15));
#139 = CARTESIAN_POINT ('', (-60., 7.75, -1.8982025386784E-15));
#140 = CARTESIAN_POINT ('', (-60., 7.99999999999999, 32.));
#141 = CARTESIAN_POINT ('', (-60., 7.91666666666665, 31.6666666666666));
#142 = CARTESIAN_POINT ('', (-60., 7.83333333333334, 31.3333333333334));
#143 = CARTESIAN_POINT ('', (-60., 7.74999999999999, 31.));
#144 = CARTESIAN_POINT ('', (-60., -24., 16.));
#145 = CARTESIAN_POINT ('', (-60., -23.75, 15.8333333333333));
#146 = CARTESIAN_POINT ('', (-60., -23.5, 15.6666666666667));
#147 = CARTESIAN_POINT ('', (-60., -23.25, 15.5));
#148 = CARTESIAN_POINT ('', (-60., -24., -16.));
#149 = CARTESIAN_POINT ('', (-60., -23.75, -15.8333333333333));
#150 = CARTESIAN_POINT ('', (-60., -23.5, -15.6666666666667));
#151 = CARTESIAN_POINT ('', (-60., -23.25, -15.5));
#152 = CARTESIAN_POINT ('', (-60., 8.00000000000001, -32.));
#153 = CARTESIAN_POINT ('', (-60., 7.91666666666667, -31.6666666666666));
#154 = CARTESIAN_POINT ('', (-60., 7.83333333333336, -31.3333333333334));
#155 = CARTESIAN_POINT ('', (-60., 7.75000000000001, -31.));
#156 = CARTESIAN_POINT ('', (-60., 8., -1.95943487863576E-15));
#157 = CARTESIAN_POINT ('', (-60., 7.91666666666666, -1.93902409864997E-15));
#158 = CARTESIAN_POINT ('', (-60., 7.83333333333335, -1.91861331866419E-15));
#159 = CARTESIAN_POINT ('', (-60., 7.75, -1.8982025386784E-15));
#160 = (
   BOUNDED_SURFACE ()
   B_SPLINE_SURFACE (5, 3, ((#136, #137, #138, #139), (#140, #141, #142, #143), (#144, #145, #146, #147), (#148, #149, #150, #151), (#152, #153, #154, #155), (#156, #157, #158, #159)), .UNSPECIFIED., .T., .F., .U.)
   B_SPLINE_SURFACE_WITH_KNOTS ((6, 6), (4, 4), (0., 1.), (0., 1.), .UNSPECIFIED.)
   SURFACE ()
   GEOMETRIC_REPRESENTATION_ITEM ()
   RATIONAL_B_SPLINE_SURFACE (((5., 5., 5., 5.), (1., 1., 1., 1.), (1., 1., 1., 1.), (1., 1., 1., 1.), (1., 1., 1., 1.), (5., 5., 5., 5.)))
   REPRESENTATION_ITEM ('')
);
#161 = ADVANCED_FACE ('', (#135), #160, .T.);
#162 = CARTESIAN_POINT ('', (-116.5, 8., -1.95943487863576E-15));
#163 = VERTEX_POINT ('', #162);
#164 = CARTESIAN_POINT ('', (-116.5, 8., -1.95943487863576E-15));
#165 = CARTESIAN_POINT ('', (-97.6666666666667, 8., -1.95943487863576E-15));
#166 = CARTESIAN_POINT ('', (-78.8333333333333, 8., -1.95943487863576E-15));
#167 = CARTESIAN_POINT ('', (-60., 8., -1.95943487863576E-15));
#168 = B_SPLINE_CURVE_WITH_KNOTS ('', 3, (#164, #165, #166, #167), .UNSPECIFIED., .F., .U., (4, 4), (0., 1.), .UNSPECIFIED.);
#169 = EDGE_CURVE ('', #163, #115, #168, .T.);
#170 = ORIENTED_EDGE ('', *, *, #169, .F.);
#171 = CARTESIAN_POINT ('', (-116.5, 8., -1.95943487863576E-15));
#172 = CARTESIAN_POINT ('', (-116.5, 7.99999999999998, 32.));
#173 = CARTESIAN_POINT ('', (-116.5, -24., 16.));
#174 = CARTESIAN_POINT ('', (-116.5, -24., -16.));
#175 = CARTESIAN_POINT ('', (-116.5, 8.00000000000002, -32.));
#176 = CARTESIAN_POINT ('', (-116.5, 8., -1.95943487863576E-15));
#177 = (
   BOUNDED_CURVE ()
   B_SPLINE_CURVE (5, (#171, #172, #173, #174, #175, #176), .UNSPECIFIED., .T., .U.)
   B_SPLINE_CURVE_WITH_KNOTS ((6, 6), (0., 1.), .UNSPECIFIED.)
   CURVE ()
   GEOMETRIC_REPRESENTATION_ITEM ()
   RATIONAL_B_SPLINE_CURVE ((5., 1., 1., 1., 1., 5.))
   REPRESENTATION_ITEM ('')
);
#178 = EDGE_CURVE ('', #163, #163, #177, .T.);
#179 = ORIENTED_EDGE ('', *, *, #178, .T.);
#180 = ORIENTED_EDGE ('', *, *, #169, .T.);
#181 = ORIENTED_EDGE ('', *, *, #130, .F.);
#182 = EDGE_LOOP ('', (#170, #179, #180, #181));
#183 = FACE_OUTER_BOUND ('', #182, .T.);
#184 = CARTESIAN_POINT ('', (-116.5, 8., -1.95943487863576E-15));
#185 = CARTESIAN_POINT ('', (-97.6666666666667, 8., -1.95943487863576E-15));
#186 = CARTESIAN_POINT ('', (-78.8333333333333, 8., -1.95943487863576E-15));
#187 = CARTESIAN_POINT ('', (-60., 8., -1.95943487863576E-15));
#188 = CARTESIAN_POINT ('', (-116.5, 7.99999999999998, 32.));
#189 = CARTESIAN_POINT ('', (-97.6666666666667, 7.99999999999998, 32.));
#190 = CARTESIAN_POINT ('', (-78.8333333333333, 7.99999999999999, 32.));
#191 = CARTESIAN_POINT ('', (-60., 7.99999999999999, 32.));
#192 = CARTESIAN_POINT ('', (-116.5, -24., 16.));
#193 = CARTESIAN_POINT ('', (-97.6666666666667, -24., 16.));
#194 = CARTESIAN_POINT ('', (-78.8333333333333, -24., 16.));
#195 = CARTESIAN_POINT ('', (-60., -24., 16.));
#196 = CARTESIAN_POINT ('', (-116.5, -24., -16.));
#197 = CARTESIAN_POINT ('', (-97.6666666666667, -24., -16.));
#198 = CARTESIAN_POINT ('', (-78.8333333333333, -24., -16.));
#199 = CARTESIAN_POINT ('', (-60., -24., -16.));
#200 = CARTESIAN_POINT ('', (-116.5, 8.00000000000002, -32.));
#201 = CARTESIAN_POINT ('', (-97.6666666666667, 8.00000000000002, -32.));
#202 = CARTESIAN_POINT ('', (-78.8333333333333, 8.00000000000001, -32.));
#203 = CARTESIAN_POINT ('', (-60., 8.00000000000001, -32.));
#204 = CARTESIAN_POINT ('', (-116.5, 8., -1.95943487863576E-15));
#205 = CARTESIAN_POINT ('', (-97.6666666666667, 8., -1.95943487863576E-15));
#206 = CARTESIAN_POINT ('', (-78.8333333333333, 8., -1.95943487863576E-15));
#207 = CARTESIAN_POINT ('', (-60., 8., -1.95943487863576E-15));
#208 = (
   BOUNDED_SURFACE ()
   B_SPLINE_SURFACE (5, 3, ((#184, #185, #186, #187), (#188, #189, #190, #191), (#192, #193, #194, #195), (#196, #197, #198, #199), (#200, #201, #202, #203), (#204, #205, #206, #207)), .UNSPECIFIED., .T., .F., .U.)
   B_SPLINE_SURFACE_WITH_KNOTS ((6, 6), (4, 4), (0., 1.), (0., 1.), .UNSPECIFIED.)
   SURFACE ()
   GEOMETRIC_REPRESENTATION_ITEM ()
   RATIONAL_B_SPLINE_SURFACE (((5., 5., 5., 5.), (1., 1., 1., 1.), (1., 1., 1., 1.), (1., 1., 1., 1.), (1., 1., 1., 1.), (5., 5., 5., 5.)))
   REPRESENTATION_ITEM ('')
);
#209 = ADVANCED_FACE ('', (#183), #208, .T.);
#210 = CARTESIAN_POINT ('', (-117., 7.16418377501202E-15, -7.16418377501202E-15));
#211 = VERTEX_POINT ('', #210);
#212 = CARTESIAN_POINT ('', (-117., 7.5, -1.83697019872103E-15));
#213 = VERTEX_POINT ('', #212);
#214 = CARTESIAN_POINT ('', (-117., 7.16418377501202E-15, -7.16418377501202E-15));
#215 = CARTESIAN_POINT ('', (-117., 7.5, -1.83697019872103E-15));
#216 = B_SPLINE_CURVE_WITH_KNOTS ('', 1, (#214, #215), .UNSPECIFIED., .F., .U., (2, 2), (0., 1.), .UNSPECIFIED.);
#217 = EDGE_CURVE ('', #211, #213, #216, .T.);
#218 = ORIENTED_EDGE ('', *, *, #217, .F.);
#219 = ORIENTED_EDGE ('', *, *, #217, .T.);
#220 = CARTESIAN_POINT ('', (-117., 7.5, -1.83697019872103E-15));
#221 = CARTESIAN_POINT ('', (-117., 7.49999999999998, 30.));
#222 = CARTESIAN_POINT ('', (-117., -22.5, 15.));
#223 = CARTESIAN_POINT ('', (-117., -22.5, -15.));
#224 = CARTESIAN_POINT ('', (-117., 7.50000000000002, -30.));
#225 = CARTESIAN_POINT ('', (-117., 7.5, -1.83697019872103E-15));
#226 = (
   BOUNDED_CURVE ()
   B_SPLINE_CURVE (5, (#220, #221, #222, #223, #224, #225), .UNSPECIFIED., .T., .U.)
   B_SPLINE_CURVE_WITH_KNOTS ((6, 6), (0., 1.), .UNSPECIFIED.)
   CURVE ()
   GEOMETRIC_REPRESENTATION_ITEM ()
   RATIONAL_B_SPLINE_CURVE ((5., 1., 1., 1., 1., 5.))
   REPRESENTATION_ITEM ('')
);
#227 = EDGE_CURVE ('', #213, #213, #226, .T.);
#228 = ORIENTED_EDGE ('', *, *, #227, .F.);
#229 = EDGE_LOOP ('', (#218, #219, #228));
#230 = FACE_OUTER_BOUND ('', #229, .T.);
#231 = CARTESIAN_POINT ('', (-117., 7.16418377501202E-15, -7.16418377501202E-15));
#232 = CARTESIAN_POINT ('', (-117., 7.5, -1.83697019872103E-15));
#233 = CARTESIAN_POINT ('', (-117., 7.16418377501202E-15, -7.16418377501202E-15));
#234 = CARTESIAN_POINT ('', (-117., 7.49999999999998, 30.));
#235 = CARTESIAN_POINT ('', (-117., 7.16418377501202E-15, -7.16418377501202E-15));
#236 = CARTESIAN_POINT ('', (-117., -22.5, 15.));
#237 = CARTESIAN_POINT ('', (-117., 7.16418377501202E-15, -7.16418377501202E-15));
#238 = CARTESIAN_POINT ('', (-117., -22.5, -15.));
#239 = CARTESIAN_POINT ('', (-117., 7.16418377501202E-15, -7.16418377501202E-15));
#240 = CARTESIAN_POINT ('', (-117., 7.50000000000002, -30.));
#241 = CARTESIAN_POINT ('', (-117., 7.16418377501202E-15, -7.16418377501202E-15));
#242 = CARTESIAN_POINT ('', (-117., 7.5, -1.83697019872103E-15));
#243 = (
   BOUNDED_SURFACE ()
   B_SPLINE_SURFACE (5, 1, ((#231, #232), (#233, #234), (#235, #236), (#237, #238), (#239, #240), (#241, #242)), .UNSPECIFIED., .T., .F., .U.)
   B_SPLINE_SURFACE_WITH_KNOTS ((6, 6), (2, 2), (0., 1.), (0., 1.), .UNSPECIFIED.)
   SURFACE ()
   GEOMETRIC_REPRESENTATION_ITEM ()
   RATIONAL_B_SPLINE_SURFACE (((5., 5.), (1., 1.), (1., 1.), (1., 1.), (1., 1.), (5., 5.)))
   REPRESENTATION_ITEM ('')
);
#244 = ADVANCED_FACE ('', (#230), #243, .T.);
#245 = CARTESIAN_POINT ('', (-117., 7.5, -1.83697019872103E-15));
#246 = CARTESIAN_POINT ('', (-116.833333333334, 7.66666666666665, -1.87779175869261E-15));
#247 = CARTESIAN_POINT ('', (-116.666666666666, 7.83333333333334, -1.91861331866419E-15));
#248 = CARTESIAN_POINT ('', (-116.5, 8., -1.95943487863576E-15));
#249 = B_SPLINE_CURVE_WITH_KNOTS ('', 3, (#245, #246, #247, #248), .UNSPECIFIED., .F., .U., (4, 4), (0., 1.), .UNSPECIFIED.);
#250 = EDGE_CURVE ('', #213, #163, #249, .T.);
#251 = ORIENTED_EDGE ('', *, *, #250, .F.);
#252 = ORIENTED_EDGE ('', *, *, #227, .T.);
#253 = ORIENTED_EDGE ('', *, *, #250, .T.);
#254 = ORIENTED_EDGE ('', *, *, #178, .F.);
#255 = EDGE_LOOP ('', (#251, #252, #253, #254));
#256 = FACE_OUTER_BOUND ('', #255, .T.);
#257 = CARTESIAN_POINT ('', (-117., 7.5, -1.83697019872103E-15));
#258 = CARTESIAN_POINT ('', (-116.833333333334, 7.66666666666665, -1.87779175869261E-15));
#259 = CARTESIAN_POINT ('', (-116.666666666666, 7.83333333333334, -1.91861331866419E-15));
#260 = CARTESIAN_POINT ('', (-116.5, 8., -1.95943487863576E-15));
#261 = CARTESIAN_POINT ('', (-117., 7.49999999999998, 30.));
#262 = CARTESIAN_POINT ('', (-116.833333333334, 7.66666666666663, 30.6666666666666));
#263 = CARTESIAN_POINT ('', (-116.666666666666, 7.83333333333332, 31.3333333333333));
#264 = CARTESIAN_POINT ('', (-116.5, 7.99999999999998, 32.));
#265 = CARTESIAN_POINT ('', (-117., -22.5, 15.));
#266 = CARTESIAN_POINT ('', (-116.833333333334, -22.9999999999999, 15.3333333333333));
#267 = CARTESIAN_POINT ('', (-116.666666666666, -23.5, 15.6666666666666));
#268 = CARTESIAN_POINT ('', (-116.5, -24., 16.));
#269 = CARTESIAN_POINT ('', (-117., -22.5, -15.));
#270 = CARTESIAN_POINT ('', (-116.833333333334, -22.9999999999999, -15.3333333333333));
#271 = CARTESIAN_POINT ('', (-116.666666666666, -23.5, -15.6666666666667));
#272 = CARTESIAN_POINT ('', (-116.5, -24., -16.));
#273 = CARTESIAN_POINT ('', (-117., 7.50000000000002, -30.));
#274 = CARTESIAN_POINT ('', (-116.833333333334, 7.66666666666667, -30.6666666666666));
#275 = CARTESIAN_POINT ('', (-116.666666666666, 7.83333333333336, -31.3333333333333));
#276 = CARTESIAN_POINT ('', (-116.5, 8.00000000000002, -32.));
#277 = CARTESIAN_POINT ('', (-117., 7.5, -1.83697019872103E-15));
#278 = CARTESIAN_POINT ('', (-116.833333333334, 7.66666666666665, -1.87779175869261E-15));
#279 = CARTESIAN_POINT ('', (-116.666666666666, 7.83333333333334, -1.91861331866419E-15));
#280 = CARTESIAN_POINT ('', (-116.5, 8., -1.95943487863576E-15));
#281 = (
   BOUNDED_SURFACE ()
   B_SPLINE_SURFACE (5, 3, ((#257, #258, #259, #260), (#261, #262, #263, #264), (#265, #266, #267, #268), (#269, #270, #271, #272), (#273, #274, #275, #276), (#277, #278, #279, #280)), .UNSPECIFIED., .T., .F., .U.)
   B_SPLINE_SURFACE_WITH_KNOTS ((6, 6), (4, 4), (0., 1.), (0., 1.), .UNSPECIFIED.)
   SURFACE ()
   GEOMETRIC_REPRESENTATION_ITEM ()
   RATIONAL_B_SPLINE_SURFACE (((5., 5., 5., 5.), (1., 1., 1., 1.), (1., 1., 1., 1.), (1., 1., 1., 1.), (1., 1., 1., 1.), (5., 5., 5., 5.)))
   REPRESENTATION_ITEM ('')
);
#282 = ADVANCED_FACE ('', (#256), #281, .T.);
#283 = CLOSED_SHELL ('', (#65, #113, #161, #209, #244, #282));
#284 = MANIFOLD_SOLID_BREP ('', #283);
#285 = (
   LENGTH_UNIT ()
   NAMED_UNIT (*)
   SI_UNIT (.MILLI., .METRE.)
);
#286 = (
   NAMED_UNIT (*)
   SI_UNIT ($, .STERADIAN.)
   SOLID_ANGLE_UNIT ()
);
#287 = (
   NAMED_UNIT (*)
   SI_UNIT ($, .RADIAN.)
   PLANE_ANGLE_UNIT ()
);
#288 = UNCERTAINTY_MEASURE_WITH_UNIT (LENGTH_MEASURE(0.001), #285, 'DISTANCE_ACCURACY_VALUE', '');
#289 = (
   GEOMETRIC_REPRESENTATION_CONTEXT (3)
   GLOBAL_UNCERTAINTY_ASSIGNED_CONTEXT ((#288))
   GLOBAL_UNIT_ASSIGNED_CONTEXT ((#285, #286, #287))
   REPRESENTATION_CONTEXT ('', '3D')
);
#290 = SHAPE_REPRESENTATION ('', (), #289);
#291 = APPLICATION_CONTEXT ('configuration controlled 3D designs of mechanical parts and assemblies');
#292 = APPLICATION_PROTOCOL_DEFINITION ('International Standard', 'config_control_design', 1997, #291);
#293 = MECHANICAL_CONTEXT ('', #291, 'mechanical');
#294 = PRODUCT ('', '', '', (#293));
#295 = PERSON_AND_ORGANIZATION_ROLE ('design_owner');
#296 = PERSON ('', '', $, $, $, $);
#297 = ORGANIZATION ($, '', '');
#298 = PERSON_AND_ORGANIZATION (#296, #297);
#299 = CC_DESIGN_PERSON_AND_ORGANIZATION_ASSIGNMENT (#298, #295, (#294));
#300 = PRODUCT_RELATED_PRODUCT_CATEGORY ('detail', $, (#294));
#301 = PRODUCT_DEFINITION_FORMATION_WITH_SPECIFIED_SOURCE ('', '', #294, .NOT_KNOWN.);
#302 = APPROVAL_STATUS ('approved');
#303 = APPROVAL (#302, '');
#304 = CALENDAR_DATE (2021, 15, 4);
#305 = COORDINATED_UNIVERSAL_TIME_OFFSET (0, $, .AHEAD.);
#306 = LOCAL_TIME (11, 12, 17., #305);
#307 = DATE_AND_TIME (#304, #306);
#308 = APPROVAL_DATE_TIME (#307, #303);
#309 = APPROVAL_ROLE ('');
#310 = PERSON ('', '', $, $, $, $);
#311 = ORGANIZATION ($, '', '');
#312 = PERSON_AND_ORGANIZATION (#310, #311);
#313 = APPROVAL_PERSON_ORGANIZATION (#312, #303, #309);
#314 = CC_DESIGN_APPROVAL (#303, (#301));
#315 = PERSON_AND_ORGANIZATION_ROLE ('creator');
#316 = PERSON ('', '', $, $, $, $);
#317 = ORGANIZATION ($, '', '');
#318 = PERSON_AND_ORGANIZATION (#316, #317);
#319 = CC_DESIGN_PERSON_AND_ORGANIZATION_ASSIGNMENT (#318, #315, (#301));
#320 = PERSON_AND_ORGANIZATION_ROLE ('part_supplier');
#321 = PERSON ('', '', $, $, $, $);
#322 = ORGANIZATION ($, '', '');
#323 = PERSON_AND_ORGANIZATION (#321, #322);
#324 = CC_DESIGN_PERSON_AND_ORGANIZATION_ASSIGNMENT (#323, #320, (#301));
#325 = SECURITY_CLASSIFICATION_LEVEL ('unclassified');
#326 = SECURITY_CLASSIFICATION ('', '', #325);
#327 = APPROVAL_STATUS ('approved');
#328 = APPROVAL (#327, '');
#329 = CALENDAR_DATE (2021, 15, 4);
#330 = COORDINATED_UNIVERSAL_TIME_OFFSET (0, $, .AHEAD.);
#331 = LOCAL_TIME (11, 12, 17., #330);
#332 = DATE_AND_TIME (#329, #331);
#333 = APPROVAL_DATE_TIME (#332, #328);
#334 = APPROVAL_ROLE ('');
#335 = PERSON ('', '', $, $, $, $);
#336 = ORGANIZATION ($, '', '');
#337 = PERSON_AND_ORGANIZATION (#335, #336);
#338 = APPROVAL_PERSON_ORGANIZATION (#337, #328, #334);
#339 = CC_DESIGN_APPROVAL (#328, (#326));
#340 = DATE_TIME_ROLE ('classification_date');
#341 = CALENDAR_DATE (2021, 15, 4);
#342 = COORDINATED_UNIVERSAL_TIME_OFFSET (0, $, .AHEAD.);
#343 = LOCAL_TIME (11, 12, 17., #342);
#344 = DATE_AND_TIME (#341, #343);
#345 = CC_DESIGN_DATE_AND_TIME_ASSIGNMENT (#344, #340, (#326));
#346 = PERSON_AND_ORGANIZATION_ROLE ('classification_officer');
#347 = PERSON ('', '', $, $, $, $);
#348 = ORGANIZATION ($, '', '');
#349 = PERSON_AND_ORGANIZATION (#347, #348);
#350 = CC_DESIGN_PERSON_AND_ORGANIZATION_ASSIGNMENT (#349, #346, (#326));
#351 = CC_DESIGN_SECURITY_CLASSIFICATION (#326, (#301));
#352 = DESIGN_CONTEXT ('', #291, 'design');
#353 = PRODUCT_DEFINITION ('', '', #301, #352);
#354 = APPROVAL_STATUS ('approved');
#355 = APPROVAL (#354, '');
#356 = CALENDAR_DATE (2021, 15, 4);
#357 = COORDINATED_UNIVERSAL_TIME_OFFSET (0, $, .AHEAD.);
#358 = LOCAL_TIME (11, 12, 17., #357);
#359 = DATE_AND_TIME (#356, #358);
#360 = APPROVAL_DATE_TIME (#359, #355);
#361 = APPROVAL_ROLE ('');
#362 = PERSON ('', '', $, $, $, $);
#363 = ORGANIZATION ($, '', '');
#364 = PERSON_AND_ORGANIZATION (#362, #363);
#365 = APPROVAL_PERSON_ORGANIZATION (#364, #355, #361);
#366 = CC_DESIGN_APPROVAL (#355, (#353));
#367 = DATE_TIME_ROLE ('creation_date');
#368 = CALENDAR_DATE (2021, 15, 4);
#369 = COORDINATED_UNIVERSAL_TIME_OFFSET (0, $, .AHEAD.);
#370 = LOCAL_TIME (11, 12, 17., #369);
#371 = DATE_AND_TIME (#368, #370);
#372 = CC_DESIGN_DATE_AND_TIME_ASSIGNMENT (#371, #367, (#353));
#373 = PERSON_AND_ORGANIZATION_ROLE ('creator');
#374 = PERSON ('', '', $, $, $, $);
#375 = ORGANIZATION ($, '', '');
#376 = PERSON_AND_ORGANIZATION (#374, #375);
#377 = CC_DESIGN_PERSON_AND_ORGANIZATION_ASSIGNMENT (#376, #373, (#353));
#378 = PRODUCT_DEFINITION_SHAPE ('', '', #353);
#379 = SHAPE_DEFINITION_REPRESENTATION (#378, #290);
#380 = SHAPE_REPRESENTATION_RELATIONSHIP ('', '', #290, #381);
#381 = GEOMETRICALLY_BOUNDED_WIREFRAME_SHAPE_REPRESENTATION ('', (#4), #289);
#382 = SHAPE_REPRESENTATION_RELATIONSHIP ('', '', #290, #383);
#383 = ADVANCED_BREP_SHAPE_REPRESENTATION ('', (#284), #289);
ENDSEC;
END-ISO-10303-21;
