ISO-10303-21;
HEADER;
FILE_DESCRIPTION ((), '1');
FILE_NAME ('D:\\Documents\\Mark Dainty\\2XDSS\\2XDSSM1570A.STP', '2021-04-15T11:14:52', ('Unknown'), ('M A Ford Europe'), 'OneCNC-XR8 Mill 3D Expert', 'OneCNC-XR8 Mill 3D Expert', '');
FILE_SCHEMA (('CONFIG_CONTROL_DESIGN'));
ENDSEC;

DATA;
#1 = CARTESIAN_POINT ('', (-60., 8., 0.));
#2 = CARTESIAN_POINT ('', (-60., 7.85, 0.));
#3 = B_SPLINE_CURVE_WITH_KNOTS ('', 1, (#1, #2), .UNSPECIFIED., .F., .U., (2, 2), (0., 1.), .UNSPECIFIED.);
#4 = GEOMETRIC_CURVE_SET ('', (#3, #7, #10, #13, #16));
#5 = CARTESIAN_POINT ('', (-2.70297176432387, 7.85, 0.));
#6 = CARTESIAN_POINT ('', (0., 0., 0.));
#7 = B_SPLINE_CURVE_WITH_KNOTS ('', 1, (#5, #6), .UNSPECIFIED., .F., .U., (2, 2), (0., 1.), .UNSPECIFIED.);
#8 = CARTESIAN_POINT ('', (-60., 7.85, 0.));
#9 = CARTESIAN_POINT ('', (-2.70297176432388, 7.85, 0.));
#10 = B_SPLINE_CURVE_WITH_KNOTS ('', 1, (#8, #9), .UNSPECIFIED., .F., .U., (2, 2), (0., 1.), .UNSPECIFIED.);
#11 = CARTESIAN_POINT ('', (-116.5, 8., 0.));
#12 = CARTESIAN_POINT ('', (-60., 8., 0.));
#13 = B_SPLINE_CURVE_WITH_KNOTS ('', 1, (#11, #12), .UNSPECIFIED., .F., .U., (2, 2), (0., 1.), .UNSPECIFIED.);
#14 = CARTESIAN_POINT ('', (-117., 7.5, 0.));
#15 = CARTESIAN_POINT ('', (-116.5, 8., 0.));
#16 = B_SPLINE_CURVE_WITH_KNOTS ('', 1, (#14, #15), .UNSPECIFIED., .F., .U., (2, 2), (0., 1.), .UNSPECIFIED.);
#17 = CARTESIAN_POINT ('', (-60., 7.85, -1.92269547466134E-15));
#18 = VERTEX_POINT ('', #17);
#19 = CARTESIAN_POINT ('', (-2.70297176432388, 7.85, -1.92269547466134E-15));
#20 = VERTEX_POINT ('', #19);
#21 = CARTESIAN_POINT ('', (-60., 7.85, -1.92269547466134E-15));
#22 = CARTESIAN_POINT ('', (-40.9009905881078, 7.85000000000001, -1.92269547466135E-15));
#23 = CARTESIAN_POINT ('', (-21.8019811762159, 7.85000000000002, -1.92269547466135E-15));
#24 = CARTESIAN_POINT ('', (-2.70297176432388, 7.85, -1.92269547466134E-15));
#25 = B_SPLINE_CURVE_WITH_KNOTS ('', 3, (#21, #22, #23, #24), .UNSPECIFIED., .F., .U., (4, 4), (0., 1.), .UNSPECIFIED.);
#26 = EDGE_CURVE ('', #18, #20, #25, .T.);
#27 = ORIENTED_EDGE ('', *, *, #26, .F.);
#28 = CARTESIAN_POINT ('', (-60., 7.85, -1.92269547466134E-15));
#29 = CARTESIAN_POINT ('', (-60., 7.84999999999999, 31.4));
#30 = CARTESIAN_POINT ('', (-60., -23.55, 15.7));
#31 = CARTESIAN_POINT ('', (-60., -23.55, -15.7));
#32 = CARTESIAN_POINT ('', (-60., 7.85000000000001, -31.4));
#33 = CARTESIAN_POINT ('', (-60., 7.85, -1.92269547466134E-15));
#34 = (
   BOUNDED_CURVE ()
   B_SPLINE_CURVE (5, (#28, #29, #30, #31, #32, #33), .UNSPECIFIED., .T., .U.)
   B_SPLINE_CURVE_WITH_KNOTS ((6, 6), (0., 1.), .UNSPECIFIED.)
   CURVE ()
   GEOMETRIC_REPRESENTATION_ITEM ()
   RATIONAL_B_SPLINE_CURVE ((5., 1., 1., 1., 1., 5.))
   REPRESENTATION_ITEM ('')
);
#35 = EDGE_CURVE ('', #18, #18, #34, .T.);
#36 = ORIENTED_EDGE ('', *, *, #35, .T.);
#37 = ORIENTED_EDGE ('', *, *, #26, .T.);
#38 = CARTESIAN_POINT ('', (-2.70297176432387, 7.85, -1.92269547466135E-15));
#39 = CARTESIAN_POINT ('', (-2.70297176432387, 7.85000000000001, 31.4));
#40 = CARTESIAN_POINT ('', (-2.70297176432388, -23.55, 15.7));
#41 = CARTESIAN_POINT ('', (-2.70297176432387, -23.55, -15.7));
#42 = CARTESIAN_POINT ('', (-2.70297176432387, 7.85, -31.4));
#43 = CARTESIAN_POINT ('', (-2.70297176432387, 7.85, -1.92269547466135E-15));
#44 = (
   BOUNDED_CURVE ()
   B_SPLINE_CURVE (5, (#38, #39, #40, #41, #42, #43), .UNSPECIFIED., .T., .U.)
   B_SPLINE_CURVE_WITH_KNOTS ((6, 6), (0., 1.), .UNSPECIFIED.)
   CURVE ()
   GEOMETRIC_REPRESENTATION_ITEM ()
   RATIONAL_B_SPLINE_CURVE ((5., 1., 1., 1., 1., 5.))
   REPRESENTATION_ITEM ('')
);
#45 = EDGE_CURVE ('', #20, #20, #44, .T.);
#46 = ORIENTED_EDGE ('', *, *, #45, .F.);
#47 = EDGE_LOOP ('', (#27, #36, #37, #46));
#48 = FACE_OUTER_BOUND ('', #47, .T.);
#49 = CARTESIAN_POINT ('', (-60., 7.85, -1.92269547466134E-15));
#50 = CARTESIAN_POINT ('', (-40.9009905881078, 7.85000000000001, -1.92269547466135E-15));
#51 = CARTESIAN_POINT ('', (-21.8019811762159, 7.85000000000002, -1.92269547466135E-15));
#52 = CARTESIAN_POINT ('', (-2.70297176432388, 7.85, -1.92269547466134E-15));
#53 = CARTESIAN_POINT ('', (-60., 7.84999999999999, 31.4));
#54 = CARTESIAN_POINT ('', (-40.9009905881078, 7.85000000000001, 31.4));
#55 = CARTESIAN_POINT ('', (-21.8019811762159, 7.85000000000003, 31.4000000000001));
#56 = CARTESIAN_POINT ('', (-2.70297176432388, 7.85000000000001, 31.4));
#57 = CARTESIAN_POINT ('', (-60., -23.55, 15.7));
#58 = CARTESIAN_POINT ('', (-40.9009905881078, -23.55, 15.7));
#59 = CARTESIAN_POINT ('', (-21.8019811762159, -23.5500000000001, 15.7));
#60 = CARTESIAN_POINT ('', (-2.70297176432388, -23.55, 15.7));
#61 = CARTESIAN_POINT ('', (-60., -23.55, -15.7));
#62 = CARTESIAN_POINT ('', (-40.9009905881078, -23.55, -15.7));
#63 = CARTESIAN_POINT ('', (-21.8019811762159, -23.5500000000001, -15.7));
#64 = CARTESIAN_POINT ('', (-2.70297176432388, -23.55, -15.7));
#65 = CARTESIAN_POINT ('', (-60., 7.85000000000001, -31.4));
#66 = CARTESIAN_POINT ('', (-40.9009905881078, 7.85000000000001, -31.4));
#67 = CARTESIAN_POINT ('', (-21.8019811762159, 7.85000000000002, -31.4000000000001));
#68 = CARTESIAN_POINT ('', (-2.70297176432388, 7.84999999999999, -31.4));
#69 = CARTESIAN_POINT ('', (-60., 7.85, -1.92269547466134E-15));
#70 = CARTESIAN_POINT ('', (-40.9009905881078, 7.85000000000001, -1.92269547466135E-15));
#71 = CARTESIAN_POINT ('', (-21.8019811762159, 7.85000000000002, -1.92269547466135E-15));
#72 = CARTESIAN_POINT ('', (-2.70297176432388, 7.85, -1.92269547466134E-15));
#73 = (
   BOUNDED_SURFACE ()
   B_SPLINE_SURFACE (5, 3, ((#49, #50, #51, #52), (#53, #54, #55, #56), (#57, #58, #59, #60), (#61, #62, #63, #64), (#65, #66, #67, #68), (#69, #70, #71, #72)), .UNSPECIFIED., .T., .F., .U.)
   B_SPLINE_SURFACE_WITH_KNOTS ((6, 6), (4, 4), (0., 1.), (0., 1.), .UNSPECIFIED.)
   SURFACE ()
   GEOMETRIC_REPRESENTATION_ITEM ()
   RATIONAL_B_SPLINE_SURFACE (((5., 5., 5., 5.), (1., 1., 1., 1.), (1., 1., 1., 1.), (1., 1., 1., 1.), (1., 1., 1., 1.), (5., 5., 5., 5.)))
   REPRESENTATION_ITEM ('')
);
#74 = ADVANCED_FACE ('', (#48), #73, .T.);
#75 = CARTESIAN_POINT ('', (-60., 8., -1.95943487863576E-15));
#76 = VERTEX_POINT ('', #75);
#77 = CARTESIAN_POINT ('', (-60., 8., -1.95943487863576E-15));
#78 = CARTESIAN_POINT ('', (-59.9999999999999, 7.94999999999999, -1.94718841064429E-15));
#79 = CARTESIAN_POINT ('', (-60., 7.90000000000001, -1.93494194265282E-15));
#80 = CARTESIAN_POINT ('', (-60., 7.85, -1.92269547466134E-15));
#81 = B_SPLINE_CURVE_WITH_KNOTS ('', 3, (#77, #78, #79, #80), .UNSPECIFIED., .F., .U., (4, 4), (0., 1.), .UNSPECIFIED.);
#82 = EDGE_CURVE ('', #76, #18, #81, .T.);
#83 = ORIENTED_EDGE ('', *, *, #82, .F.);
#84 = CARTESIAN_POINT ('', (-60., 8., -1.95943487863576E-15));
#85 = CARTESIAN_POINT ('', (-60., 7.99999999999999, 32.));
#86 = CARTESIAN_POINT ('', (-60., -24., 16.));
#87 = CARTESIAN_POINT ('', (-60., -24., -16.));
#88 = CARTESIAN_POINT ('', (-60., 8.00000000000001, -32.));
#89 = CARTESIAN_POINT ('', (-60., 8., -1.95943487863576E-15));
#90 = (
   BOUNDED_CURVE ()
   B_SPLINE_CURVE (5, (#84, #85, #86, #87, #88, #89), .UNSPECIFIED., .T., .U.)
   B_SPLINE_CURVE_WITH_KNOTS ((6, 6), (0., 1.), .UNSPECIFIED.)
   CURVE ()
   GEOMETRIC_REPRESENTATION_ITEM ()
   RATIONAL_B_SPLINE_CURVE ((5., 1., 1., 1., 1., 5.))
   REPRESENTATION_ITEM ('')
);
#91 = EDGE_CURVE ('', #76, #76, #90, .T.);
#92 = ORIENTED_EDGE ('', *, *, #91, .T.);
#93 = ORIENTED_EDGE ('', *, *, #82, .T.);
#94 = ORIENTED_EDGE ('', *, *, #35, .F.);
#95 = EDGE_LOOP ('', (#83, #92, #93, #94));
#96 = FACE_OUTER_BOUND ('', #95, .T.);
#97 = CARTESIAN_POINT ('', (-60., 8., -1.95943487863576E-15));
#98 = CARTESIAN_POINT ('', (-59.9999999999999, 7.94999999999999, -1.94718841064429E-15));
#99 = CARTESIAN_POINT ('', (-60., 7.90000000000001, -1.93494194265282E-15));
#100 = CARTESIAN_POINT ('', (-60., 7.85, -1.92269547466134E-15));
#101 = CARTESIAN_POINT ('', (-60., 7.99999999999999, 32.));
#102 = CARTESIAN_POINT ('', (-59.9999999999999, 7.94999999999998, 31.7999999999999));
#103 = CARTESIAN_POINT ('', (-60., 7.9, 31.6));
#104 = CARTESIAN_POINT ('', (-60., 7.84999999999999, 31.4));
#105 = CARTESIAN_POINT ('', (-60., -24., 16.));
#106 = CARTESIAN_POINT ('', (-59.9999999999999, -23.85, 15.9));
#107 = CARTESIAN_POINT ('', (-60., -23.7, 15.8));
#108 = CARTESIAN_POINT ('', (-60., -23.55, 15.7));
#109 = CARTESIAN_POINT ('', (-60., -24., -16.));
#110 = CARTESIAN_POINT ('', (-59.9999999999999, -23.8499999999999, -15.9));
#111 = CARTESIAN_POINT ('', (-60., -23.7, -15.8));
#112 = CARTESIAN_POINT ('', (-60., -23.55, -15.7));
#113 = CARTESIAN_POINT ('', (-60., 8.00000000000001, -32.));
#114 = CARTESIAN_POINT ('', (-59.9999999999999, 7.95, -31.7999999999999));
#115 = CARTESIAN_POINT ('', (-60., 7.90000000000002, -31.6));
#116 = CARTESIAN_POINT ('', (-60., 7.85000000000001, -31.4));
#117 = CARTESIAN_POINT ('', (-60., 8., -1.95943487863576E-15));
#118 = CARTESIAN_POINT ('', (-59.9999999999999, 7.94999999999999, -1.94718841064429E-15));
#119 = CARTESIAN_POINT ('', (-60., 7.90000000000001, -1.93494194265282E-15));
#120 = CARTESIAN_POINT ('', (-60., 7.85, -1.92269547466134E-15));
#121 = (
   BOUNDED_SURFACE ()
   B_SPLINE_SURFACE (5, 3, ((#97, #98, #99, #100), (#101, #102, #103, #104), (#105, #106, #107, #108), (#109, #110, #111, #112), (#113, #114, #115, #116), (#117, #118, #119, #120)), .UNSPECIFIED., .T., .F., .U.)
   B_SPLINE_SURFACE_WITH_KNOTS ((6, 6), (4, 4), (0., 1.), (0., 1.), .UNSPECIFIED.)
   SURFACE ()
   GEOMETRIC_REPRESENTATION_ITEM ()
   RATIONAL_B_SPLINE_SURFACE (((5., 5., 5., 5.), (1., 1., 1., 1.), (1., 1., 1., 1.), (1., 1., 1., 1.), (1., 1., 1., 1.), (5., 5., 5., 5.)))
   REPRESENTATION_ITEM ('')
);
#122 = ADVANCED_FACE ('', (#96), #121, .T.);
#123 = CARTESIAN_POINT ('', (-116.5, 8., -1.95943487863576E-15));
#124 = VERTEX_POINT ('', #123);
#125 = CARTESIAN_POINT ('', (-116.5, 8., -1.95943487863576E-15));
#126 = CARTESIAN_POINT ('', (-97.6666666666667, 8., -1.95943487863576E-15));
#127 = CARTESIAN_POINT ('', (-78.8333333333333, 8., -1.95943487863576E-15));
#128 = CARTESIAN_POINT ('', (-60., 8., -1.95943487863576E-15));
#129 = B_SPLINE_CURVE_WITH_KNOTS ('', 3, (#125, #126, #127, #128), .UNSPECIFIED., .F., .U., (4, 4), (0., 1.), .UNSPECIFIED.);
#130 = EDGE_CURVE ('', #124, #76, #129, .T.);
#131 = ORIENTED_EDGE ('', *, *, #130, .F.);
#132 = CARTESIAN_POINT ('', (-116.5, 8., -1.95943487863576E-15));
#133 = CARTESIAN_POINT ('', (-116.5, 7.99999999999998, 32.));
#134 = CARTESIAN_POINT ('', (-116.5, -24., 16.));
#135 = CARTESIAN_POINT ('', (-116.5, -24., -16.));
#136 = CARTESIAN_POINT ('', (-116.5, 8.00000000000002, -32.));
#137 = CARTESIAN_POINT ('', (-116.5, 8., -1.95943487863576E-15));
#138 = (
   BOUNDED_CURVE ()
   B_SPLINE_CURVE (5, (#132, #133, #134, #135, #136, #137), .UNSPECIFIED., .T., .U.)
   B_SPLINE_CURVE_WITH_KNOTS ((6, 6), (0., 1.), .UNSPECIFIED.)
   CURVE ()
   GEOMETRIC_REPRESENTATION_ITEM ()
   RATIONAL_B_SPLINE_CURVE ((5., 1., 1., 1., 1., 5.))
   REPRESENTATION_ITEM ('')
);
#139 = EDGE_CURVE ('', #124, #124, #138, .T.);
#140 = ORIENTED_EDGE ('', *, *, #139, .T.);
#141 = ORIENTED_EDGE ('', *, *, #130, .T.);
#142 = ORIENTED_EDGE ('', *, *, #91, .F.);
#143 = EDGE_LOOP ('', (#131, #140, #141, #142));
#144 = FACE_OUTER_BOUND ('', #143, .T.);
#145 = CARTESIAN_POINT ('', (-116.5, 8., -1.95943487863576E-15));
#146 = CARTESIAN_POINT ('', (-97.6666666666667, 8., -1.95943487863576E-15));
#147 = CARTESIAN_POINT ('', (-78.8333333333333, 8., -1.95943487863576E-15));
#148 = CARTESIAN_POINT ('', (-60., 8., -1.95943487863576E-15));
#149 = CARTESIAN_POINT ('', (-116.5, 7.99999999999998, 32.));
#150 = CARTESIAN_POINT ('', (-97.6666666666667, 7.99999999999998, 32.));
#151 = CARTESIAN_POINT ('', (-78.8333333333333, 7.99999999999999, 32.));
#152 = CARTESIAN_POINT ('', (-60., 7.99999999999999, 32.));
#153 = CARTESIAN_POINT ('', (-116.5, -24., 16.));
#154 = CARTESIAN_POINT ('', (-97.6666666666667, -24., 16.));
#155 = CARTESIAN_POINT ('', (-78.8333333333333, -24., 16.));
#156 = CARTESIAN_POINT ('', (-60., -24., 16.));
#157 = CARTESIAN_POINT ('', (-116.5, -24., -16.));
#158 = CARTESIAN_POINT ('', (-97.6666666666667, -24., -16.));
#159 = CARTESIAN_POINT ('', (-78.8333333333333, -24., -16.));
#160 = CARTESIAN_POINT ('', (-60., -24., -16.));
#161 = CARTESIAN_POINT ('', (-116.5, 8.00000000000002, -32.));
#162 = CARTESIAN_POINT ('', (-97.6666666666667, 8.00000000000002, -32.));
#163 = CARTESIAN_POINT ('', (-78.8333333333333, 8.00000000000001, -32.));
#164 = CARTESIAN_POINT ('', (-60., 8.00000000000001, -32.));
#165 = CARTESIAN_POINT ('', (-116.5, 8., -1.95943487863576E-15));
#166 = CARTESIAN_POINT ('', (-97.6666666666667, 8., -1.95943487863576E-15));
#167 = CARTESIAN_POINT ('', (-78.8333333333333, 8., -1.95943487863576E-15));
#168 = CARTESIAN_POINT ('', (-60., 8., -1.95943487863576E-15));
#169 = (
   BOUNDED_SURFACE ()
   B_SPLINE_SURFACE (5, 3, ((#145, #146, #147, #148), (#149, #150, #151, #152), (#153, #154, #155, #156), (#157, #158, #159, #160), (#161, #162, #163, #164), (#165, #166, #167, #168)), .UNSPECIFIED., .T., .F., .U.)
   B_SPLINE_SURFACE_WITH_KNOTS ((6, 6), (4, 4), (0., 1.), (0., 1.), .UNSPECIFIED.)
   SURFACE ()
   GEOMETRIC_REPRESENTATION_ITEM ()
   RATIONAL_B_SPLINE_SURFACE (((5., 5., 5., 5.), (1., 1., 1., 1.), (1., 1., 1., 1.), (1., 1., 1., 1.), (1., 1., 1., 1.), (5., 5., 5., 5.)))
   REPRESENTATION_ITEM ('')
);
#170 = ADVANCED_FACE ('', (#144), #169, .T.);
#171 = CARTESIAN_POINT ('', (-117., 7.16418377501202E-15, -7.16418377501202E-15));
#172 = VERTEX_POINT ('', #171);
#173 = CARTESIAN_POINT ('', (-117., 7.5, -1.83697019872103E-15));
#174 = VERTEX_POINT ('', #173);
#175 = CARTESIAN_POINT ('', (-117., 7.16418377501202E-15, -7.16418377501202E-15));
#176 = CARTESIAN_POINT ('', (-117., 7.5, -1.83697019872103E-15));
#177 = B_SPLINE_CURVE_WITH_KNOTS ('', 1, (#175, #176), .UNSPECIFIED., .F., .U., (2, 2), (0., 1.), .UNSPECIFIED.);
#178 = EDGE_CURVE ('', #172, #174, #177, .T.);
#179 = ORIENTED_EDGE ('', *, *, #178, .F.);
#180 = ORIENTED_EDGE ('', *, *, #178, .T.);
#181 = CARTESIAN_POINT ('', (-117., 7.5, -1.83697019872103E-15));
#182 = CARTESIAN_POINT ('', (-117., 7.49999999999998, 30.));
#183 = CARTESIAN_POINT ('', (-117., -22.5, 15.));
#184 = CARTESIAN_POINT ('', (-117., -22.5, -15.));
#185 = CARTESIAN_POINT ('', (-117., 7.50000000000002, -30.));
#186 = CARTESIAN_POINT ('', (-117., 7.5, -1.83697019872103E-15));
#187 = (
   BOUNDED_CURVE ()
   B_SPLINE_CURVE (5, (#181, #182, #183, #184, #185, #186), .UNSPECIFIED., .T., .U.)
   B_SPLINE_CURVE_WITH_KNOTS ((6, 6), (0., 1.), .UNSPECIFIED.)
   CURVE ()
   GEOMETRIC_REPRESENTATION_ITEM ()
   RATIONAL_B_SPLINE_CURVE ((5., 1., 1., 1., 1., 5.))
   REPRESENTATION_ITEM ('')
);
#188 = EDGE_CURVE ('', #174, #174, #187, .T.);
#189 = ORIENTED_EDGE ('', *, *, #188, .F.);
#190 = EDGE_LOOP ('', (#179, #180, #189));
#191 = FACE_OUTER_BOUND ('', #190, .T.);
#192 = CARTESIAN_POINT ('', (-117., 7.16418377501202E-15, -7.16418377501202E-15));
#193 = CARTESIAN_POINT ('', (-117., 7.5, -1.83697019872103E-15));
#194 = CARTESIAN_POINT ('', (-117., 7.16418377501202E-15, -7.16418377501202E-15));
#195 = CARTESIAN_POINT ('', (-117., 7.49999999999998, 30.));
#196 = CARTESIAN_POINT ('', (-117., 7.16418377501202E-15, -7.16418377501202E-15));
#197 = CARTESIAN_POINT ('', (-117., -22.5, 15.));
#198 = CARTESIAN_POINT ('', (-117., 7.16418377501202E-15, -7.16418377501202E-15));
#199 = CARTESIAN_POINT ('', (-117., -22.5, -15.));
#200 = CARTESIAN_POINT ('', (-117., 7.16418377501202E-15, -7.16418377501202E-15));
#201 = CARTESIAN_POINT ('', (-117., 7.50000000000002, -30.));
#202 = CARTESIAN_POINT ('', (-117., 7.16418377501202E-15, -7.16418377501202E-15));
#203 = CARTESIAN_POINT ('', (-117., 7.5, -1.83697019872103E-15));
#204 = (
   BOUNDED_SURFACE ()
   B_SPLINE_SURFACE (5, 1, ((#192, #193), (#194, #195), (#196, #197), (#198, #199), (#200, #201), (#202, #203)), .UNSPECIFIED., .T., .F., .U.)
   B_SPLINE_SURFACE_WITH_KNOTS ((6, 6), (2, 2), (0., 1.), (0., 1.), .UNSPECIFIED.)
   SURFACE ()
   GEOMETRIC_REPRESENTATION_ITEM ()
   RATIONAL_B_SPLINE_SURFACE (((5., 5.), (1., 1.), (1., 1.), (1., 1.), (1., 1.), (5., 5.)))
   REPRESENTATION_ITEM ('')
);
#205 = ADVANCED_FACE ('', (#191), #204, .T.);
#206 = CARTESIAN_POINT ('', (-117., 7.5, -1.83697019872103E-15));
#207 = CARTESIAN_POINT ('', (-116.833333333334, 7.66666666666665, -1.87779175869261E-15));
#208 = CARTESIAN_POINT ('', (-116.666666666666, 7.83333333333334, -1.91861331866419E-15));
#209 = CARTESIAN_POINT ('', (-116.5, 8., -1.95943487863576E-15));
#210 = B_SPLINE_CURVE_WITH_KNOTS ('', 3, (#206, #207, #208, #209), .UNSPECIFIED., .F., .U., (4, 4), (0., 1.), .UNSPECIFIED.);
#211 = EDGE_CURVE ('', #174, #124, #210, .T.);
#212 = ORIENTED_EDGE ('', *, *, #211, .F.);
#213 = ORIENTED_EDGE ('', *, *, #188, .T.);
#214 = ORIENTED_EDGE ('', *, *, #211, .T.);
#215 = ORIENTED_EDGE ('', *, *, #139, .F.);
#216 = EDGE_LOOP ('', (#212, #213, #214, #215));
#217 = FACE_OUTER_BOUND ('', #216, .T.);
#218 = CARTESIAN_POINT ('', (-117., 7.5, -1.83697019872103E-15));
#219 = CARTESIAN_POINT ('', (-116.833333333334, 7.66666666666665, -1.87779175869261E-15));
#220 = CARTESIAN_POINT ('', (-116.666666666666, 7.83333333333334, -1.91861331866419E-15));
#221 = CARTESIAN_POINT ('', (-116.5, 8., -1.95943487863576E-15));
#222 = CARTESIAN_POINT ('', (-117., 7.49999999999998, 30.));
#223 = CARTESIAN_POINT ('', (-116.833333333334, 7.66666666666663, 30.6666666666666));
#224 = CARTESIAN_POINT ('', (-116.666666666666, 7.83333333333332, 31.3333333333333));
#225 = CARTESIAN_POINT ('', (-116.5, 7.99999999999998, 32.));
#226 = CARTESIAN_POINT ('', (-117., -22.5, 15.));
#227 = CARTESIAN_POINT ('', (-116.833333333334, -22.9999999999999, 15.3333333333333));
#228 = CARTESIAN_POINT ('', (-116.666666666666, -23.5, 15.6666666666666));
#229 = CARTESIAN_POINT ('', (-116.5, -24., 16.));
#230 = CARTESIAN_POINT ('', (-117., -22.5, -15.));
#231 = CARTESIAN_POINT ('', (-116.833333333334, -22.9999999999999, -15.3333333333333));
#232 = CARTESIAN_POINT ('', (-116.666666666666, -23.5, -15.6666666666667));
#233 = CARTESIAN_POINT ('', (-116.5, -24., -16.));
#234 = CARTESIAN_POINT ('', (-117., 7.50000000000002, -30.));
#235 = CARTESIAN_POINT ('', (-116.833333333334, 7.66666666666667, -30.6666666666666));
#236 = CARTESIAN_POINT ('', (-116.666666666666, 7.83333333333336, -31.3333333333333));
#237 = CARTESIAN_POINT ('', (-116.5, 8.00000000000002, -32.));
#238 = CARTESIAN_POINT ('', (-117., 7.5, -1.83697019872103E-15));
#239 = CARTESIAN_POINT ('', (-116.833333333334, 7.66666666666665, -1.87779175869261E-15));
#240 = CARTESIAN_POINT ('', (-116.666666666666, 7.83333333333334, -1.91861331866419E-15));
#241 = CARTESIAN_POINT ('', (-116.5, 8., -1.95943487863576E-15));
#242 = (
   BOUNDED_SURFACE ()
   B_SPLINE_SURFACE (5, 3, ((#218, #219, #220, #221), (#222, #223, #224, #225), (#226, #227, #228, #229), (#230, #231, #232, #233), (#234, #235, #236, #237), (#238, #239, #240, #241)), .UNSPECIFIED., .T., .F., .U.)
   B_SPLINE_SURFACE_WITH_KNOTS ((6, 6), (4, 4), (0., 1.), (0., 1.), .UNSPECIFIED.)
   SURFACE ()
   GEOMETRIC_REPRESENTATION_ITEM ()
   RATIONAL_B_SPLINE_SURFACE (((5., 5., 5., 5.), (1., 1., 1., 1.), (1., 1., 1., 1.), (1., 1., 1., 1.), (1., 1., 1., 1.), (5., 5., 5., 5.)))
   REPRESENTATION_ITEM ('')
);
#243 = ADVANCED_FACE ('', (#217), #242, .T.);
#244 = CARTESIAN_POINT ('', (0., 0., 0.));
#245 = VERTEX_POINT ('', #244);
#246 = CARTESIAN_POINT ('', (-2.70297176432387, 7.85, -1.92269547466135E-15));
#247 = CARTESIAN_POINT ('', (-1.80198117621591, 5.23333333333333, -1.28179698310756E-15));
#248 = CARTESIAN_POINT ('', (-0.900990588107957, 2.61666666666667, -6.40898491553781E-16));
#249 = CARTESIAN_POINT ('', (0., 0., 0.));
#250 = B_SPLINE_CURVE_WITH_KNOTS ('', 3, (#246, #247, #248, #249), .UNSPECIFIED., .F., .U., (4, 4), (0., 1.), .UNSPECIFIED.);
#251 = EDGE_CURVE ('', #20, #245, #250, .T.);
#252 = ORIENTED_EDGE ('', *, *, #251, .F.);
#253 = ORIENTED_EDGE ('', *, *, #45, .T.);
#254 = ORIENTED_EDGE ('', *, *, #251, .T.);
#255 = EDGE_LOOP ('', (#252, #253, #254));
#256 = FACE_OUTER_BOUND ('', #255, .T.);
#257 = CARTESIAN_POINT ('', (-2.70297176432387, 7.85, -1.92269547466135E-15));
#258 = CARTESIAN_POINT ('', (-1.80198117621591, 5.23333333333333, -1.28179698310756E-15));
#259 = CARTESIAN_POINT ('', (-0.900990588107957, 2.61666666666667, -6.40898491553781E-16));
#260 = CARTESIAN_POINT ('', (0., 0., 0.));
#261 = CARTESIAN_POINT ('', (-2.70297176432387, 7.85000000000001, 31.4));
#262 = CARTESIAN_POINT ('', (-1.80198117621592, 5.23333333333334, 20.9333333333333));
#263 = CARTESIAN_POINT ('', (-0.900990588107958, 2.61666666666667, 10.4666666666667));
#264 = CARTESIAN_POINT ('', (0., 0., 0.));
#265 = CARTESIAN_POINT ('', (-2.70297176432388, -23.55, 15.7));
#266 = CARTESIAN_POINT ('', (-1.80198117621592, -15.7, 10.4666666666667));
#267 = CARTESIAN_POINT ('', (-0.900990588107958, -7.85, 5.23333333333334));
#268 = CARTESIAN_POINT ('', (0., 0., 0.));
#269 = CARTESIAN_POINT ('', (-2.70297176432387, -23.55, -15.7));
#270 = CARTESIAN_POINT ('', (-1.80198117621592, -15.7, -10.4666666666667));
#271 = CARTESIAN_POINT ('', (-0.900990588107958, -7.85, -5.23333333333333));
#272 = CARTESIAN_POINT ('', (0., 0., 0.));
#273 = CARTESIAN_POINT ('', (-2.70297176432387, 7.85, -31.4));
#274 = CARTESIAN_POINT ('', (-1.80198117621591, 5.23333333333333, -20.9333333333333));
#275 = CARTESIAN_POINT ('', (-0.900990588107957, 2.61666666666666, -10.4666666666667));
#276 = CARTESIAN_POINT ('', (0., 0., 0.));
#277 = CARTESIAN_POINT ('', (-2.70297176432387, 7.85, -1.92269547466135E-15));
#278 = CARTESIAN_POINT ('', (-1.80198117621591, 5.23333333333333, -1.28179698310756E-15));
#279 = CARTESIAN_POINT ('', (-0.900990588107957, 2.61666666666667, -6.40898491553781E-16));
#280 = CARTESIAN_POINT ('', (0., 0., 0.));
#281 = (
   BOUNDED_SURFACE ()
   B_SPLINE_SURFACE (5, 3, ((#257, #258, #259, #260), (#261, #262, #263, #264), (#265, #266, #267, #268), (#269, #270, #271, #272), (#273, #274, #275, #276), (#277, #278, #279, #280)), .UNSPECIFIED., .T., .F., .U.)
   B_SPLINE_SURFACE_WITH_KNOTS ((6, 6), (4, 4), (0., 1.), (0., 1.), .UNSPECIFIED.)
   SURFACE ()
   GEOMETRIC_REPRESENTATION_ITEM ()
   RATIONAL_B_SPLINE_SURFACE (((5., 5., 5., 5.), (1., 1., 1., 1.), (1., 1., 1., 1.), (1., 1., 1., 1.), (1., 1., 1., 1.), (5., 5., 5., 5.)))
   REPRESENTATION_ITEM ('')
);
#282 = ADVANCED_FACE ('', (#256), #281, .T.);
#283 = CLOSED_SHELL ('', (#74, #122, #170, #205, #243, #282));
#284 = MANIFOLD_SOLID_BREP ('', #283);
#285 = (
   LENGTH_UNIT ()
   NAMED_UNIT (*)
   SI_UNIT (.MILLI., .METRE.)
);
#286 = (
   NAMED_UNIT (*)
   SI_UNIT ($, .STERADIAN.)
   SOLID_ANGLE_UNIT ()
);
#287 = (
   NAMED_UNIT (*)
   SI_UNIT ($, .RADIAN.)
   PLANE_ANGLE_UNIT ()
);
#288 = UNCERTAINTY_MEASURE_WITH_UNIT (LENGTH_MEASURE(0.001), #285, 'DISTANCE_ACCURACY_VALUE', '');
#289 = (
   GEOMETRIC_REPRESENTATION_CONTEXT (3)
   GLOBAL_UNCERTAINTY_ASSIGNED_CONTEXT ((#288))
   GLOBAL_UNIT_ASSIGNED_CONTEXT ((#285, #286, #287))
   REPRESENTATION_CONTEXT ('', '3D')
);
#290 = SHAPE_REPRESENTATION ('', (), #289);
#291 = APPLICATION_CONTEXT ('configuration controlled 3D designs of mechanical parts and assemblies');
#292 = APPLICATION_PROTOCOL_DEFINITION ('International Standard', 'config_control_design', 1997, #291);
#293 = MECHANICAL_CONTEXT ('', #291, 'mechanical');
#294 = PRODUCT ('', '', '', (#293));
#295 = PERSON_AND_ORGANIZATION_ROLE ('design_owner');
#296 = PERSON ('', '', $, $, $, $);
#297 = ORGANIZATION ($, '', '');
#298 = PERSON_AND_ORGANIZATION (#296, #297);
#299 = CC_DESIGN_PERSON_AND_ORGANIZATION_ASSIGNMENT (#298, #295, (#294));
#300 = PRODUCT_RELATED_PRODUCT_CATEGORY ('detail', $, (#294));
#301 = PRODUCT_DEFINITION_FORMATION_WITH_SPECIFIED_SOURCE ('', '', #294, .NOT_KNOWN.);
#302 = APPROVAL_STATUS ('approved');
#303 = APPROVAL (#302, '');
#304 = CALENDAR_DATE (2021, 15, 4);
#305 = COORDINATED_UNIVERSAL_TIME_OFFSET (0, $, .AHEAD.);
#306 = LOCAL_TIME (11, 14, 52., #305);
#307 = DATE_AND_TIME (#304, #306);
#308 = APPROVAL_DATE_TIME (#307, #303);
#309 = APPROVAL_ROLE ('');
#310 = PERSON ('', '', $, $, $, $);
#311 = ORGANIZATION ($, '', '');
#312 = PERSON_AND_ORGANIZATION (#310, #311);
#313 = APPROVAL_PERSON_ORGANIZATION (#312, #303, #309);
#314 = CC_DESIGN_APPROVAL (#303, (#301));
#315 = PERSON_AND_ORGANIZATION_ROLE ('creator');
#316 = PERSON ('', '', $, $, $, $);
#317 = ORGANIZATION ($, '', '');
#318 = PERSON_AND_ORGANIZATION (#316, #317);
#319 = CC_DESIGN_PERSON_AND_ORGANIZATION_ASSIGNMENT (#318, #315, (#301));
#320 = PERSON_AND_ORGANIZATION_ROLE ('part_supplier');
#321 = PERSON ('', '', $, $, $, $);
#322 = ORGANIZATION ($, '', '');
#323 = PERSON_AND_ORGANIZATION (#321, #322);
#324 = CC_DESIGN_PERSON_AND_ORGANIZATION_ASSIGNMENT (#323, #320, (#301));
#325 = SECURITY_CLASSIFICATION_LEVEL ('unclassified');
#326 = SECURITY_CLASSIFICATION ('', '', #325);
#327 = APPROVAL_STATUS ('approved');
#328 = APPROVAL (#327, '');
#329 = CALENDAR_DATE (2021, 15, 4);
#330 = COORDINATED_UNIVERSAL_TIME_OFFSET (0, $, .AHEAD.);
#331 = LOCAL_TIME (11, 14, 52., #330);
#332 = DATE_AND_TIME (#329, #331);
#333 = APPROVAL_DATE_TIME (#332, #328);
#334 = APPROVAL_ROLE ('');
#335 = PERSON ('', '', $, $, $, $);
#336 = ORGANIZATION ($, '', '');
#337 = PERSON_AND_ORGANIZATION (#335, #336);
#338 = APPROVAL_PERSON_ORGANIZATION (#337, #328, #334);
#339 = CC_DESIGN_APPROVAL (#328, (#326));
#340 = DATE_TIME_ROLE ('classification_date');
#341 = CALENDAR_DATE (2021, 15, 4);
#342 = COORDINATED_UNIVERSAL_TIME_OFFSET (0, $, .AHEAD.);
#343 = LOCAL_TIME (11, 14, 52., #342);
#344 = DATE_AND_TIME (#341, #343);
#345 = CC_DESIGN_DATE_AND_TIME_ASSIGNMENT (#344, #340, (#326));
#346 = PERSON_AND_ORGANIZATION_ROLE ('classification_officer');
#347 = PERSON ('', '', $, $, $, $);
#348 = ORGANIZATION ($, '', '');
#349 = PERSON_AND_ORGANIZATION (#347, #348);
#350 = CC_DESIGN_PERSON_AND_ORGANIZATION_ASSIGNMENT (#349, #346, (#326));
#351 = CC_DESIGN_SECURITY_CLASSIFICATION (#326, (#301));
#352 = DESIGN_CONTEXT ('', #291, 'design');
#353 = PRODUCT_DEFINITION ('', '', #301, #352);
#354 = APPROVAL_STATUS ('approved');
#355 = APPROVAL (#354, '');
#356 = CALENDAR_DATE (2021, 15, 4);
#357 = COORDINATED_UNIVERSAL_TIME_OFFSET (0, $, .AHEAD.);
#358 = LOCAL_TIME (11, 14, 52., #357);
#359 = DATE_AND_TIME (#356, #358);
#360 = APPROVAL_DATE_TIME (#359, #355);
#361 = APPROVAL_ROLE ('');
#362 = PERSON ('', '', $, $, $, $);
#363 = ORGANIZATION ($, '', '');
#364 = PERSON_AND_ORGANIZATION (#362, #363);
#365 = APPROVAL_PERSON_ORGANIZATION (#364, #355, #361);
#366 = CC_DESIGN_APPROVAL (#355, (#353));
#367 = DATE_TIME_ROLE ('creation_date');
#368 = CALENDAR_DATE (2021, 15, 4);
#369 = COORDINATED_UNIVERSAL_TIME_OFFSET (0, $, .AHEAD.);
#370 = LOCAL_TIME (11, 14, 52., #369);
#371 = DATE_AND_TIME (#368, #370);
#372 = CC_DESIGN_DATE_AND_TIME_ASSIGNMENT (#371, #367, (#353));
#373 = PERSON_AND_ORGANIZATION_ROLE ('creator');
#374 = PERSON ('', '', $, $, $, $);
#375 = ORGANIZATION ($, '', '');
#376 = PERSON_AND_ORGANIZATION (#374, #375);
#377 = CC_DESIGN_PERSON_AND_ORGANIZATION_ASSIGNMENT (#376, #373, (#353));
#378 = PRODUCT_DEFINITION_SHAPE ('', '', #353);
#379 = SHAPE_DEFINITION_REPRESENTATION (#378, #290);
#380 = SHAPE_REPRESENTATION_RELATIONSHIP ('', '', #290, #381);
#381 = GEOMETRICALLY_BOUNDED_WIREFRAME_SHAPE_REPRESENTATION ('', (#4), #289);
#382 = SHAPE_REPRESENTATION_RELATIONSHIP ('', '', #290, #383);
#383 = ADVANCED_BREP_SHAPE_REPRESENTATION ('', (#284), #289);
ENDSEC;
END-ISO-10303-21;
