ISO-10303-21;
HEADER;
FILE_DESCRIPTION ((), '1');
FILE_NAME ('D:\\Documents\\Mark Dainty\\2XDSS\\2XDSSM1600A.STP', '2021-04-15T11:17:01', ('Unknown'), ('M A Ford Europe'), 'OneCNC-XR8 Mill 3D Expert', 'OneCNC-XR8 Mill 3D Expert', '');
FILE_SCHEMA (('CONFIG_CONTROL_DESIGN'));
ENDSEC;

DATA;
#1 = CARTESIAN_POINT ('', (-2.75462090631732, 7.99999999999999, 0.));
#2 = CARTESIAN_POINT ('', (0., 0., 0.));
#3 = B_SPLINE_CURVE_WITH_KNOTS ('', 1, (#1, #2), .UNSPECIFIED., .F., .U., (2, 2), (0., 1.), .UNSPECIFIED.);
#4 = GEOMETRIC_CURVE_SET ('', (#3, #7, #10));
#5 = CARTESIAN_POINT ('', (-116.5, 8., 0.));
#6 = CARTESIAN_POINT ('', (-2.75462090631733, 8., 0.));
#7 = B_SPLINE_CURVE_WITH_KNOTS ('', 1, (#5, #6), .UNSPECIFIED., .F., .U., (2, 2), (0., 1.), .UNSPECIFIED.);
#8 = CARTESIAN_POINT ('', (-117., 7.5, 0.));
#9 = CARTESIAN_POINT ('', (-116.5, 8., 0.));
#10 = B_SPLINE_CURVE_WITH_KNOTS ('', 1, (#8, #9), .UNSPECIFIED., .F., .U., (2, 2), (0., 1.), .UNSPECIFIED.);
#11 = CARTESIAN_POINT ('', (-116.5, 8., -1.95943487863576E-15));
#12 = VERTEX_POINT ('', #11);
#13 = CARTESIAN_POINT ('', (-2.75462090631733, 8., -1.95943487863577E-15));
#14 = VERTEX_POINT ('', #13);
#15 = CARTESIAN_POINT ('', (-116.5, 8., -1.95943487863576E-15));
#16 = CARTESIAN_POINT ('', (-78.5848736354392, 8., -1.95943487863576E-15));
#17 = CARTESIAN_POINT ('', (-40.6697472708782, 8., -1.95943487863576E-15));
#18 = CARTESIAN_POINT ('', (-2.75462090631733, 8., -1.95943487863577E-15));
#19 = B_SPLINE_CURVE_WITH_KNOTS ('', 3, (#15, #16, #17, #18), .UNSPECIFIED., .F., .U., (4, 4), (0., 1.), .UNSPECIFIED.);
#20 = EDGE_CURVE ('', #12, #14, #19, .T.);
#21 = ORIENTED_EDGE ('', *, *, #20, .F.);
#22 = CARTESIAN_POINT ('', (-116.5, 8., -1.95943487863576E-15));
#23 = CARTESIAN_POINT ('', (-116.5, 7.99999999999998, 32.));
#24 = CARTESIAN_POINT ('', (-116.5, -24., 16.));
#25 = CARTESIAN_POINT ('', (-116.5, -24., -16.));
#26 = CARTESIAN_POINT ('', (-116.5, 8.00000000000002, -32.));
#27 = CARTESIAN_POINT ('', (-116.5, 8., -1.95943487863576E-15));
#28 = (
   BOUNDED_CURVE ()
   B_SPLINE_CURVE (5, (#22, #23, #24, #25, #26, #27), .UNSPECIFIED., .T., .U.)
   B_SPLINE_CURVE_WITH_KNOTS ((6, 6), (0., 1.), .UNSPECIFIED.)
   CURVE ()
   GEOMETRIC_REPRESENTATION_ITEM ()
   RATIONAL_B_SPLINE_CURVE ((5., 1., 1., 1., 1., 5.))
   REPRESENTATION_ITEM ('')
);
#29 = EDGE_CURVE ('', #12, #12, #28, .T.);
#30 = ORIENTED_EDGE ('', *, *, #29, .T.);
#31 = ORIENTED_EDGE ('', *, *, #20, .T.);
#32 = CARTESIAN_POINT ('', (-2.75462090631732, 7.99999999999999, -1.95943487863576E-15));
#33 = CARTESIAN_POINT ('', (-2.75462090631732, 8., 32.));
#34 = CARTESIAN_POINT ('', (-2.75462090631732, -24., 16.));
#35 = CARTESIAN_POINT ('', (-2.75462090631732, -24., -16.));
#36 = CARTESIAN_POINT ('', (-2.75462090631732, 7.99999999999999, -32.));
#37 = CARTESIAN_POINT ('', (-2.75462090631732, 7.99999999999999, -1.95943487863576E-15));
#38 = (
   BOUNDED_CURVE ()
   B_SPLINE_CURVE (5, (#32, #33, #34, #35, #36, #37), .UNSPECIFIED., .T., .U.)
   B_SPLINE_CURVE_WITH_KNOTS ((6, 6), (0., 1.), .UNSPECIFIED.)
   CURVE ()
   GEOMETRIC_REPRESENTATION_ITEM ()
   RATIONAL_B_SPLINE_CURVE ((5., 1., 1., 1., 1., 5.))
   REPRESENTATION_ITEM ('')
);
#39 = EDGE_CURVE ('', #14, #14, #38, .T.);
#40 = ORIENTED_EDGE ('', *, *, #39, .F.);
#41 = EDGE_LOOP ('', (#21, #30, #31, #40));
#42 = FACE_OUTER_BOUND ('', #41, .T.);
#43 = CARTESIAN_POINT ('', (-116.5, 8., -1.95943487863576E-15));
#44 = CARTESIAN_POINT ('', (-78.5848736354392, 8., -1.95943487863576E-15));
#45 = CARTESIAN_POINT ('', (-40.6697472708782, 8., -1.95943487863576E-15));
#46 = CARTESIAN_POINT ('', (-2.75462090631733, 8., -1.95943487863577E-15));
#47 = CARTESIAN_POINT ('', (-116.5, 7.99999999999998, 32.));
#48 = CARTESIAN_POINT ('', (-78.5848736354392, 7.99999999999999, 32.));
#49 = CARTESIAN_POINT ('', (-40.6697472708782, 8., 32.));
#50 = CARTESIAN_POINT ('', (-2.75462090631733, 8.00000000000001, 32.));
#51 = CARTESIAN_POINT ('', (-116.5, -24., 16.));
#52 = CARTESIAN_POINT ('', (-78.5848736354392, -24., 16.));
#53 = CARTESIAN_POINT ('', (-40.6697472708782, -24., 16.));
#54 = CARTESIAN_POINT ('', (-2.75462090631733, -24., 16.));
#55 = CARTESIAN_POINT ('', (-116.5, -24., -16.));
#56 = CARTESIAN_POINT ('', (-78.5848736354392, -24., -16.));
#57 = CARTESIAN_POINT ('', (-40.6697472708782, -24., -16.));
#58 = CARTESIAN_POINT ('', (-2.75462090631733, -24., -16.));
#59 = CARTESIAN_POINT ('', (-116.5, 8.00000000000002, -32.));
#60 = CARTESIAN_POINT ('', (-78.5848736354392, 8.00000000000001, -32.));
#61 = CARTESIAN_POINT ('', (-40.6697472708782, 8., -32.));
#62 = CARTESIAN_POINT ('', (-2.75462090631733, 7.99999999999999, -32.));
#63 = CARTESIAN_POINT ('', (-116.5, 8., -1.95943487863576E-15));
#64 = CARTESIAN_POINT ('', (-78.5848736354392, 8., -1.95943487863576E-15));
#65 = CARTESIAN_POINT ('', (-40.6697472708782, 8., -1.95943487863576E-15));
#66 = CARTESIAN_POINT ('', (-2.75462090631733, 8., -1.95943487863577E-15));
#67 = (
   BOUNDED_SURFACE ()
   B_SPLINE_SURFACE (5, 3, ((#43, #44, #45, #46), (#47, #48, #49, #50), (#51, #52, #53, #54), (#55, #56, #57, #58), (#59, #60, #61, #62), (#63, #64, #65, #66)), .UNSPECIFIED., .T., .F., .U.)
   B_SPLINE_SURFACE_WITH_KNOTS ((6, 6), (4, 4), (0., 1.), (0., 1.), .UNSPECIFIED.)
   SURFACE ()
   GEOMETRIC_REPRESENTATION_ITEM ()
   RATIONAL_B_SPLINE_SURFACE (((5., 5., 5., 5.), (1., 1., 1., 1.), (1., 1., 1., 1.), (1., 1., 1., 1.), (1., 1., 1., 1.), (5., 5., 5., 5.)))
   REPRESENTATION_ITEM ('')
);
#68 = ADVANCED_FACE ('', (#42), #67, .T.);
#69 = CARTESIAN_POINT ('', (-117., 7.16418377501202E-15, -7.16418377501202E-15));
#70 = VERTEX_POINT ('', #69);
#71 = CARTESIAN_POINT ('', (-117., 7.5, -1.83697019872103E-15));
#72 = VERTEX_POINT ('', #71);
#73 = CARTESIAN_POINT ('', (-117., 7.16418377501202E-15, -7.16418377501202E-15));
#74 = CARTESIAN_POINT ('', (-117., 7.5, -1.83697019872103E-15));
#75 = B_SPLINE_CURVE_WITH_KNOTS ('', 1, (#73, #74), .UNSPECIFIED., .F., .U., (2, 2), (0., 1.), .UNSPECIFIED.);
#76 = EDGE_CURVE ('', #70, #72, #75, .T.);
#77 = ORIENTED_EDGE ('', *, *, #76, .F.);
#78 = ORIENTED_EDGE ('', *, *, #76, .T.);
#79 = CARTESIAN_POINT ('', (-117., 7.5, -1.83697019872103E-15));
#80 = CARTESIAN_POINT ('', (-117., 7.49999999999998, 30.));
#81 = CARTESIAN_POINT ('', (-117., -22.5, 15.));
#82 = CARTESIAN_POINT ('', (-117., -22.5, -15.));
#83 = CARTESIAN_POINT ('', (-117., 7.50000000000002, -30.));
#84 = CARTESIAN_POINT ('', (-117., 7.5, -1.83697019872103E-15));
#85 = (
   BOUNDED_CURVE ()
   B_SPLINE_CURVE (5, (#79, #80, #81, #82, #83, #84), .UNSPECIFIED., .T., .U.)
   B_SPLINE_CURVE_WITH_KNOTS ((6, 6), (0., 1.), .UNSPECIFIED.)
   CURVE ()
   GEOMETRIC_REPRESENTATION_ITEM ()
   RATIONAL_B_SPLINE_CURVE ((5., 1., 1., 1., 1., 5.))
   REPRESENTATION_ITEM ('')
);
#86 = EDGE_CURVE ('', #72, #72, #85, .T.);
#87 = ORIENTED_EDGE ('', *, *, #86, .F.);
#88 = EDGE_LOOP ('', (#77, #78, #87));
#89 = FACE_OUTER_BOUND ('', #88, .T.);
#90 = CARTESIAN_POINT ('', (-117., 7.16418377501202E-15, -7.16418377501202E-15));
#91 = CARTESIAN_POINT ('', (-117., 7.5, -1.83697019872103E-15));
#92 = CARTESIAN_POINT ('', (-117., 7.16418377501202E-15, -7.16418377501202E-15));
#93 = CARTESIAN_POINT ('', (-117., 7.49999999999998, 30.));
#94 = CARTESIAN_POINT ('', (-117., 7.16418377501202E-15, -7.16418377501202E-15));
#95 = CARTESIAN_POINT ('', (-117., -22.5, 15.));
#96 = CARTESIAN_POINT ('', (-117., 7.16418377501202E-15, -7.16418377501202E-15));
#97 = CARTESIAN_POINT ('', (-117., -22.5, -15.));
#98 = CARTESIAN_POINT ('', (-117., 7.16418377501202E-15, -7.16418377501202E-15));
#99 = CARTESIAN_POINT ('', (-117., 7.50000000000002, -30.));
#100 = CARTESIAN_POINT ('', (-117., 7.16418377501202E-15, -7.16418377501202E-15));
#101 = CARTESIAN_POINT ('', (-117., 7.5, -1.83697019872103E-15));
#102 = (
   BOUNDED_SURFACE ()
   B_SPLINE_SURFACE (5, 1, ((#90, #91), (#92, #93), (#94, #95), (#96, #97), (#98, #99), (#100, #101)), .UNSPECIFIED., .T., .F., .U.)
   B_SPLINE_SURFACE_WITH_KNOTS ((6, 6), (2, 2), (0., 1.), (0., 1.), .UNSPECIFIED.)
   SURFACE ()
   GEOMETRIC_REPRESENTATION_ITEM ()
   RATIONAL_B_SPLINE_SURFACE (((5., 5.), (1., 1.), (1., 1.), (1., 1.), (1., 1.), (5., 5.)))
   REPRESENTATION_ITEM ('')
);
#103 = ADVANCED_FACE ('', (#89), #102, .T.);
#104 = CARTESIAN_POINT ('', (-117., 7.5, -1.83697019872103E-15));
#105 = CARTESIAN_POINT ('', (-116.833333333334, 7.66666666666665, -1.87779175869261E-15));
#106 = CARTESIAN_POINT ('', (-116.666666666666, 7.83333333333334, -1.91861331866419E-15));
#107 = CARTESIAN_POINT ('', (-116.5, 8., -1.95943487863576E-15));
#108 = B_SPLINE_CURVE_WITH_KNOTS ('', 3, (#104, #105, #106, #107), .UNSPECIFIED., .F., .U., (4, 4), (0., 1.), .UNSPECIFIED.);
#109 = EDGE_CURVE ('', #72, #12, #108, .T.);
#110 = ORIENTED_EDGE ('', *, *, #109, .F.);
#111 = ORIENTED_EDGE ('', *, *, #86, .T.);
#112 = ORIENTED_EDGE ('', *, *, #109, .T.);
#113 = ORIENTED_EDGE ('', *, *, #29, .F.);
#114 = EDGE_LOOP ('', (#110, #111, #112, #113));
#115 = FACE_OUTER_BOUND ('', #114, .T.);
#116 = CARTESIAN_POINT ('', (-117., 7.5, -1.83697019872103E-15));
#117 = CARTESIAN_POINT ('', (-116.833333333334, 7.66666666666665, -1.87779175869261E-15));
#118 = CARTESIAN_POINT ('', (-116.666666666666, 7.83333333333334, -1.91861331866419E-15));
#119 = CARTESIAN_POINT ('', (-116.5, 8., -1.95943487863576E-15));
#120 = CARTESIAN_POINT ('', (-117., 7.49999999999998, 30.));
#121 = CARTESIAN_POINT ('', (-116.833333333334, 7.66666666666663, 30.6666666666666));
#122 = CARTESIAN_POINT ('', (-116.666666666666, 7.83333333333332, 31.3333333333333));
#123 = CARTESIAN_POINT ('', (-116.5, 7.99999999999998, 32.));
#124 = CARTESIAN_POINT ('', (-117., -22.5, 15.));
#125 = CARTESIAN_POINT ('', (-116.833333333334, -22.9999999999999, 15.3333333333333));
#126 = CARTESIAN_POINT ('', (-116.666666666666, -23.5, 15.6666666666666));
#127 = CARTESIAN_POINT ('', (-116.5, -24., 16.));
#128 = CARTESIAN_POINT ('', (-117., -22.5, -15.));
#129 = CARTESIAN_POINT ('', (-116.833333333334, -22.9999999999999, -15.3333333333333));
#130 = CARTESIAN_POINT ('', (-116.666666666666, -23.5, -15.6666666666667));
#131 = CARTESIAN_POINT ('', (-116.5, -24., -16.));
#132 = CARTESIAN_POINT ('', (-117., 7.50000000000002, -30.));
#133 = CARTESIAN_POINT ('', (-116.833333333334, 7.66666666666667, -30.6666666666666));
#134 = CARTESIAN_POINT ('', (-116.666666666666, 7.83333333333336, -31.3333333333333));
#135 = CARTESIAN_POINT ('', (-116.5, 8.00000000000002, -32.));
#136 = CARTESIAN_POINT ('', (-117., 7.5, -1.83697019872103E-15));
#137 = CARTESIAN_POINT ('', (-116.833333333334, 7.66666666666665, -1.87779175869261E-15));
#138 = CARTESIAN_POINT ('', (-116.666666666666, 7.83333333333334, -1.91861331866419E-15));
#139 = CARTESIAN_POINT ('', (-116.5, 8., -1.95943487863576E-15));
#140 = (
   BOUNDED_SURFACE ()
   B_SPLINE_SURFACE (5, 3, ((#116, #117, #118, #119), (#120, #121, #122, #123), (#124, #125, #126, #127), (#128, #129, #130, #131), (#132, #133, #134, #135), (#136, #137, #138, #139)), .UNSPECIFIED., .T., .F., .U.)
   B_SPLINE_SURFACE_WITH_KNOTS ((6, 6), (4, 4), (0., 1.), (0., 1.), .UNSPECIFIED.)
   SURFACE ()
   GEOMETRIC_REPRESENTATION_ITEM ()
   RATIONAL_B_SPLINE_SURFACE (((5., 5., 5., 5.), (1., 1., 1., 1.), (1., 1., 1., 1.), (1., 1., 1., 1.), (1., 1., 1., 1.), (5., 5., 5., 5.)))
   REPRESENTATION_ITEM ('')
);
#141 = ADVANCED_FACE ('', (#115), #140, .T.);
#142 = CARTESIAN_POINT ('', (0., 0., 0.));
#143 = VERTEX_POINT ('', #142);
#144 = CARTESIAN_POINT ('', (-2.75462090631732, 7.99999999999999, -1.95943487863576E-15));
#145 = CARTESIAN_POINT ('', (-1.83641393754489, 5.33333333333334, -1.30628991909051E-15));
#146 = CARTESIAN_POINT ('', (-0.91820696877244, 2.66666666666666, -6.53144959545254E-16));
#147 = CARTESIAN_POINT ('', (0., 0., 0.));
#148 = B_SPLINE_CURVE_WITH_KNOTS ('', 3, (#144, #145, #146, #147), .UNSPECIFIED., .F., .U., (4, 4), (0., 1.), .UNSPECIFIED.);
#149 = EDGE_CURVE ('', #14, #143, #148, .T.);
#150 = ORIENTED_EDGE ('', *, *, #149, .F.);
#151 = ORIENTED_EDGE ('', *, *, #39, .T.);
#152 = ORIENTED_EDGE ('', *, *, #149, .T.);
#153 = EDGE_LOOP ('', (#150, #151, #152));
#154 = FACE_OUTER_BOUND ('', #153, .T.);
#155 = CARTESIAN_POINT ('', (-2.75462090631732, 7.99999999999999, -1.95943487863576E-15));
#156 = CARTESIAN_POINT ('', (-1.83641393754489, 5.33333333333334, -1.30628991909051E-15));
#157 = CARTESIAN_POINT ('', (-0.91820696877244, 2.66666666666666, -6.53144959545254E-16));
#158 = CARTESIAN_POINT ('', (0., 0., 0.));
#159 = CARTESIAN_POINT ('', (-2.75462090631732, 8., 32.));
#160 = CARTESIAN_POINT ('', (-1.83641393754489, 5.33333333333334, 21.3333333333333));
#161 = CARTESIAN_POINT ('', (-0.91820696877244, 2.66666666666667, 10.6666666666667));
#162 = CARTESIAN_POINT ('', (0., 0., 0.));
#163 = CARTESIAN_POINT ('', (-2.75462090631732, -24., 16.));
#164 = CARTESIAN_POINT ('', (-1.83641393754489, -16., 10.6666666666667));
#165 = CARTESIAN_POINT ('', (-0.918206968772441, -7.99999999999999, 5.33333333333333));
#166 = CARTESIAN_POINT ('', (0., 0., 0.));
#167 = CARTESIAN_POINT ('', (-2.75462090631732, -24., -16.));
#168 = CARTESIAN_POINT ('', (-1.83641393754489, -16., -10.6666666666667));
#169 = CARTESIAN_POINT ('', (-0.91820696877244, -7.99999999999999, -5.33333333333333));
#170 = CARTESIAN_POINT ('', (0., 0., 0.));
#171 = CARTESIAN_POINT ('', (-2.75462090631732, 7.99999999999999, -32.));
#172 = CARTESIAN_POINT ('', (-1.83641393754489, 5.33333333333333, -21.3333333333333));
#173 = CARTESIAN_POINT ('', (-0.918206968772439, 2.66666666666666, -10.6666666666667));
#174 = CARTESIAN_POINT ('', (0., 0., 0.));
#175 = CARTESIAN_POINT ('', (-2.75462090631732, 7.99999999999999, -1.95943487863576E-15));
#176 = CARTESIAN_POINT ('', (-1.83641393754489, 5.33333333333334, -1.30628991909051E-15));
#177 = CARTESIAN_POINT ('', (-0.91820696877244, 2.66666666666666, -6.53144959545254E-16));
#178 = CARTESIAN_POINT ('', (0., 0., 0.));
#179 = (
   BOUNDED_SURFACE ()
   B_SPLINE_SURFACE (5, 3, ((#155, #156, #157, #158), (#159, #160, #161, #162), (#163, #164, #165, #166), (#167, #168, #169, #170), (#171, #172, #173, #174), (#175, #176, #177, #178)), .UNSPECIFIED., .T., .F., .U.)
   B_SPLINE_SURFACE_WITH_KNOTS ((6, 6), (4, 4), (0., 1.), (0., 1.), .UNSPECIFIED.)
   SURFACE ()
   GEOMETRIC_REPRESENTATION_ITEM ()
   RATIONAL_B_SPLINE_SURFACE (((5., 5., 5., 5.), (1., 1., 1., 1.), (1., 1., 1., 1.), (1., 1., 1., 1.), (1., 1., 1., 1.), (5., 5., 5., 5.)))
   REPRESENTATION_ITEM ('')
);
#180 = ADVANCED_FACE ('', (#154), #179, .T.);
#181 = CLOSED_SHELL ('', (#68, #103, #141, #180));
#182 = MANIFOLD_SOLID_BREP ('', #181);
#183 = (
   LENGTH_UNIT ()
   NAMED_UNIT (*)
   SI_UNIT (.MILLI., .METRE.)
);
#184 = (
   NAMED_UNIT (*)
   SI_UNIT ($, .STERADIAN.)
   SOLID_ANGLE_UNIT ()
);
#185 = (
   NAMED_UNIT (*)
   SI_UNIT ($, .RADIAN.)
   PLANE_ANGLE_UNIT ()
);
#186 = UNCERTAINTY_MEASURE_WITH_UNIT (LENGTH_MEASURE(0.001), #183, 'DISTANCE_ACCURACY_VALUE', '');
#187 = (
   GEOMETRIC_REPRESENTATION_CONTEXT (3)
   GLOBAL_UNCERTAINTY_ASSIGNED_CONTEXT ((#186))
   GLOBAL_UNIT_ASSIGNED_CONTEXT ((#183, #184, #185))
   REPRESENTATION_CONTEXT ('', '3D')
);
#188 = SHAPE_REPRESENTATION ('', (), #187);
#189 = APPLICATION_CONTEXT ('configuration controlled 3D designs of mechanical parts and assemblies');
#190 = APPLICATION_PROTOCOL_DEFINITION ('International Standard', 'config_control_design', 1997, #189);
#191 = MECHANICAL_CONTEXT ('', #189, 'mechanical');
#192 = PRODUCT ('', '', '', (#191));
#193 = PERSON_AND_ORGANIZATION_ROLE ('design_owner');
#194 = PERSON ('', '', $, $, $, $);
#195 = ORGANIZATION ($, '', '');
#196 = PERSON_AND_ORGANIZATION (#194, #195);
#197 = CC_DESIGN_PERSON_AND_ORGANIZATION_ASSIGNMENT (#196, #193, (#192));
#198 = PRODUCT_RELATED_PRODUCT_CATEGORY ('detail', $, (#192));
#199 = PRODUCT_DEFINITION_FORMATION_WITH_SPECIFIED_SOURCE ('', '', #192, .NOT_KNOWN.);
#200 = APPROVAL_STATUS ('approved');
#201 = APPROVAL (#200, '');
#202 = CALENDAR_DATE (2021, 15, 4);
#203 = COORDINATED_UNIVERSAL_TIME_OFFSET (0, $, .AHEAD.);
#204 = LOCAL_TIME (11, 17, 1., #203);
#205 = DATE_AND_TIME (#202, #204);
#206 = APPROVAL_DATE_TIME (#205, #201);
#207 = APPROVAL_ROLE ('');
#208 = PERSON ('', '', $, $, $, $);
#209 = ORGANIZATION ($, '', '');
#210 = PERSON_AND_ORGANIZATION (#208, #209);
#211 = APPROVAL_PERSON_ORGANIZATION (#210, #201, #207);
#212 = CC_DESIGN_APPROVAL (#201, (#199));
#213 = PERSON_AND_ORGANIZATION_ROLE ('creator');
#214 = PERSON ('', '', $, $, $, $);
#215 = ORGANIZATION ($, '', '');
#216 = PERSON_AND_ORGANIZATION (#214, #215);
#217 = CC_DESIGN_PERSON_AND_ORGANIZATION_ASSIGNMENT (#216, #213, (#199));
#218 = PERSON_AND_ORGANIZATION_ROLE ('part_supplier');
#219 = PERSON ('', '', $, $, $, $);
#220 = ORGANIZATION ($, '', '');
#221 = PERSON_AND_ORGANIZATION (#219, #220);
#222 = CC_DESIGN_PERSON_AND_ORGANIZATION_ASSIGNMENT (#221, #218, (#199));
#223 = SECURITY_CLASSIFICATION_LEVEL ('unclassified');
#224 = SECURITY_CLASSIFICATION ('', '', #223);
#225 = APPROVAL_STATUS ('approved');
#226 = APPROVAL (#225, '');
#227 = CALENDAR_DATE (2021, 15, 4);
#228 = COORDINATED_UNIVERSAL_TIME_OFFSET (0, $, .AHEAD.);
#229 = LOCAL_TIME (11, 17, 1., #228);
#230 = DATE_AND_TIME (#227, #229);
#231 = APPROVAL_DATE_TIME (#230, #226);
#232 = APPROVAL_ROLE ('');
#233 = PERSON ('', '', $, $, $, $);
#234 = ORGANIZATION ($, '', '');
#235 = PERSON_AND_ORGANIZATION (#233, #234);
#236 = APPROVAL_PERSON_ORGANIZATION (#235, #226, #232);
#237 = CC_DESIGN_APPROVAL (#226, (#224));
#238 = DATE_TIME_ROLE ('classification_date');
#239 = CALENDAR_DATE (2021, 15, 4);
#240 = COORDINATED_UNIVERSAL_TIME_OFFSET (0, $, .AHEAD.);
#241 = LOCAL_TIME (11, 17, 1., #240);
#242 = DATE_AND_TIME (#239, #241);
#243 = CC_DESIGN_DATE_AND_TIME_ASSIGNMENT (#242, #238, (#224));
#244 = PERSON_AND_ORGANIZATION_ROLE ('classification_officer');
#245 = PERSON ('', '', $, $, $, $);
#246 = ORGANIZATION ($, '', '');
#247 = PERSON_AND_ORGANIZATION (#245, #246);
#248 = CC_DESIGN_PERSON_AND_ORGANIZATION_ASSIGNMENT (#247, #244, (#224));
#249 = CC_DESIGN_SECURITY_CLASSIFICATION (#224, (#199));
#250 = DESIGN_CONTEXT ('', #189, 'design');
#251 = PRODUCT_DEFINITION ('', '', #199, #250);
#252 = APPROVAL_STATUS ('approved');
#253 = APPROVAL (#252, '');
#254 = CALENDAR_DATE (2021, 15, 4);
#255 = COORDINATED_UNIVERSAL_TIME_OFFSET (0, $, .AHEAD.);
#256 = LOCAL_TIME (11, 17, 1., #255);
#257 = DATE_AND_TIME (#254, #256);
#258 = APPROVAL_DATE_TIME (#257, #253);
#259 = APPROVAL_ROLE ('');
#260 = PERSON ('', '', $, $, $, $);
#261 = ORGANIZATION ($, '', '');
#262 = PERSON_AND_ORGANIZATION (#260, #261);
#263 = APPROVAL_PERSON_ORGANIZATION (#262, #253, #259);
#264 = CC_DESIGN_APPROVAL (#253, (#251));
#265 = DATE_TIME_ROLE ('creation_date');
#266 = CALENDAR_DATE (2021, 15, 4);
#267 = COORDINATED_UNIVERSAL_TIME_OFFSET (0, $, .AHEAD.);
#268 = LOCAL_TIME (11, 17, 1., #267);
#269 = DATE_AND_TIME (#266, #268);
#270 = CC_DESIGN_DATE_AND_TIME_ASSIGNMENT (#269, #265, (#251));
#271 = PERSON_AND_ORGANIZATION_ROLE ('creator');
#272 = PERSON ('', '', $, $, $, $);
#273 = ORGANIZATION ($, '', '');
#274 = PERSON_AND_ORGANIZATION (#272, #273);
#275 = CC_DESIGN_PERSON_AND_ORGANIZATION_ASSIGNMENT (#274, #271, (#251));
#276 = PRODUCT_DEFINITION_SHAPE ('', '', #251);
#277 = SHAPE_DEFINITION_REPRESENTATION (#276, #188);
#278 = SHAPE_REPRESENTATION_RELATIONSHIP ('', '', #188, #279);
#279 = GEOMETRICALLY_BOUNDED_WIREFRAME_SHAPE_REPRESENTATION ('', (#4), #187);
#280 = SHAPE_REPRESENTATION_RELATIONSHIP ('', '', #188, #281);
#281 = ADVANCED_BREP_SHAPE_REPRESENTATION ('', (#182), #187);
ENDSEC;
END-ISO-10303-21;
