ISO-10303-21;
HEADER;
FILE_DESCRIPTION ((), '1');
FILE_NAME ('D:\\Documents\\Mark Dainty\\2XDSS\\2XDSSM1916A.STP', '2021-04-15T12:04:09', ('Unknown'), ('M A Ford Europe'), 'OneCNC-XR8 Mill 3D Expert', 'OneCNC-XR8 Mill 3D Expert', '');
FILE_SCHEMA (('CONFIG_CONTROL_DESIGN'));
ENDSEC;

DATA;
#1 = CARTESIAN_POINT ('', (-70., 10., 0.));
#2 = CARTESIAN_POINT ('', (-70., 9.58, 0.));
#3 = B_SPLINE_CURVE_WITH_KNOTS ('', 1, (#1, #2), .UNSPECIFIED., .F., .U., (2, 2), (0., 1.), .UNSPECIFIED.);
#4 = GEOMETRIC_CURVE_SET ('', (#3, #7, #10, #13, #16));
#5 = CARTESIAN_POINT ('', (-3.298658535315, 9.58000000000001, 0.));
#6 = CARTESIAN_POINT ('', (0., 0., 0.));
#7 = B_SPLINE_CURVE_WITH_KNOTS ('', 1, (#5, #6), .UNSPECIFIED., .F., .U., (2, 2), (0., 1.), .UNSPECIFIED.);
#8 = CARTESIAN_POINT ('', (-70., 9.58, 0.));
#9 = CARTESIAN_POINT ('', (-3.29865853531498, 9.58, 0.));
#10 = B_SPLINE_CURVE_WITH_KNOTS ('', 1, (#8, #9), .UNSPECIFIED., .F., .U., (2, 2), (0., 1.), .UNSPECIFIED.);
#11 = CARTESIAN_POINT ('', (-132.5, 10., 0.));
#12 = CARTESIAN_POINT ('', (-70., 10., 0.));
#13 = B_SPLINE_CURVE_WITH_KNOTS ('', 1, (#11, #12), .UNSPECIFIED., .F., .U., (2, 2), (0., 1.), .UNSPECIFIED.);
#14 = CARTESIAN_POINT ('', (-133., 9.5, 0.));
#15 = CARTESIAN_POINT ('', (-132.5, 10., 0.));
#16 = B_SPLINE_CURVE_WITH_KNOTS ('', 1, (#14, #15), .UNSPECIFIED., .F., .U., (2, 2), (0., 1.), .UNSPECIFIED.);
#17 = CARTESIAN_POINT ('', (-3.298658535315, 9.58000000000001, -2.34642326716633E-15));
#18 = VERTEX_POINT ('', #17);
#19 = CARTESIAN_POINT ('', (0., 0., 0.));
#20 = VERTEX_POINT ('', #19);
#21 = CARTESIAN_POINT ('', (-3.29865853531499, 9.58000000000001, -2.34642326716633E-15));
#22 = CARTESIAN_POINT ('', (-2.19910569021001, 6.38666666666669, -1.56428217811089E-15));
#23 = CARTESIAN_POINT ('', (-1.099552845105, 3.19333333333334, -7.82141089055443E-16));
#24 = CARTESIAN_POINT ('', (0., 0., 0.));
#25 = B_SPLINE_CURVE_WITH_KNOTS ('', 3, (#21, #22, #23, #24), .UNSPECIFIED., .F., .U., (4, 4), (0., 1.), .UNSPECIFIED.);
#26 = EDGE_CURVE ('', #18, #20, #25, .T.);
#27 = ORIENTED_EDGE ('', *, *, #26, .F.);
#28 = CARTESIAN_POINT ('', (-3.29865853531499, 9.58000000000001, -2.34642326716633E-15));
#29 = CARTESIAN_POINT ('', (-3.298658535315, 9.58000000000001, 38.32));
#30 = CARTESIAN_POINT ('', (-3.298658535315, -28.74, 19.16));
#31 = CARTESIAN_POINT ('', (-3.298658535315, -28.74, -19.16));
#32 = CARTESIAN_POINT ('', (-3.29865853531499, 9.58, -38.32));
#33 = CARTESIAN_POINT ('', (-3.29865853531499, 9.58000000000001, -2.34642326716633E-15));
#34 = (
   BOUNDED_CURVE ()
   B_SPLINE_CURVE (5, (#28, #29, #30, #31, #32, #33), .UNSPECIFIED., .T., .U.)
   B_SPLINE_CURVE_WITH_KNOTS ((6, 6), (0., 1.), .UNSPECIFIED.)
   CURVE ()
   GEOMETRIC_REPRESENTATION_ITEM ()
   RATIONAL_B_SPLINE_CURVE ((5., 1., 1., 1., 1., 5.))
   REPRESENTATION_ITEM ('')
);
#35 = EDGE_CURVE ('', #18, #18, #34, .T.);
#36 = ORIENTED_EDGE ('', *, *, #35, .T.);
#37 = ORIENTED_EDGE ('', *, *, #26, .T.);
#38 = EDGE_LOOP ('', (#27, #36, #37));
#39 = FACE_OUTER_BOUND ('', #38, .T.);
#40 = CARTESIAN_POINT ('', (-3.29865853531499, 9.58000000000001, -2.34642326716633E-15));
#41 = CARTESIAN_POINT ('', (-2.19910569021001, 6.38666666666669, -1.56428217811089E-15));
#42 = CARTESIAN_POINT ('', (-1.099552845105, 3.19333333333334, -7.82141089055443E-16));
#43 = CARTESIAN_POINT ('', (0., 0., 0.));
#44 = CARTESIAN_POINT ('', (-3.298658535315, 9.58000000000001, 38.32));
#45 = CARTESIAN_POINT ('', (-2.19910569021001, 6.38666666666669, 25.5466666666668));
#46 = CARTESIAN_POINT ('', (-1.099552845105, 3.19333333333334, 12.7733333333333));
#47 = CARTESIAN_POINT ('', (0., 0., 0.));
#48 = CARTESIAN_POINT ('', (-3.298658535315, -28.74, 19.16));
#49 = CARTESIAN_POINT ('', (-2.19910569021001, -19.1600000000001, 12.7733333333334));
#50 = CARTESIAN_POINT ('', (-1.099552845105, -9.58, 6.38666666666667));
#51 = CARTESIAN_POINT ('', (0., 0., 0.));
#52 = CARTESIAN_POINT ('', (-3.298658535315, -28.74, -19.16));
#53 = CARTESIAN_POINT ('', (-2.19910569021001, -19.1600000000001, -12.7733333333334));
#54 = CARTESIAN_POINT ('', (-1.099552845105, -9.58000000000001, -6.38666666666667));
#55 = CARTESIAN_POINT ('', (0., 0., 0.));
#56 = CARTESIAN_POINT ('', (-3.29865853531499, 9.58, -38.32));
#57 = CARTESIAN_POINT ('', (-2.19910569021001, 6.38666666666668, -25.5466666666668));
#58 = CARTESIAN_POINT ('', (-1.099552845105, 3.19333333333333, -12.7733333333333));
#59 = CARTESIAN_POINT ('', (0., 0., 0.));
#60 = CARTESIAN_POINT ('', (-3.29865853531499, 9.58000000000001, -2.34642326716633E-15));
#61 = CARTESIAN_POINT ('', (-2.19910569021001, 6.38666666666669, -1.56428217811089E-15));
#62 = CARTESIAN_POINT ('', (-1.099552845105, 3.19333333333334, -7.82141089055443E-16));
#63 = CARTESIAN_POINT ('', (0., 0., 0.));
#64 = (
   BOUNDED_SURFACE ()
   B_SPLINE_SURFACE (5, 3, ((#40, #41, #42, #43), (#44, #45, #46, #47), (#48, #49, #50, #51), (#52, #53, #54, #55), (#56, #57, #58, #59), (#60, #61, #62, #63)), .UNSPECIFIED., .T., .F., .U.)
   B_SPLINE_SURFACE_WITH_KNOTS ((6, 6), (4, 4), (0., 1.), (0., 1.), .UNSPECIFIED.)
   SURFACE ()
   GEOMETRIC_REPRESENTATION_ITEM ()
   RATIONAL_B_SPLINE_SURFACE (((5., 5., 5., 5.), (1., 1., 1., 1.), (1., 1., 1., 1.), (1., 1., 1., 1.), (1., 1., 1., 1.), (5., 5., 5., 5.)))
   REPRESENTATION_ITEM ('')
);
#65 = ADVANCED_FACE ('', (#39), #64, .T.);
#66 = CARTESIAN_POINT ('', (-132.5, 10., -2.4492935982947E-15));
#67 = VERTEX_POINT ('', #66);
#68 = CARTESIAN_POINT ('', (-70., 10., -2.44929359829471E-15));
#69 = VERTEX_POINT ('', #68);
#70 = CARTESIAN_POINT ('', (-132.5, 10., -2.4492935982947E-15));
#71 = CARTESIAN_POINT ('', (-111.666666666667, 10., -2.4492935982947E-15));
#72 = CARTESIAN_POINT ('', (-90.8333333333335, 10., -2.4492935982947E-15));
#73 = CARTESIAN_POINT ('', (-70., 10., -2.44929359829471E-15));
#74 = B_SPLINE_CURVE_WITH_KNOTS ('', 3, (#70, #71, #72, #73), .UNSPECIFIED., .F., .U., (4, 4), (0., 1.), .UNSPECIFIED.);
#75 = EDGE_CURVE ('', #67, #69, #74, .T.);
#76 = ORIENTED_EDGE ('', *, *, #75, .F.);
#77 = CARTESIAN_POINT ('', (-132.5, 10., -2.4492935982947E-15));
#78 = CARTESIAN_POINT ('', (-132.5, 9.99999999999998, 40.));
#79 = CARTESIAN_POINT ('', (-132.5, -30., 20.));
#80 = CARTESIAN_POINT ('', (-132.5, -30., -20.));
#81 = CARTESIAN_POINT ('', (-132.5, 10., -40.));
#82 = CARTESIAN_POINT ('', (-132.5, 10., -2.4492935982947E-15));
#83 = (
   BOUNDED_CURVE ()
   B_SPLINE_CURVE (5, (#77, #78, #79, #80, #81, #82), .UNSPECIFIED., .T., .U.)
   B_SPLINE_CURVE_WITH_KNOTS ((6, 6), (0., 1.), .UNSPECIFIED.)
   CURVE ()
   GEOMETRIC_REPRESENTATION_ITEM ()
   RATIONAL_B_SPLINE_CURVE ((5., 1., 1., 1., 1., 5.))
   REPRESENTATION_ITEM ('')
);
#84 = EDGE_CURVE ('', #67, #67, #83, .T.);
#85 = ORIENTED_EDGE ('', *, *, #84, .T.);
#86 = ORIENTED_EDGE ('', *, *, #75, .T.);
#87 = CARTESIAN_POINT ('', (-70., 10., -2.44929359829471E-15));
#88 = CARTESIAN_POINT ('', (-70., 9.99999999999999, 40.));
#89 = CARTESIAN_POINT ('', (-70., -30., 20.));
#90 = CARTESIAN_POINT ('', (-70., -30., -20.));
#91 = CARTESIAN_POINT ('', (-70., 10., -40.));
#92 = CARTESIAN_POINT ('', (-70., 10., -2.44929359829471E-15));
#93 = (
   BOUNDED_CURVE ()
   B_SPLINE_CURVE (5, (#87, #88, #89, #90, #91, #92), .UNSPECIFIED., .T., .U.)
   B_SPLINE_CURVE_WITH_KNOTS ((6, 6), (0., 1.), .UNSPECIFIED.)
   CURVE ()
   GEOMETRIC_REPRESENTATION_ITEM ()
   RATIONAL_B_SPLINE_CURVE ((5., 1., 1., 1., 1., 5.))
   REPRESENTATION_ITEM ('')
);
#94 = EDGE_CURVE ('', #69, #69, #93, .T.);
#95 = ORIENTED_EDGE ('', *, *, #94, .F.);
#96 = EDGE_LOOP ('', (#76, #85, #86, #95));
#97 = FACE_OUTER_BOUND ('', #96, .T.);
#98 = CARTESIAN_POINT ('', (-132.5, 10., -2.4492935982947E-15));
#99 = CARTESIAN_POINT ('', (-111.666666666667, 10., -2.4492935982947E-15));
#100 = CARTESIAN_POINT ('', (-90.8333333333335, 10., -2.4492935982947E-15));
#101 = CARTESIAN_POINT ('', (-70., 10., -2.44929359829471E-15));
#102 = CARTESIAN_POINT ('', (-132.5, 9.99999999999998, 40.));
#103 = CARTESIAN_POINT ('', (-111.666666666667, 9.99999999999998, 40.));
#104 = CARTESIAN_POINT ('', (-90.8333333333335, 9.99999999999999, 40.));
#105 = CARTESIAN_POINT ('', (-70., 9.99999999999999, 40.));
#106 = CARTESIAN_POINT ('', (-132.5, -30., 20.));
#107 = CARTESIAN_POINT ('', (-111.666666666667, -30., 20.));
#108 = CARTESIAN_POINT ('', (-90.8333333333335, -30., 20.));
#109 = CARTESIAN_POINT ('', (-70., -30., 20.));
#110 = CARTESIAN_POINT ('', (-132.5, -30., -20.));
#111 = CARTESIAN_POINT ('', (-111.666666666667, -30., -20.));
#112 = CARTESIAN_POINT ('', (-90.8333333333335, -30., -20.));
#113 = CARTESIAN_POINT ('', (-70., -30., -20.));
#114 = CARTESIAN_POINT ('', (-132.5, 10., -40.));
#115 = CARTESIAN_POINT ('', (-111.666666666667, 10., -40.));
#116 = CARTESIAN_POINT ('', (-90.8333333333335, 10., -40.));
#117 = CARTESIAN_POINT ('', (-70., 10., -40.));
#118 = CARTESIAN_POINT ('', (-132.5, 10., -2.4492935982947E-15));
#119 = CARTESIAN_POINT ('', (-111.666666666667, 10., -2.4492935982947E-15));
#120 = CARTESIAN_POINT ('', (-90.8333333333335, 10., -2.4492935982947E-15));
#121 = CARTESIAN_POINT ('', (-70., 10., -2.44929359829471E-15));
#122 = (
   BOUNDED_SURFACE ()
   B_SPLINE_SURFACE (5, 3, ((#98, #99, #100, #101), (#102, #103, #104, #105), (#106, #107, #108, #109), (#110, #111, #112, #113), (#114, #115, #116, #117), (#118, #119, #120, #121)), .UNSPECIFIED., .T., .F., .U.)
   B_SPLINE_SURFACE_WITH_KNOTS ((6, 6), (4, 4), (0., 1.), (0., 1.), .UNSPECIFIED.)
   SURFACE ()
   GEOMETRIC_REPRESENTATION_ITEM ()
   RATIONAL_B_SPLINE_SURFACE (((5., 5., 5., 5.), (1., 1., 1., 1.), (1., 1., 1., 1.), (1., 1., 1., 1.), (1., 1., 1., 1.), (5., 5., 5., 5.)))
   REPRESENTATION_ITEM ('')
);
#123 = ADVANCED_FACE ('', (#97), #122, .T.);
#124 = CARTESIAN_POINT ('', (-133., 8.1439012143299E-15, -8.1439012143299E-15));
#125 = VERTEX_POINT ('', #124);
#126 = CARTESIAN_POINT ('', (-133., 9.5, -2.32682891837997E-15));
#127 = VERTEX_POINT ('', #126);
#128 = CARTESIAN_POINT ('', (-133., 8.1439012143299E-15, -8.1439012143299E-15));
#129 = CARTESIAN_POINT ('', (-133., 9.5, -2.32682891837997E-15));
#130 = B_SPLINE_CURVE_WITH_KNOTS ('', 1, (#128, #129), .UNSPECIFIED., .F., .U., (2, 2), (0., 1.), .UNSPECIFIED.);
#131 = EDGE_CURVE ('', #125, #127, #130, .T.);
#132 = ORIENTED_EDGE ('', *, *, #131, .F.);
#133 = ORIENTED_EDGE ('', *, *, #131, .T.);
#134 = CARTESIAN_POINT ('', (-133., 9.5, -2.32682891837997E-15));
#135 = CARTESIAN_POINT ('', (-133., 9.49999999999998, 38.));
#136 = CARTESIAN_POINT ('', (-133., -28.5, 19.));
#137 = CARTESIAN_POINT ('', (-133., -28.5, -19.));
#138 = CARTESIAN_POINT ('', (-133., 9.50000000000002, -38.));
#139 = CARTESIAN_POINT ('', (-133., 9.5, -2.32682891837997E-15));
#140 = (
   BOUNDED_CURVE ()
   B_SPLINE_CURVE (5, (#134, #135, #136, #137, #138, #139), .UNSPECIFIED., .T., .U.)
   B_SPLINE_CURVE_WITH_KNOTS ((6, 6), (0., 1.), .UNSPECIFIED.)
   CURVE ()
   GEOMETRIC_REPRESENTATION_ITEM ()
   RATIONAL_B_SPLINE_CURVE ((5., 1., 1., 1., 1., 5.))
   REPRESENTATION_ITEM ('')
);
#141 = EDGE_CURVE ('', #127, #127, #140, .T.);
#142 = ORIENTED_EDGE ('', *, *, #141, .F.);
#143 = EDGE_LOOP ('', (#132, #133, #142));
#144 = FACE_OUTER_BOUND ('', #143, .T.);
#145 = CARTESIAN_POINT ('', (-133., 8.1439012143299E-15, -8.1439012143299E-15));
#146 = CARTESIAN_POINT ('', (-133., 9.5, -2.32682891837997E-15));
#147 = CARTESIAN_POINT ('', (-133., 8.1439012143299E-15, -8.1439012143299E-15));
#148 = CARTESIAN_POINT ('', (-133., 9.49999999999998, 38.));
#149 = CARTESIAN_POINT ('', (-133., 8.1439012143299E-15, -8.1439012143299E-15));
#150 = CARTESIAN_POINT ('', (-133., -28.5, 19.));
#151 = CARTESIAN_POINT ('', (-133., 8.1439012143299E-15, -8.1439012143299E-15));
#152 = CARTESIAN_POINT ('', (-133., -28.5, -19.));
#153 = CARTESIAN_POINT ('', (-133., 8.1439012143299E-15, -8.1439012143299E-15));
#154 = CARTESIAN_POINT ('', (-133., 9.50000000000002, -38.));
#155 = CARTESIAN_POINT ('', (-133., 8.1439012143299E-15, -8.1439012143299E-15));
#156 = CARTESIAN_POINT ('', (-133., 9.5, -2.32682891837997E-15));
#157 = (
   BOUNDED_SURFACE ()
   B_SPLINE_SURFACE (5, 1, ((#145, #146), (#147, #148), (#149, #150), (#151, #152), (#153, #154), (#155, #156)), .UNSPECIFIED., .T., .F., .U.)
   B_SPLINE_SURFACE_WITH_KNOTS ((6, 6), (2, 2), (0., 1.), (0., 1.), .UNSPECIFIED.)
   SURFACE ()
   GEOMETRIC_REPRESENTATION_ITEM ()
   RATIONAL_B_SPLINE_SURFACE (((5., 5.), (1., 1.), (1., 1.), (1., 1.), (1., 1.), (5., 5.)))
   REPRESENTATION_ITEM ('')
);
#158 = ADVANCED_FACE ('', (#144), #157, .T.);
#159 = CARTESIAN_POINT ('', (-133., 9.5, -2.32682891837997E-15));
#160 = CARTESIAN_POINT ('', (-132.833333333333, 9.6666666666667, -2.36765047835156E-15));
#161 = CARTESIAN_POINT ('', (-132.666666666667, 9.83333333333331, -2.40847203832312E-15));
#162 = CARTESIAN_POINT ('', (-132.5, 10., -2.4492935982947E-15));
#163 = B_SPLINE_CURVE_WITH_KNOTS ('', 3, (#159, #160, #161, #162), .UNSPECIFIED., .F., .U., (4, 4), (0., 1.), .UNSPECIFIED.);
#164 = EDGE_CURVE ('', #127, #67, #163, .T.);
#165 = ORIENTED_EDGE ('', *, *, #164, .F.);
#166 = ORIENTED_EDGE ('', *, *, #141, .T.);
#167 = ORIENTED_EDGE ('', *, *, #164, .T.);
#168 = ORIENTED_EDGE ('', *, *, #84, .F.);
#169 = EDGE_LOOP ('', (#165, #166, #167, #168));
#170 = FACE_OUTER_BOUND ('', #169, .T.);
#171 = CARTESIAN_POINT ('', (-133., 9.5, -2.32682891837997E-15));
#172 = CARTESIAN_POINT ('', (-132.833333333333, 9.6666666666667, -2.36765047835156E-15));
#173 = CARTESIAN_POINT ('', (-132.666666666667, 9.83333333333331, -2.40847203832312E-15));
#174 = CARTESIAN_POINT ('', (-132.5, 10., -2.4492935982947E-15));
#175 = CARTESIAN_POINT ('', (-133., 9.49999999999998, 38.));
#176 = CARTESIAN_POINT ('', (-132.833333333333, 9.66666666666668, 38.6666666666668));
#177 = CARTESIAN_POINT ('', (-132.666666666667, 9.83333333333328, 39.3333333333332));
#178 = CARTESIAN_POINT ('', (-132.5, 9.99999999999998, 40.));
#179 = CARTESIAN_POINT ('', (-133., -28.5, 19.));
#180 = CARTESIAN_POINT ('', (-132.833333333333, -29.0000000000001, 19.3333333333334));
#181 = CARTESIAN_POINT ('', (-132.666666666667, -29.4999999999999, 19.6666666666666));
#182 = CARTESIAN_POINT ('', (-132.5, -30., 20.));
#183 = CARTESIAN_POINT ('', (-133., -28.5, -19.));
#184 = CARTESIAN_POINT ('', (-132.833333333333, -29.0000000000001, -19.3333333333334));
#185 = CARTESIAN_POINT ('', (-132.666666666667, -29.4999999999999, -19.6666666666666));
#186 = CARTESIAN_POINT ('', (-132.5, -30., -20.));
#187 = CARTESIAN_POINT ('', (-133., 9.50000000000002, -38.));
#188 = CARTESIAN_POINT ('', (-132.833333333333, 9.66666666666673, -38.6666666666668));
#189 = CARTESIAN_POINT ('', (-132.666666666667, 9.83333333333333, -39.3333333333332));
#190 = CARTESIAN_POINT ('', (-132.5, 10., -40.));
#191 = CARTESIAN_POINT ('', (-133., 9.5, -2.32682891837997E-15));
#192 = CARTESIAN_POINT ('', (-132.833333333333, 9.6666666666667, -2.36765047835156E-15));
#193 = CARTESIAN_POINT ('', (-132.666666666667, 9.83333333333331, -2.40847203832312E-15));
#194 = CARTESIAN_POINT ('', (-132.5, 10., -2.4492935982947E-15));
#195 = (
   BOUNDED_SURFACE ()
   B_SPLINE_SURFACE (5, 3, ((#171, #172, #173, #174), (#175, #176, #177, #178), (#179, #180, #181, #182), (#183, #184, #185, #186), (#187, #188, #189, #190), (#191, #192, #193, #194)), .UNSPECIFIED., .T., .F., .U.)
   B_SPLINE_SURFACE_WITH_KNOTS ((6, 6), (4, 4), (0., 1.), (0., 1.), .UNSPECIFIED.)
   SURFACE ()
   GEOMETRIC_REPRESENTATION_ITEM ()
   RATIONAL_B_SPLINE_SURFACE (((5., 5., 5., 5.), (1., 1., 1., 1.), (1., 1., 1., 1.), (1., 1., 1., 1.), (1., 1., 1., 1.), (5., 5., 5., 5.)))
   REPRESENTATION_ITEM ('')
);
#196 = ADVANCED_FACE ('', (#170), #195, .T.);
#197 = CARTESIAN_POINT ('', (-70., 9.58, -2.34642326716633E-15));
#198 = VERTEX_POINT ('', #197);
#199 = CARTESIAN_POINT ('', (-70., 9.58, -2.34642326716633E-15));
#200 = CARTESIAN_POINT ('', (-47.7662195117716, 9.57999999999999, -2.34642326716633E-15));
#201 = CARTESIAN_POINT ('', (-25.5324390235433, 9.58000000000001, -2.34642326716633E-15));
#202 = CARTESIAN_POINT ('', (-3.29865853531499, 9.58, -2.34642326716633E-15));
#203 = B_SPLINE_CURVE_WITH_KNOTS ('', 3, (#199, #200, #201, #202), .UNSPECIFIED., .F., .U., (4, 4), (0., 1.), .UNSPECIFIED.);
#204 = EDGE_CURVE ('', #198, #18, #203, .T.);
#205 = ORIENTED_EDGE ('', *, *, #204, .F.);
#206 = CARTESIAN_POINT ('', (-70., 9.58, -2.34642326716633E-15));
#207 = CARTESIAN_POINT ('', (-70., 9.57999999999999, 38.32));
#208 = CARTESIAN_POINT ('', (-70., -28.74, 19.16));
#209 = CARTESIAN_POINT ('', (-70., -28.74, -19.16));
#210 = CARTESIAN_POINT ('', (-70., 9.58000000000001, -38.32));
#211 = CARTESIAN_POINT ('', (-70., 9.58, -2.34642326716633E-15));
#212 = (
   BOUNDED_CURVE ()
   B_SPLINE_CURVE (5, (#206, #207, #208, #209, #210, #211), .UNSPECIFIED., .T., .U.)
   B_SPLINE_CURVE_WITH_KNOTS ((6, 6), (0., 1.), .UNSPECIFIED.)
   CURVE ()
   GEOMETRIC_REPRESENTATION_ITEM ()
   RATIONAL_B_SPLINE_CURVE ((5., 1., 1., 1., 1., 5.))
   REPRESENTATION_ITEM ('')
);
#213 = EDGE_CURVE ('', #198, #198, #212, .T.);
#214 = ORIENTED_EDGE ('', *, *, #213, .T.);
#215 = ORIENTED_EDGE ('', *, *, #204, .T.);
#216 = ORIENTED_EDGE ('', *, *, #35, .F.);
#217 = EDGE_LOOP ('', (#205, #214, #215, #216));
#218 = FACE_OUTER_BOUND ('', #217, .T.);
#219 = CARTESIAN_POINT ('', (-70., 9.58, -2.34642326716633E-15));
#220 = CARTESIAN_POINT ('', (-47.7662195117716, 9.57999999999999, -2.34642326716633E-15));
#221 = CARTESIAN_POINT ('', (-25.5324390235433, 9.58000000000001, -2.34642326716633E-15));
#222 = CARTESIAN_POINT ('', (-3.29865853531499, 9.58, -2.34642326716633E-15));
#223 = CARTESIAN_POINT ('', (-70., 9.57999999999999, 38.32));
#224 = CARTESIAN_POINT ('', (-47.7662195117716, 9.57999999999999, 38.32));
#225 = CARTESIAN_POINT ('', (-25.5324390235433, 9.58000000000002, 38.32));
#226 = CARTESIAN_POINT ('', (-3.29865853531499, 9.58000000000001, 38.32));
#227 = CARTESIAN_POINT ('', (-70., -28.74, 19.16));
#228 = CARTESIAN_POINT ('', (-47.7662195117716, -28.74, 19.16));
#229 = CARTESIAN_POINT ('', (-25.5324390235433, -28.74, 19.16));
#230 = CARTESIAN_POINT ('', (-3.29865853531499, -28.74, 19.16));
#231 = CARTESIAN_POINT ('', (-70., -28.74, -19.16));
#232 = CARTESIAN_POINT ('', (-47.7662195117716, -28.74, -19.16));
#233 = CARTESIAN_POINT ('', (-25.5324390235433, -28.74, -19.16));
#234 = CARTESIAN_POINT ('', (-3.29865853531499, -28.74, -19.16));
#235 = CARTESIAN_POINT ('', (-70., 9.58000000000001, -38.32));
#236 = CARTESIAN_POINT ('', (-47.7662195117716, 9.57999999999999, -38.32));
#237 = CARTESIAN_POINT ('', (-25.5324390235433, 9.58000000000001, -38.32));
#238 = CARTESIAN_POINT ('', (-3.29865853531498, 9.57999999999999, -38.32));
#239 = CARTESIAN_POINT ('', (-70., 9.58, -2.34642326716633E-15));
#240 = CARTESIAN_POINT ('', (-47.7662195117716, 9.57999999999999, -2.34642326716633E-15));
#241 = CARTESIAN_POINT ('', (-25.5324390235433, 9.58000000000001, -2.34642326716633E-15));
#242 = CARTESIAN_POINT ('', (-3.29865853531499, 9.58, -2.34642326716633E-15));
#243 = (
   BOUNDED_SURFACE ()
   B_SPLINE_SURFACE (5, 3, ((#219, #220, #221, #222), (#223, #224, #225, #226), (#227, #228, #229, #230), (#231, #232, #233, #234), (#235, #236, #237, #238), (#239, #240, #241, #242)), .UNSPECIFIED., .T., .F., .U.)
   B_SPLINE_SURFACE_WITH_KNOTS ((6, 6), (4, 4), (0., 1.), (0., 1.), .UNSPECIFIED.)
   SURFACE ()
   GEOMETRIC_REPRESENTATION_ITEM ()
   RATIONAL_B_SPLINE_SURFACE (((5., 5., 5., 5.), (1., 1., 1., 1.), (1., 1., 1., 1.), (1., 1., 1., 1.), (1., 1., 1., 1.), (5., 5., 5., 5.)))
   REPRESENTATION_ITEM ('')
);
#244 = ADVANCED_FACE ('', (#218), #243, .T.);
#245 = CARTESIAN_POINT ('', (-70., 10., -2.44929359829471E-15));
#246 = CARTESIAN_POINT ('', (-70., 9.86, -2.41500348791858E-15));
#247 = CARTESIAN_POINT ('', (-69.9999999999999, 9.72000000000003, -2.38071337754246E-15));
#248 = CARTESIAN_POINT ('', (-70., 9.58, -2.34642326716633E-15));
#249 = B_SPLINE_CURVE_WITH_KNOTS ('', 3, (#245, #246, #247, #248), .UNSPECIFIED., .F., .U., (4, 4), (0., 1.), .UNSPECIFIED.);
#250 = EDGE_CURVE ('', #69, #198, #249, .T.);
#251 = ORIENTED_EDGE ('', *, *, #250, .F.);
#252 = ORIENTED_EDGE ('', *, *, #94, .T.);
#253 = ORIENTED_EDGE ('', *, *, #250, .T.);
#254 = ORIENTED_EDGE ('', *, *, #213, .F.);
#255 = EDGE_LOOP ('', (#251, #252, #253, #254));
#256 = FACE_OUTER_BOUND ('', #255, .T.);
#257 = CARTESIAN_POINT ('', (-70., 10., -2.44929359829471E-15));
#258 = CARTESIAN_POINT ('', (-70., 9.86, -2.41500348791858E-15));
#259 = CARTESIAN_POINT ('', (-69.9999999999999, 9.72000000000003, -2.38071337754246E-15));
#260 = CARTESIAN_POINT ('', (-70., 9.58, -2.34642326716633E-15));
#261 = CARTESIAN_POINT ('', (-70., 9.99999999999999, 40.));
#262 = CARTESIAN_POINT ('', (-70., 9.85999999999999, 39.44));
#263 = CARTESIAN_POINT ('', (-69.9999999999999, 9.72000000000002, 38.8800000000001));
#264 = CARTESIAN_POINT ('', (-70., 9.57999999999999, 38.32));
#265 = CARTESIAN_POINT ('', (-70., -30., 20.));
#266 = CARTESIAN_POINT ('', (-70., -29.58, 19.72));
#267 = CARTESIAN_POINT ('', (-69.9999999999999, -29.1600000000001, 19.44));
#268 = CARTESIAN_POINT ('', (-70., -28.74, 19.16));
#269 = CARTESIAN_POINT ('', (-70., -30., -20.));
#270 = CARTESIAN_POINT ('', (-70., -29.58, -19.72));
#271 = CARTESIAN_POINT ('', (-69.9999999999999, -29.1600000000001, -19.4400000000001));
#272 = CARTESIAN_POINT ('', (-70., -28.74, -19.16));
#273 = CARTESIAN_POINT ('', (-70., 10., -40.));
#274 = CARTESIAN_POINT ('', (-70., 9.86000000000001, -39.44));
#275 = CARTESIAN_POINT ('', (-69.9999999999999, 9.72000000000003, -38.8800000000001));
#276 = CARTESIAN_POINT ('', (-70., 9.58000000000001, -38.32));
#277 = CARTESIAN_POINT ('', (-70., 10., -2.44929359829471E-15));
#278 = CARTESIAN_POINT ('', (-70., 9.86, -2.41500348791858E-15));
#279 = CARTESIAN_POINT ('', (-69.9999999999999, 9.72000000000003, -2.38071337754246E-15));
#280 = CARTESIAN_POINT ('', (-70., 9.58, -2.34642326716633E-15));
#281 = (
   BOUNDED_SURFACE ()
   B_SPLINE_SURFACE (5, 3, ((#257, #258, #259, #260), (#261, #262, #263, #264), (#265, #266, #267, #268), (#269, #270, #271, #272), (#273, #274, #275, #276), (#277, #278, #279, #280)), .UNSPECIFIED., .T., .F., .U.)
   B_SPLINE_SURFACE_WITH_KNOTS ((6, 6), (4, 4), (0., 1.), (0., 1.), .UNSPECIFIED.)
   SURFACE ()
   GEOMETRIC_REPRESENTATION_ITEM ()
   RATIONAL_B_SPLINE_SURFACE (((5., 5., 5., 5.), (1., 1., 1., 1.), (1., 1., 1., 1.), (1., 1., 1., 1.), (1., 1., 1., 1.), (5., 5., 5., 5.)))
   REPRESENTATION_ITEM ('')
);
#282 = ADVANCED_FACE ('', (#256), #281, .T.);
#283 = CLOSED_SHELL ('', (#65, #123, #158, #196, #244, #282));
#284 = MANIFOLD_SOLID_BREP ('', #283);
#285 = (
   LENGTH_UNIT ()
   NAMED_UNIT (*)
   SI_UNIT (.MILLI., .METRE.)
);
#286 = (
   NAMED_UNIT (*)
   SI_UNIT ($, .STERADIAN.)
   SOLID_ANGLE_UNIT ()
);
#287 = (
   NAMED_UNIT (*)
   SI_UNIT ($, .RADIAN.)
   PLANE_ANGLE_UNIT ()
);
#288 = UNCERTAINTY_MEASURE_WITH_UNIT (LENGTH_MEASURE(0.001), #285, 'DISTANCE_ACCURACY_VALUE', '');
#289 = (
   GEOMETRIC_REPRESENTATION_CONTEXT (3)
   GLOBAL_UNCERTAINTY_ASSIGNED_CONTEXT ((#288))
   GLOBAL_UNIT_ASSIGNED_CONTEXT ((#285, #286, #287))
   REPRESENTATION_CONTEXT ('', '3D')
);
#290 = SHAPE_REPRESENTATION ('', (), #289);
#291 = APPLICATION_CONTEXT ('configuration controlled 3D designs of mechanical parts and assemblies');
#292 = APPLICATION_PROTOCOL_DEFINITION ('International Standard', 'config_control_design', 1997, #291);
#293 = MECHANICAL_CONTEXT ('', #291, 'mechanical');
#294 = PRODUCT ('', '', '', (#293));
#295 = PERSON_AND_ORGANIZATION_ROLE ('design_owner');
#296 = PERSON ('', '', $, $, $, $);
#297 = ORGANIZATION ($, '', '');
#298 = PERSON_AND_ORGANIZATION (#296, #297);
#299 = CC_DESIGN_PERSON_AND_ORGANIZATION_ASSIGNMENT (#298, #295, (#294));
#300 = PRODUCT_RELATED_PRODUCT_CATEGORY ('detail', $, (#294));
#301 = PRODUCT_DEFINITION_FORMATION_WITH_SPECIFIED_SOURCE ('', '', #294, .NOT_KNOWN.);
#302 = APPROVAL_STATUS ('approved');
#303 = APPROVAL (#302, '');
#304 = CALENDAR_DATE (2021, 15, 4);
#305 = COORDINATED_UNIVERSAL_TIME_OFFSET (0, $, .AHEAD.);
#306 = LOCAL_TIME (12, 4, 9., #305);
#307 = DATE_AND_TIME (#304, #306);
#308 = APPROVAL_DATE_TIME (#307, #303);
#309 = APPROVAL_ROLE ('');
#310 = PERSON ('', '', $, $, $, $);
#311 = ORGANIZATION ($, '', '');
#312 = PERSON_AND_ORGANIZATION (#310, #311);
#313 = APPROVAL_PERSON_ORGANIZATION (#312, #303, #309);
#314 = CC_DESIGN_APPROVAL (#303, (#301));
#315 = PERSON_AND_ORGANIZATION_ROLE ('creator');
#316 = PERSON ('', '', $, $, $, $);
#317 = ORGANIZATION ($, '', '');
#318 = PERSON_AND_ORGANIZATION (#316, #317);
#319 = CC_DESIGN_PERSON_AND_ORGANIZATION_ASSIGNMENT (#318, #315, (#301));
#320 = PERSON_AND_ORGANIZATION_ROLE ('part_supplier');
#321 = PERSON ('', '', $, $, $, $);
#322 = ORGANIZATION ($, '', '');
#323 = PERSON_AND_ORGANIZATION (#321, #322);
#324 = CC_DESIGN_PERSON_AND_ORGANIZATION_ASSIGNMENT (#323, #320, (#301));
#325 = SECURITY_CLASSIFICATION_LEVEL ('unclassified');
#326 = SECURITY_CLASSIFICATION ('', '', #325);
#327 = APPROVAL_STATUS ('approved');
#328 = APPROVAL (#327, '');
#329 = CALENDAR_DATE (2021, 15, 4);
#330 = COORDINATED_UNIVERSAL_TIME_OFFSET (0, $, .AHEAD.);
#331 = LOCAL_TIME (12, 4, 9., #330);
#332 = DATE_AND_TIME (#329, #331);
#333 = APPROVAL_DATE_TIME (#332, #328);
#334 = APPROVAL_ROLE ('');
#335 = PERSON ('', '', $, $, $, $);
#336 = ORGANIZATION ($, '', '');
#337 = PERSON_AND_ORGANIZATION (#335, #336);
#338 = APPROVAL_PERSON_ORGANIZATION (#337, #328, #334);
#339 = CC_DESIGN_APPROVAL (#328, (#326));
#340 = DATE_TIME_ROLE ('classification_date');
#341 = CALENDAR_DATE (2021, 15, 4);
#342 = COORDINATED_UNIVERSAL_TIME_OFFSET (0, $, .AHEAD.);
#343 = LOCAL_TIME (12, 4, 9., #342);
#344 = DATE_AND_TIME (#341, #343);
#345 = CC_DESIGN_DATE_AND_TIME_ASSIGNMENT (#344, #340, (#326));
#346 = PERSON_AND_ORGANIZATION_ROLE ('classification_officer');
#347 = PERSON ('', '', $, $, $, $);
#348 = ORGANIZATION ($, '', '');
#349 = PERSON_AND_ORGANIZATION (#347, #348);
#350 = CC_DESIGN_PERSON_AND_ORGANIZATION_ASSIGNMENT (#349, #346, (#326));
#351 = CC_DESIGN_SECURITY_CLASSIFICATION (#326, (#301));
#352 = DESIGN_CONTEXT ('', #291, 'design');
#353 = PRODUCT_DEFINITION ('', '', #301, #352);
#354 = APPROVAL_STATUS ('approved');
#355 = APPROVAL (#354, '');
#356 = CALENDAR_DATE (2021, 15, 4);
#357 = COORDINATED_UNIVERSAL_TIME_OFFSET (0, $, .AHEAD.);
#358 = LOCAL_TIME (12, 4, 9., #357);
#359 = DATE_AND_TIME (#356, #358);
#360 = APPROVAL_DATE_TIME (#359, #355);
#361 = APPROVAL_ROLE ('');
#362 = PERSON ('', '', $, $, $, $);
#363 = ORGANIZATION ($, '', '');
#364 = PERSON_AND_ORGANIZATION (#362, #363);
#365 = APPROVAL_PERSON_ORGANIZATION (#364, #355, #361);
#366 = CC_DESIGN_APPROVAL (#355, (#353));
#367 = DATE_TIME_ROLE ('creation_date');
#368 = CALENDAR_DATE (2021, 15, 4);
#369 = COORDINATED_UNIVERSAL_TIME_OFFSET (0, $, .AHEAD.);
#370 = LOCAL_TIME (12, 4, 9., #369);
#371 = DATE_AND_TIME (#368, #370);
#372 = CC_DESIGN_DATE_AND_TIME_ASSIGNMENT (#371, #367, (#353));
#373 = PERSON_AND_ORGANIZATION_ROLE ('creator');
#374 = PERSON ('', '', $, $, $, $);
#375 = ORGANIZATION ($, '', '');
#376 = PERSON_AND_ORGANIZATION (#374, #375);
#377 = CC_DESIGN_PERSON_AND_ORGANIZATION_ASSIGNMENT (#376, #373, (#353));
#378 = PRODUCT_DEFINITION_SHAPE ('', '', #353);
#379 = SHAPE_DEFINITION_REPRESENTATION (#378, #290);
#380 = SHAPE_REPRESENTATION_RELATIONSHIP ('', '', #290, #381);
#381 = GEOMETRICALLY_BOUNDED_WIREFRAME_SHAPE_REPRESENTATION ('', (#4), #289);
#382 = SHAPE_REPRESENTATION_RELATIONSHIP ('', '', #290, #383);
#383 = ADVANCED_BREP_SHAPE_REPRESENTATION ('', (#284), #289);
ENDSEC;
END-ISO-10303-21;
