ISO-10303-21;
HEADER;
FILE_DESCRIPTION ((), '1');
FILE_NAME ('D:\\Documents\\Mark Dainty\\2XDSS\\2XDSSM2000A.STP', '2021-04-15T12:14:15', ('Unknown'), ('M A Ford Europe'), 'OneCNC-XR8 Mill 3D Expert', 'OneCNC-XR8 Mill 3D Expert', '');
FILE_SCHEMA (('CONFIG_CONTROL_DESIGN'));
ENDSEC;

DATA;
#1 = CARTESIAN_POINT ('', (-3.44327613289665, 10., 0.));
#2 = CARTESIAN_POINT ('', (0., 0., 0.));
#3 = B_SPLINE_CURVE_WITH_KNOTS ('', 1, (#1, #2), .UNSPECIFIED., .F., .U., (2, 2), (0., 1.), .UNSPECIFIED.);
#4 = GEOMETRIC_CURVE_SET ('', (#3, #7, #10));
#5 = CARTESIAN_POINT ('', (-132.5, 10., 0.));
#6 = CARTESIAN_POINT ('', (-3.44327613289664, 10., 0.));
#7 = B_SPLINE_CURVE_WITH_KNOTS ('', 1, (#5, #6), .UNSPECIFIED., .F., .U., (2, 2), (0., 1.), .UNSPECIFIED.);
#8 = CARTESIAN_POINT ('', (-133., 9.5, 0.));
#9 = CARTESIAN_POINT ('', (-132.5, 10., 0.));
#10 = B_SPLINE_CURVE_WITH_KNOTS ('', 1, (#8, #9), .UNSPECIFIED., .F., .U., (2, 2), (0., 1.), .UNSPECIFIED.);
#11 = CARTESIAN_POINT ('', (-3.44327613289665, 10., -2.44929359829471E-15));
#12 = VERTEX_POINT ('', #11);
#13 = CARTESIAN_POINT ('', (0., 0., 0.));
#14 = VERTEX_POINT ('', #13);
#15 = CARTESIAN_POINT ('', (-3.44327613289665, 10., -2.44929359829471E-15));
#16 = CARTESIAN_POINT ('', (-2.2955174219311, 6.66666666666667, -1.63286239886314E-15));
#17 = CARTESIAN_POINT ('', (-1.14775871096555, 3.33333333333333, -8.16431199431569E-16));
#18 = CARTESIAN_POINT ('', (0., 0., 0.));
#19 = B_SPLINE_CURVE_WITH_KNOTS ('', 3, (#15, #16, #17, #18), .UNSPECIFIED., .F., .U., (4, 4), (0., 1.), .UNSPECIFIED.);
#20 = EDGE_CURVE ('', #12, #14, #19, .T.);
#21 = ORIENTED_EDGE ('', *, *, #20, .F.);
#22 = CARTESIAN_POINT ('', (-3.44327613289665, 10., -2.44929359829471E-15));
#23 = CARTESIAN_POINT ('', (-3.44327613289665, 10., 40.));
#24 = CARTESIAN_POINT ('', (-3.44327613289666, -30., 20.));
#25 = CARTESIAN_POINT ('', (-3.44327613289665, -30., -20.));
#26 = CARTESIAN_POINT ('', (-3.44327613289665, 9.99999999999999, -40.));
#27 = CARTESIAN_POINT ('', (-3.44327613289665, 10., -2.44929359829471E-15));
#28 = (
   BOUNDED_CURVE ()
   B_SPLINE_CURVE (5, (#22, #23, #24, #25, #26, #27), .UNSPECIFIED., .T., .U.)
   B_SPLINE_CURVE_WITH_KNOTS ((6, 6), (0., 1.), .UNSPECIFIED.)
   CURVE ()
   GEOMETRIC_REPRESENTATION_ITEM ()
   RATIONAL_B_SPLINE_CURVE ((5., 1., 1., 1., 1., 5.))
   REPRESENTATION_ITEM ('')
);
#29 = EDGE_CURVE ('', #12, #12, #28, .T.);
#30 = ORIENTED_EDGE ('', *, *, #29, .T.);
#31 = ORIENTED_EDGE ('', *, *, #20, .T.);
#32 = EDGE_LOOP ('', (#21, #30, #31));
#33 = FACE_OUTER_BOUND ('', #32, .T.);
#34 = CARTESIAN_POINT ('', (-3.44327613289665, 10., -2.44929359829471E-15));
#35 = CARTESIAN_POINT ('', (-2.2955174219311, 6.66666666666667, -1.63286239886314E-15));
#36 = CARTESIAN_POINT ('', (-1.14775871096555, 3.33333333333333, -8.16431199431569E-16));
#37 = CARTESIAN_POINT ('', (0., 0., 0.));
#38 = CARTESIAN_POINT ('', (-3.44327613289665, 10., 40.));
#39 = CARTESIAN_POINT ('', (-2.2955174219311, 6.66666666666668, 26.6666666666667));
#40 = CARTESIAN_POINT ('', (-1.14775871096555, 3.33333333333334, 13.3333333333333));
#41 = CARTESIAN_POINT ('', (0., 0., 0.));
#42 = CARTESIAN_POINT ('', (-3.44327613289666, -30., 20.));
#43 = CARTESIAN_POINT ('', (-2.2955174219311, -20., 13.3333333333334));
#44 = CARTESIAN_POINT ('', (-1.14775871096555, -10., 6.66666666666667));
#45 = CARTESIAN_POINT ('', (0., 0., 0.));
#46 = CARTESIAN_POINT ('', (-3.44327613289665, -30., -20.));
#47 = CARTESIAN_POINT ('', (-2.2955174219311, -20., -13.3333333333333));
#48 = CARTESIAN_POINT ('', (-1.14775871096555, -10., -6.66666666666667));
#49 = CARTESIAN_POINT ('', (0., 0., 0.));
#50 = CARTESIAN_POINT ('', (-3.44327613289665, 9.99999999999999, -40.));
#51 = CARTESIAN_POINT ('', (-2.2955174219311, 6.66666666666667, -26.6666666666667));
#52 = CARTESIAN_POINT ('', (-1.14775871096555, 3.33333333333333, -13.3333333333333));
#53 = CARTESIAN_POINT ('', (0., 0., 0.));
#54 = CARTESIAN_POINT ('', (-3.44327613289665, 10., -2.44929359829471E-15));
#55 = CARTESIAN_POINT ('', (-2.2955174219311, 6.66666666666667, -1.63286239886314E-15));
#56 = CARTESIAN_POINT ('', (-1.14775871096555, 3.33333333333333, -8.16431199431569E-16));
#57 = CARTESIAN_POINT ('', (0., 0., 0.));
#58 = (
   BOUNDED_SURFACE ()
   B_SPLINE_SURFACE (5, 3, ((#34, #35, #36, #37), (#38, #39, #40, #41), (#42, #43, #44, #45), (#46, #47, #48, #49), (#50, #51, #52, #53), (#54, #55, #56, #57)), .UNSPECIFIED., .T., .F., .U.)
   B_SPLINE_SURFACE_WITH_KNOTS ((6, 6), (4, 4), (0., 1.), (0., 1.), .UNSPECIFIED.)
   SURFACE ()
   GEOMETRIC_REPRESENTATION_ITEM ()
   RATIONAL_B_SPLINE_SURFACE (((5., 5., 5., 5.), (1., 1., 1., 1.), (1., 1., 1., 1.), (1., 1., 1., 1.), (1., 1., 1., 1.), (5., 5., 5., 5.)))
   REPRESENTATION_ITEM ('')
);
#59 = ADVANCED_FACE ('', (#33), #58, .T.);
#60 = CARTESIAN_POINT ('', (-132.5, 10., -2.4492935982947E-15));
#61 = VERTEX_POINT ('', #60);
#62 = CARTESIAN_POINT ('', (-132.5, 10., -2.4492935982947E-15));
#63 = CARTESIAN_POINT ('', (-89.4810920442987, 10., -2.44929359829471E-15));
#64 = CARTESIAN_POINT ('', (-46.4621840885978, 10., -2.44929359829471E-15));
#65 = CARTESIAN_POINT ('', (-3.44327613289664, 10., -2.44929359829471E-15));
#66 = B_SPLINE_CURVE_WITH_KNOTS ('', 3, (#62, #63, #64, #65), .UNSPECIFIED., .F., .U., (4, 4), (0., 1.), .UNSPECIFIED.);
#67 = EDGE_CURVE ('', #61, #12, #66, .T.);
#68 = ORIENTED_EDGE ('', *, *, #67, .F.);
#69 = CARTESIAN_POINT ('', (-132.5, 10., -2.4492935982947E-15));
#70 = CARTESIAN_POINT ('', (-132.5, 9.99999999999998, 40.));
#71 = CARTESIAN_POINT ('', (-132.5, -30., 20.));
#72 = CARTESIAN_POINT ('', (-132.5, -30., -20.));
#73 = CARTESIAN_POINT ('', (-132.5, 10., -40.));
#74 = CARTESIAN_POINT ('', (-132.5, 10., -2.4492935982947E-15));
#75 = (
   BOUNDED_CURVE ()
   B_SPLINE_CURVE (5, (#69, #70, #71, #72, #73, #74), .UNSPECIFIED., .T., .U.)
   B_SPLINE_CURVE_WITH_KNOTS ((6, 6), (0., 1.), .UNSPECIFIED.)
   CURVE ()
   GEOMETRIC_REPRESENTATION_ITEM ()
   RATIONAL_B_SPLINE_CURVE ((5., 1., 1., 1., 1., 5.))
   REPRESENTATION_ITEM ('')
);
#76 = EDGE_CURVE ('', #61, #61, #75, .T.);
#77 = ORIENTED_EDGE ('', *, *, #76, .T.);
#78 = ORIENTED_EDGE ('', *, *, #67, .T.);
#79 = ORIENTED_EDGE ('', *, *, #29, .F.);
#80 = EDGE_LOOP ('', (#68, #77, #78, #79));
#81 = FACE_OUTER_BOUND ('', #80, .T.);
#82 = CARTESIAN_POINT ('', (-132.5, 10., -2.4492935982947E-15));
#83 = CARTESIAN_POINT ('', (-89.4810920442987, 10., -2.44929359829471E-15));
#84 = CARTESIAN_POINT ('', (-46.4621840885978, 10., -2.44929359829471E-15));
#85 = CARTESIAN_POINT ('', (-3.44327613289664, 10., -2.44929359829471E-15));
#86 = CARTESIAN_POINT ('', (-132.5, 9.99999999999998, 40.));
#87 = CARTESIAN_POINT ('', (-89.4810920442987, 9.99999999999999, 40.));
#88 = CARTESIAN_POINT ('', (-46.4621840885978, 10., 40.));
#89 = CARTESIAN_POINT ('', (-3.44327613289664, 10., 40.));
#90 = CARTESIAN_POINT ('', (-132.5, -30., 20.));
#91 = CARTESIAN_POINT ('', (-89.4810920442987, -30., 20.));
#92 = CARTESIAN_POINT ('', (-46.4621840885978, -30., 20.));
#93 = CARTESIAN_POINT ('', (-3.44327613289665, -30., 20.));
#94 = CARTESIAN_POINT ('', (-132.5, -30., -20.));
#95 = CARTESIAN_POINT ('', (-89.4810920442987, -30., -20.));
#96 = CARTESIAN_POINT ('', (-46.4621840885978, -30., -20.));
#97 = CARTESIAN_POINT ('', (-3.44327613289664, -30., -20.));
#98 = CARTESIAN_POINT ('', (-132.5, 10., -40.));
#99 = CARTESIAN_POINT ('', (-89.4810920442987, 10., -40.));
#100 = CARTESIAN_POINT ('', (-46.4621840885978, 10., -40.));
#101 = CARTESIAN_POINT ('', (-3.44327613289664, 9.99999999999999, -40.));
#102 = CARTESIAN_POINT ('', (-132.5, 10., -2.4492935982947E-15));
#103 = CARTESIAN_POINT ('', (-89.4810920442987, 10., -2.44929359829471E-15));
#104 = CARTESIAN_POINT ('', (-46.4621840885978, 10., -2.44929359829471E-15));
#105 = CARTESIAN_POINT ('', (-3.44327613289664, 10., -2.44929359829471E-15));
#106 = (
   BOUNDED_SURFACE ()
   B_SPLINE_SURFACE (5, 3, ((#82, #83, #84, #85), (#86, #87, #88, #89), (#90, #91, #92, #93), (#94, #95, #96, #97), (#98, #99, #100, #101), (#102, #103, #104, #105)), .UNSPECIFIED., .T., .F., .U.)
   B_SPLINE_SURFACE_WITH_KNOTS ((6, 6), (4, 4), (0., 1.), (0., 1.), .UNSPECIFIED.)
   SURFACE ()
   GEOMETRIC_REPRESENTATION_ITEM ()
   RATIONAL_B_SPLINE_SURFACE (((5., 5., 5., 5.), (1., 1., 1., 1.), (1., 1., 1., 1.), (1., 1., 1., 1.), (1., 1., 1., 1.), (5., 5., 5., 5.)))
   REPRESENTATION_ITEM ('')
);
#107 = ADVANCED_FACE ('', (#81), #106, .T.);
#108 = CARTESIAN_POINT ('', (-133., 8.1439012143299E-15, -8.1439012143299E-15));
#109 = VERTEX_POINT ('', #108);
#110 = CARTESIAN_POINT ('', (-133., 9.5, -2.32682891837997E-15));
#111 = VERTEX_POINT ('', #110);
#112 = CARTESIAN_POINT ('', (-133., 8.1439012143299E-15, -8.1439012143299E-15));
#113 = CARTESIAN_POINT ('', (-133., 9.5, -2.32682891837997E-15));
#114 = B_SPLINE_CURVE_WITH_KNOTS ('', 1, (#112, #113), .UNSPECIFIED., .F., .U., (2, 2), (0., 1.), .UNSPECIFIED.);
#115 = EDGE_CURVE ('', #109, #111, #114, .T.);
#116 = ORIENTED_EDGE ('', *, *, #115, .F.);
#117 = ORIENTED_EDGE ('', *, *, #115, .T.);
#118 = CARTESIAN_POINT ('', (-133., 9.5, -2.32682891837997E-15));
#119 = CARTESIAN_POINT ('', (-133., 9.49999999999998, 38.));
#120 = CARTESIAN_POINT ('', (-133., -28.5, 19.));
#121 = CARTESIAN_POINT ('', (-133., -28.5, -19.));
#122 = CARTESIAN_POINT ('', (-133., 9.50000000000002, -38.));
#123 = CARTESIAN_POINT ('', (-133., 9.5, -2.32682891837997E-15));
#124 = (
   BOUNDED_CURVE ()
   B_SPLINE_CURVE (5, (#118, #119, #120, #121, #122, #123), .UNSPECIFIED., .T., .U.)
   B_SPLINE_CURVE_WITH_KNOTS ((6, 6), (0., 1.), .UNSPECIFIED.)
   CURVE ()
   GEOMETRIC_REPRESENTATION_ITEM ()
   RATIONAL_B_SPLINE_CURVE ((5., 1., 1., 1., 1., 5.))
   REPRESENTATION_ITEM ('')
);
#125 = EDGE_CURVE ('', #111, #111, #124, .T.);
#126 = ORIENTED_EDGE ('', *, *, #125, .F.);
#127 = EDGE_LOOP ('', (#116, #117, #126));
#128 = FACE_OUTER_BOUND ('', #127, .T.);
#129 = CARTESIAN_POINT ('', (-133., 8.1439012143299E-15, -8.1439012143299E-15));
#130 = CARTESIAN_POINT ('', (-133., 9.5, -2.32682891837997E-15));
#131 = CARTESIAN_POINT ('', (-133., 8.1439012143299E-15, -8.1439012143299E-15));
#132 = CARTESIAN_POINT ('', (-133., 9.49999999999998, 38.));
#133 = CARTESIAN_POINT ('', (-133., 8.1439012143299E-15, -8.1439012143299E-15));
#134 = CARTESIAN_POINT ('', (-133., -28.5, 19.));
#135 = CARTESIAN_POINT ('', (-133., 8.1439012143299E-15, -8.1439012143299E-15));
#136 = CARTESIAN_POINT ('', (-133., -28.5, -19.));
#137 = CARTESIAN_POINT ('', (-133., 8.1439012143299E-15, -8.1439012143299E-15));
#138 = CARTESIAN_POINT ('', (-133., 9.50000000000002, -38.));
#139 = CARTESIAN_POINT ('', (-133., 8.1439012143299E-15, -8.1439012143299E-15));
#140 = CARTESIAN_POINT ('', (-133., 9.5, -2.32682891837997E-15));
#141 = (
   BOUNDED_SURFACE ()
   B_SPLINE_SURFACE (5, 1, ((#129, #130), (#131, #132), (#133, #134), (#135, #136), (#137, #138), (#139, #140)), .UNSPECIFIED., .T., .F., .U.)
   B_SPLINE_SURFACE_WITH_KNOTS ((6, 6), (2, 2), (0., 1.), (0., 1.), .UNSPECIFIED.)
   SURFACE ()
   GEOMETRIC_REPRESENTATION_ITEM ()
   RATIONAL_B_SPLINE_SURFACE (((5., 5.), (1., 1.), (1., 1.), (1., 1.), (1., 1.), (5., 5.)))
   REPRESENTATION_ITEM ('')
);
#142 = ADVANCED_FACE ('', (#128), #141, .T.);
#143 = CARTESIAN_POINT ('', (-133., 9.5, -2.32682891837997E-15));
#144 = CARTESIAN_POINT ('', (-132.833333333333, 9.6666666666667, -2.36765047835156E-15));
#145 = CARTESIAN_POINT ('', (-132.666666666667, 9.83333333333331, -2.40847203832312E-15));
#146 = CARTESIAN_POINT ('', (-132.5, 10., -2.4492935982947E-15));
#147 = B_SPLINE_CURVE_WITH_KNOTS ('', 3, (#143, #144, #145, #146), .UNSPECIFIED., .F., .U., (4, 4), (0., 1.), .UNSPECIFIED.);
#148 = EDGE_CURVE ('', #111, #61, #147, .T.);
#149 = ORIENTED_EDGE ('', *, *, #148, .F.);
#150 = ORIENTED_EDGE ('', *, *, #125, .T.);
#151 = ORIENTED_EDGE ('', *, *, #148, .T.);
#152 = ORIENTED_EDGE ('', *, *, #76, .F.);
#153 = EDGE_LOOP ('', (#149, #150, #151, #152));
#154 = FACE_OUTER_BOUND ('', #153, .T.);
#155 = CARTESIAN_POINT ('', (-133., 9.5, -2.32682891837997E-15));
#156 = CARTESIAN_POINT ('', (-132.833333333333, 9.6666666666667, -2.36765047835156E-15));
#157 = CARTESIAN_POINT ('', (-132.666666666667, 9.83333333333331, -2.40847203832312E-15));
#158 = CARTESIAN_POINT ('', (-132.5, 10., -2.4492935982947E-15));
#159 = CARTESIAN_POINT ('', (-133., 9.49999999999998, 38.));
#160 = CARTESIAN_POINT ('', (-132.833333333333, 9.66666666666668, 38.6666666666668));
#161 = CARTESIAN_POINT ('', (-132.666666666667, 9.83333333333328, 39.3333333333332));
#162 = CARTESIAN_POINT ('', (-132.5, 9.99999999999998, 40.));
#163 = CARTESIAN_POINT ('', (-133., -28.5, 19.));
#164 = CARTESIAN_POINT ('', (-132.833333333333, -29.0000000000001, 19.3333333333334));
#165 = CARTESIAN_POINT ('', (-132.666666666667, -29.4999999999999, 19.6666666666666));
#166 = CARTESIAN_POINT ('', (-132.5, -30., 20.));
#167 = CARTESIAN_POINT ('', (-133., -28.5, -19.));
#168 = CARTESIAN_POINT ('', (-132.833333333333, -29.0000000000001, -19.3333333333334));
#169 = CARTESIAN_POINT ('', (-132.666666666667, -29.4999999999999, -19.6666666666666));
#170 = CARTESIAN_POINT ('', (-132.5, -30., -20.));
#171 = CARTESIAN_POINT ('', (-133., 9.50000000000002, -38.));
#172 = CARTESIAN_POINT ('', (-132.833333333333, 9.66666666666673, -38.6666666666668));
#173 = CARTESIAN_POINT ('', (-132.666666666667, 9.83333333333333, -39.3333333333332));
#174 = CARTESIAN_POINT ('', (-132.5, 10., -40.));
#175 = CARTESIAN_POINT ('', (-133., 9.5, -2.32682891837997E-15));
#176 = CARTESIAN_POINT ('', (-132.833333333333, 9.6666666666667, -2.36765047835156E-15));
#177 = CARTESIAN_POINT ('', (-132.666666666667, 9.83333333333331, -2.40847203832312E-15));
#178 = CARTESIAN_POINT ('', (-132.5, 10., -2.4492935982947E-15));
#179 = (
   BOUNDED_SURFACE ()
   B_SPLINE_SURFACE (5, 3, ((#155, #156, #157, #158), (#159, #160, #161, #162), (#163, #164, #165, #166), (#167, #168, #169, #170), (#171, #172, #173, #174), (#175, #176, #177, #178)), .UNSPECIFIED., .T., .F., .U.)
   B_SPLINE_SURFACE_WITH_KNOTS ((6, 6), (4, 4), (0., 1.), (0., 1.), .UNSPECIFIED.)
   SURFACE ()
   GEOMETRIC_REPRESENTATION_ITEM ()
   RATIONAL_B_SPLINE_SURFACE (((5., 5., 5., 5.), (1., 1., 1., 1.), (1., 1., 1., 1.), (1., 1., 1., 1.), (1., 1., 1., 1.), (5., 5., 5., 5.)))
   REPRESENTATION_ITEM ('')
);
#180 = ADVANCED_FACE ('', (#154), #179, .T.);
#181 = CLOSED_SHELL ('', (#59, #107, #142, #180));
#182 = MANIFOLD_SOLID_BREP ('', #181);
#183 = (
   LENGTH_UNIT ()
   NAMED_UNIT (*)
   SI_UNIT (.MILLI., .METRE.)
);
#184 = (
   NAMED_UNIT (*)
   SI_UNIT ($, .STERADIAN.)
   SOLID_ANGLE_UNIT ()
);
#185 = (
   NAMED_UNIT (*)
   SI_UNIT ($, .RADIAN.)
   PLANE_ANGLE_UNIT ()
);
#186 = UNCERTAINTY_MEASURE_WITH_UNIT (LENGTH_MEASURE(0.001), #183, 'DISTANCE_ACCURACY_VALUE', '');
#187 = (
   GEOMETRIC_REPRESENTATION_CONTEXT (3)
   GLOBAL_UNCERTAINTY_ASSIGNED_CONTEXT ((#186))
   GLOBAL_UNIT_ASSIGNED_CONTEXT ((#183, #184, #185))
   REPRESENTATION_CONTEXT ('', '3D')
);
#188 = SHAPE_REPRESENTATION ('', (), #187);
#189 = APPLICATION_CONTEXT ('configuration controlled 3D designs of mechanical parts and assemblies');
#190 = APPLICATION_PROTOCOL_DEFINITION ('International Standard', 'config_control_design', 1997, #189);
#191 = MECHANICAL_CONTEXT ('', #189, 'mechanical');
#192 = PRODUCT ('', '', '', (#191));
#193 = PERSON_AND_ORGANIZATION_ROLE ('design_owner');
#194 = PERSON ('', '', $, $, $, $);
#195 = ORGANIZATION ($, '', '');
#196 = PERSON_AND_ORGANIZATION (#194, #195);
#197 = CC_DESIGN_PERSON_AND_ORGANIZATION_ASSIGNMENT (#196, #193, (#192));
#198 = PRODUCT_RELATED_PRODUCT_CATEGORY ('detail', $, (#192));
#199 = PRODUCT_DEFINITION_FORMATION_WITH_SPECIFIED_SOURCE ('', '', #192, .NOT_KNOWN.);
#200 = APPROVAL_STATUS ('approved');
#201 = APPROVAL (#200, '');
#202 = CALENDAR_DATE (2021, 15, 4);
#203 = COORDINATED_UNIVERSAL_TIME_OFFSET (0, $, .AHEAD.);
#204 = LOCAL_TIME (12, 14, 15., #203);
#205 = DATE_AND_TIME (#202, #204);
#206 = APPROVAL_DATE_TIME (#205, #201);
#207 = APPROVAL_ROLE ('');
#208 = PERSON ('', '', $, $, $, $);
#209 = ORGANIZATION ($, '', '');
#210 = PERSON_AND_ORGANIZATION (#208, #209);
#211 = APPROVAL_PERSON_ORGANIZATION (#210, #201, #207);
#212 = CC_DESIGN_APPROVAL (#201, (#199));
#213 = PERSON_AND_ORGANIZATION_ROLE ('creator');
#214 = PERSON ('', '', $, $, $, $);
#215 = ORGANIZATION ($, '', '');
#216 = PERSON_AND_ORGANIZATION (#214, #215);
#217 = CC_DESIGN_PERSON_AND_ORGANIZATION_ASSIGNMENT (#216, #213, (#199));
#218 = PERSON_AND_ORGANIZATION_ROLE ('part_supplier');
#219 = PERSON ('', '', $, $, $, $);
#220 = ORGANIZATION ($, '', '');
#221 = PERSON_AND_ORGANIZATION (#219, #220);
#222 = CC_DESIGN_PERSON_AND_ORGANIZATION_ASSIGNMENT (#221, #218, (#199));
#223 = SECURITY_CLASSIFICATION_LEVEL ('unclassified');
#224 = SECURITY_CLASSIFICATION ('', '', #223);
#225 = APPROVAL_STATUS ('approved');
#226 = APPROVAL (#225, '');
#227 = CALENDAR_DATE (2021, 15, 4);
#228 = COORDINATED_UNIVERSAL_TIME_OFFSET (0, $, .AHEAD.);
#229 = LOCAL_TIME (12, 14, 15., #228);
#230 = DATE_AND_TIME (#227, #229);
#231 = APPROVAL_DATE_TIME (#230, #226);
#232 = APPROVAL_ROLE ('');
#233 = PERSON ('', '', $, $, $, $);
#234 = ORGANIZATION ($, '', '');
#235 = PERSON_AND_ORGANIZATION (#233, #234);
#236 = APPROVAL_PERSON_ORGANIZATION (#235, #226, #232);
#237 = CC_DESIGN_APPROVAL (#226, (#224));
#238 = DATE_TIME_ROLE ('classification_date');
#239 = CALENDAR_DATE (2021, 15, 4);
#240 = COORDINATED_UNIVERSAL_TIME_OFFSET (0, $, .AHEAD.);
#241 = LOCAL_TIME (12, 14, 15., #240);
#242 = DATE_AND_TIME (#239, #241);
#243 = CC_DESIGN_DATE_AND_TIME_ASSIGNMENT (#242, #238, (#224));
#244 = PERSON_AND_ORGANIZATION_ROLE ('classification_officer');
#245 = PERSON ('', '', $, $, $, $);
#246 = ORGANIZATION ($, '', '');
#247 = PERSON_AND_ORGANIZATION (#245, #246);
#248 = CC_DESIGN_PERSON_AND_ORGANIZATION_ASSIGNMENT (#247, #244, (#224));
#249 = CC_DESIGN_SECURITY_CLASSIFICATION (#224, (#199));
#250 = DESIGN_CONTEXT ('', #189, 'design');
#251 = PRODUCT_DEFINITION ('', '', #199, #250);
#252 = APPROVAL_STATUS ('approved');
#253 = APPROVAL (#252, '');
#254 = CALENDAR_DATE (2021, 15, 4);
#255 = COORDINATED_UNIVERSAL_TIME_OFFSET (0, $, .AHEAD.);
#256 = LOCAL_TIME (12, 14, 15., #255);
#257 = DATE_AND_TIME (#254, #256);
#258 = APPROVAL_DATE_TIME (#257, #253);
#259 = APPROVAL_ROLE ('');
#260 = PERSON ('', '', $, $, $, $);
#261 = ORGANIZATION ($, '', '');
#262 = PERSON_AND_ORGANIZATION (#260, #261);
#263 = APPROVAL_PERSON_ORGANIZATION (#262, #253, #259);
#264 = CC_DESIGN_APPROVAL (#253, (#251));
#265 = DATE_TIME_ROLE ('creation_date');
#266 = CALENDAR_DATE (2021, 15, 4);
#267 = COORDINATED_UNIVERSAL_TIME_OFFSET (0, $, .AHEAD.);
#268 = LOCAL_TIME (12, 14, 15., #267);
#269 = DATE_AND_TIME (#266, #268);
#270 = CC_DESIGN_DATE_AND_TIME_ASSIGNMENT (#269, #265, (#251));
#271 = PERSON_AND_ORGANIZATION_ROLE ('creator');
#272 = PERSON ('', '', $, $, $, $);
#273 = ORGANIZATION ($, '', '');
#274 = PERSON_AND_ORGANIZATION (#272, #273);
#275 = CC_DESIGN_PERSON_AND_ORGANIZATION_ASSIGNMENT (#274, #271, (#251));
#276 = PRODUCT_DEFINITION_SHAPE ('', '', #251);
#277 = SHAPE_DEFINITION_REPRESENTATION (#276, #188);
#278 = SHAPE_REPRESENTATION_RELATIONSHIP ('', '', #188, #279);
#279 = GEOMETRICALLY_BOUNDED_WIREFRAME_SHAPE_REPRESENTATION ('', (#4), #187);
#280 = SHAPE_REPRESENTATION_RELATIONSHIP ('', '', #188, #281);
#281 = ADVANCED_BREP_SHAPE_REPRESENTATION ('', (#182), #187);
ENDSEC;
END-ISO-10303-21;
