ISO-10303-21;
HEADER;
FILE_DESCRIPTION ((), '1');
FILE_NAME ('C:\\Users\\kevin\\380 Range\\380M 1200-1_0RAX.STP', '2020-04-16T14:24:19', ('Unknown'), ('mafordeurope'), 'OneCNC-XR7 Mill 3D Expert', 'OneCNC-XR7 Mill 3D Expert', '');
FILE_SCHEMA (('CONFIG_CONTROL_DESIGN'));
ENDSEC;

DATA;
#1 = CARTESIAN_POINT ('', (-1.95139397324323E-16, 1.19488419160388E-32, -1.19488419160388E-32));
#2 = VERTEX_POINT ('', #1);
#3 = CARTESIAN_POINT ('', (1.11022302462516E-16, 5., -1.22464679914735E-15));
#4 = VERTEX_POINT ('', #3);
#5 = CARTESIAN_POINT ('', (-1.95139397324323E-16, 1.19488419160388E-32, -1.19488419160388E-32));
#6 = CARTESIAN_POINT ('', (1.11022302462516E-16, 5., -1.22464679914735E-15));
#7 = B_SPLINE_CURVE_WITH_KNOTS ('', 1, (#5, #6), .UNSPECIFIED., .F., .U., (2, 2), (0., 1.), .UNSPECIFIED.);
#8 = EDGE_CURVE ('', #2, #4, #7, .T.);
#9 = ORIENTED_EDGE ('', *, *, #8, .F.);
#10 = ORIENTED_EDGE ('', *, *, #8, .T.);
#11 = CARTESIAN_POINT ('', (1.11022302462516E-16, 5., -1.22464679914735E-15));
#12 = CARTESIAN_POINT ('', (-1.11362449668484E-15, 5.00000000000001, 20.));
#13 = CARTESIAN_POINT ('', (-1.72594789625851E-15, -15., 10.));
#14 = CARTESIAN_POINT ('', (-5.01301097111161E-16, -15., -10.));
#15 = CARTESIAN_POINT ('', (1.33566910160987E-15, 4.99999999999999, -20.));
#16 = CARTESIAN_POINT ('', (1.11022302462516E-16, 5., -1.22464679914735E-15));
#17 = (
   BOUNDED_CURVE ()
   B_SPLINE_CURVE (5, (#11, #12, #13, #14, #15, #16), .UNSPECIFIED., .T., .U.)
   B_SPLINE_CURVE_WITH_KNOTS ((6, 6), (0., 1.), .UNSPECIFIED.)
   CURVE ()
   GEOMETRIC_REPRESENTATION_ITEM ()
   RATIONAL_B_SPLINE_CURVE ((5., 1., 1., 1., 1., 5.))
   REPRESENTATION_ITEM ('')
);
#18 = EDGE_CURVE ('', #4, #4, #17, .T.);
#19 = ORIENTED_EDGE ('', *, *, #18, .F.);
#20 = EDGE_LOOP ('', (#9, #10, #19));
#21 = FACE_OUTER_BOUND ('', #20, .F.);
#22 = CARTESIAN_POINT ('', (-1.95139397324323E-16, 1.19488419160388E-32, -1.19488419160388E-32));
#23 = CARTESIAN_POINT ('', (1.11022302462516E-16, 5., -1.22464679914735E-15));
#24 = CARTESIAN_POINT ('', (-1.95139397324323E-16, 1.19488419160388E-32, -1.19488419160388E-32));
#25 = CARTESIAN_POINT ('', (-1.11362449668484E-15, 5.00000000000001, 20.));
#26 = CARTESIAN_POINT ('', (-1.95139397324323E-16, 1.19488419160388E-32, -1.19488419160388E-32));
#27 = CARTESIAN_POINT ('', (-1.72594789625851E-15, -15., 10.));
#28 = CARTESIAN_POINT ('', (-1.95139397324323E-16, 1.19488419160388E-32, -1.19488419160388E-32));
#29 = CARTESIAN_POINT ('', (-5.01301097111161E-16, -15., -10.));
#30 = CARTESIAN_POINT ('', (-1.95139397324323E-16, 1.19488419160388E-32, -1.19488419160388E-32));
#31 = CARTESIAN_POINT ('', (1.33566910160987E-15, 4.99999999999999, -20.));
#32 = CARTESIAN_POINT ('', (-1.95139397324323E-16, 1.19488419160388E-32, -1.19488419160388E-32));
#33 = CARTESIAN_POINT ('', (1.11022302462516E-16, 5., -1.22464679914735E-15));
#34 = (
   BOUNDED_SURFACE ()
   B_SPLINE_SURFACE (5, 1, ((#22, #23), (#24, #25), (#26, #27), (#28, #29), (#30, #31), (#32, #33)), .UNSPECIFIED., .T., .F., .U.)
   B_SPLINE_SURFACE_WITH_KNOTS ((6, 6), (2, 2), (0., 1.), (0., 1.), .UNSPECIFIED.)
   SURFACE ()
   GEOMETRIC_REPRESENTATION_ITEM ()
   RATIONAL_B_SPLINE_SURFACE (((5., 5.), (1., 1.), (1., 1.), (1., 1.), (1., 1.), (5., 5.)))
   REPRESENTATION_ITEM ('')
);
#35 = ADVANCED_FACE ('', (#21), #34, .F.);
#36 = CARTESIAN_POINT ('', (-1., 6., -1.46957615897682E-15));
#37 = VERTEX_POINT ('', #36);
#38 = CARTESIAN_POINT ('', (1.11022302462516E-16, 5., -1.22464679914735E-15));
#39 = CARTESIAN_POINT ('', (1.11022302462516E-16, 5.1760201399507, -1.26775929934257E-15));
#40 = CARTESIAN_POINT ('', (-0.0758056175953782, 5.45460203386718, -1.33599218427962E-15));
#41 = CARTESIAN_POINT ('', (-0.340300069367815, 5.77994569979808, -1.41567840010064E-15));
#42 = CARTESIAN_POINT ('', (-0.646258066388878, 5.95947153962431, -1.45964954912213E-15));
#43 = CARTESIAN_POINT ('', (-0.890744622220273, 6., -1.46957615897682E-15));
#44 = CARTESIAN_POINT ('', (-1., 6., -1.46957615897682E-15));
#45 = B_SPLINE_CURVE_WITH_KNOTS ('', 3, (#38, #39, #40, #41, #42, #43, #44), .UNSPECIFIED., .F., .U., (4, 1, 1, 1, 4), (0., 0.33617370428258, 0.532939663384364, 0.791337598803809, 1.), .UNSPECIFIED.);
#46 = EDGE_CURVE ('', #4, #37, #45, .T.);
#47 = ORIENTED_EDGE ('', *, *, #46, .F.);
#48 = ORIENTED_EDGE ('', *, *, #18, .T.);
#49 = ORIENTED_EDGE ('', *, *, #46, .T.);
#50 = CARTESIAN_POINT ('', (-1., 6., -1.46957615897682E-15));
#51 = CARTESIAN_POINT ('', (-1., 6.00000000000001, 24.));
#52 = CARTESIAN_POINT ('', (-1., -18., 12.));
#53 = CARTESIAN_POINT ('', (-1., -18., -12.));
#54 = CARTESIAN_POINT ('', (-0.999999999999998, 5.99999999999999, -24.));
#55 = CARTESIAN_POINT ('', (-1., 6., -1.46957615897682E-15));
#56 = (
   BOUNDED_CURVE ()
   B_SPLINE_CURVE (5, (#50, #51, #52, #53, #54, #55), .UNSPECIFIED., .T., .U.)
   B_SPLINE_CURVE_WITH_KNOTS ((6, 6), (0., 1.), .UNSPECIFIED.)
   CURVE ()
   GEOMETRIC_REPRESENTATION_ITEM ()
   RATIONAL_B_SPLINE_CURVE ((5., 1., 1., 1., 1., 5.))
   REPRESENTATION_ITEM ('')
);
#57 = EDGE_CURVE ('', #37, #37, #56, .T.);
#58 = ORIENTED_EDGE ('', *, *, #57, .F.);
#59 = EDGE_LOOP ('', (#47, #48, #49, #58));
#60 = FACE_OUTER_BOUND ('', #59, .F.);
#61 = CARTESIAN_POINT ('', (1.11022302462516E-16, 5., -1.22464679914735E-15));
#62 = CARTESIAN_POINT ('', (1.11022302462516E-16, 5.1760201399507, -1.26775929934257E-15));
#63 = CARTESIAN_POINT ('', (-0.0758056175953782, 5.45460203386718, -1.33599218427962E-15));
#64 = CARTESIAN_POINT ('', (-0.340300069367815, 5.77994569979808, -1.41567840010064E-15));
#65 = CARTESIAN_POINT ('', (-0.646258066388878, 5.95947153962431, -1.45964954912213E-15));
#66 = CARTESIAN_POINT ('', (-0.890744622220273, 6., -1.46957615897682E-15));
#67 = CARTESIAN_POINT ('', (-1., 6., -1.46957615897682E-15));
#68 = CARTESIAN_POINT ('', (-1.11362449668484E-15, 5.00000000000001, 20.));
#69 = CARTESIAN_POINT ('', (-1.15673699688006E-15, 5.17602013995071, 20.7040805598028));
#70 = CARTESIAN_POINT ('', (-0.0758056175953795, 5.45460203386718, 21.8184081354687));
#71 = CARTESIAN_POINT ('', (-0.340300069367816, 5.77994569979808, 23.1197827991923));
#72 = CARTESIAN_POINT ('', (-0.64625806638888, 5.95947153962431, 23.8378861584972));
#73 = CARTESIAN_POINT ('', (-0.890744622220274, 6., 24.));
#74 = CARTESIAN_POINT ('', (-1., 6.00000000000001, 24.));
#75 = CARTESIAN_POINT ('', (-1.72594789625851E-15, -15., 10.));
#76 = CARTESIAN_POINT ('', (-1.79061664655134E-15, -15.5280604198521, 10.3520402799014));
#77 = CARTESIAN_POINT ('', (-0.0758056175953802, -16.3638061016015, 10.9092040677344));
#78 = CARTESIAN_POINT ('', (-0.340300069367817, -17.3398370993942, 11.5598913995962));
#79 = CARTESIAN_POINT ('', (-0.646258066388881, -17.8784146188729, 11.9189430792486));
#80 = CARTESIAN_POINT ('', (-0.890744622220275, -18., 12.));
#81 = CARTESIAN_POINT ('', (-1., -18., 12.));
#82 = CARTESIAN_POINT ('', (-5.01301097111161E-16, -15., -10.));
#83 = CARTESIAN_POINT ('', (-5.22857347208771E-16, -15.5280604198521, -10.3520402799014));
#84 = CARTESIAN_POINT ('', (-0.0758056175953788, -16.3638061016015, -10.9092040677344));
#85 = CARTESIAN_POINT ('', (-0.340300069367815, -17.3398370993942, -11.5598913995961));
#86 = CARTESIAN_POINT ('', (-0.646258066388879, -17.8784146188729, -11.9189430792486));
#87 = CARTESIAN_POINT ('', (-0.890744622220273, -18., -12.));
#88 = CARTESIAN_POINT ('', (-1., -18., -12.));
#89 = CARTESIAN_POINT ('', (1.33566910160987E-15, 4.99999999999999, -20.));
#90 = CARTESIAN_POINT ('', (1.37878160180509E-15, 5.17602013995069, -20.7040805598028));
#91 = CARTESIAN_POINT ('', (-0.0758056175953768, 5.45460203386717, -21.8184081354687));
#92 = CARTESIAN_POINT ('', (-0.340300069367813, 5.77994569979807, -23.1197827991923));
#93 = CARTESIAN_POINT ('', (-0.646258066388877, 5.9594715396243, -23.8378861584972));
#94 = CARTESIAN_POINT ('', (-0.890744622220271, 5.99999999999999, -24.));
#95 = CARTESIAN_POINT ('', (-0.999999999999998, 5.99999999999999, -24.));
#96 = CARTESIAN_POINT ('', (1.11022302462516E-16, 5., -1.22464679914735E-15));
#97 = CARTESIAN_POINT ('', (1.11022302462516E-16, 5.1760201399507, -1.26775929934257E-15));
#98 = CARTESIAN_POINT ('', (-0.0758056175953782, 5.45460203386718, -1.33599218427962E-15));
#99 = CARTESIAN_POINT ('', (-0.340300069367815, 5.77994569979808, -1.41567840010064E-15));
#100 = CARTESIAN_POINT ('', (-0.646258066388878, 5.95947153962431, -1.45964954912213E-15));
#101 = CARTESIAN_POINT ('', (-0.890744622220273, 6., -1.46957615897682E-15));
#102 = CARTESIAN_POINT ('', (-1., 6., -1.46957615897682E-15));
#103 = (
   BOUNDED_SURFACE ()
   B_SPLINE_SURFACE (5, 3, ((#61, #62, #63, #64, #65, #66, #67), (#68, #69, #70, #71, #72, #73, #74), (#75, #76, #77, #78, #79, #80, #81), (#82, #83, #84, #85, #86, #87, #88), (#89, #90, #91, #92, #93, #94, #95), (#96, #97, #98, #99, #100, #101, #102)), .UNSPECIFIED., .T., .F., .U.)
   B_SPLINE_SURFACE_WITH_KNOTS ((6, 6), (4, 1, 1, 1, 4), (0., 1.), (0., 0.33617370428258, 0.532939663384364, 0.791337598803809, 1.), .UNSPECIFIED.)
   SURFACE ()
   GEOMETRIC_REPRESENTATION_ITEM ()
   RATIONAL_B_SPLINE_SURFACE (((5., 5., 5., 5., 5., 5., 5.), (1., 1., 1., 1., 1., 1., 1.), (1., 1., 1., 1., 1., 1., 1.), (1., 1., 1., 1., 1., 1., 1.), (1., 1., 1., 1., 1., 1., 1.), (5., 5., 5., 5., 5., 5., 5.)))
   REPRESENTATION_ITEM ('')
);
#104 = ADVANCED_FACE ('', (#60), #103, .F.);
#105 = CARTESIAN_POINT ('', (-80.75, 6., -1.46957615897682E-15));
#106 = VERTEX_POINT ('', #105);
#107 = CARTESIAN_POINT ('', (-1., 6., -1.46957615897682E-15));
#108 = CARTESIAN_POINT ('', (-27.5833333333333, 6., -1.46957615897682E-15));
#109 = CARTESIAN_POINT ('', (-54.1666666666666, 6.00000000000001, -1.46957615897682E-15));
#110 = CARTESIAN_POINT ('', (-80.75, 6., -1.46957615897682E-15));
#111 = B_SPLINE_CURVE_WITH_KNOTS ('', 3, (#107, #108, #109, #110), .UNSPECIFIED., .F., .U., (4, 4), (0., 1.), .UNSPECIFIED.);
#112 = EDGE_CURVE ('', #37, #106, #111, .T.);
#113 = ORIENTED_EDGE ('', *, *, #112, .F.);
#114 = ORIENTED_EDGE ('', *, *, #57, .T.);
#115 = ORIENTED_EDGE ('', *, *, #112, .T.);
#116 = CARTESIAN_POINT ('', (-80.75, 6., -1.46957615897682E-15));
#117 = CARTESIAN_POINT ('', (-80.75, 5.99999999999999, 24.));
#118 = CARTESIAN_POINT ('', (-80.75, -18., 12.));
#119 = CARTESIAN_POINT ('', (-80.75, -18., -12.));
#120 = CARTESIAN_POINT ('', (-80.75, 6.00000000000002, -24.));
#121 = CARTESIAN_POINT ('', (-80.75, 6., -1.46957615897682E-15));
#122 = (
   BOUNDED_CURVE ()
   B_SPLINE_CURVE (5, (#116, #117, #118, #119, #120, #121), .UNSPECIFIED., .T., .U.)
   B_SPLINE_CURVE_WITH_KNOTS ((6, 6), (0., 1.), .UNSPECIFIED.)
   CURVE ()
   GEOMETRIC_REPRESENTATION_ITEM ()
   RATIONAL_B_SPLINE_CURVE ((5., 1., 1., 1., 1., 5.))
   REPRESENTATION_ITEM ('')
);
#123 = EDGE_CURVE ('', #106, #106, #122, .T.);
#124 = ORIENTED_EDGE ('', *, *, #123, .F.);
#125 = EDGE_LOOP ('', (#113, #114, #115, #124));
#126 = FACE_OUTER_BOUND ('', #125, .F.);
#127 = CARTESIAN_POINT ('', (-1., 6., -1.46957615897682E-15));
#128 = CARTESIAN_POINT ('', (-27.5833333333333, 6., -1.46957615897682E-15));
#129 = CARTESIAN_POINT ('', (-54.1666666666666, 6.00000000000001, -1.46957615897682E-15));
#130 = CARTESIAN_POINT ('', (-80.75, 6., -1.46957615897682E-15));
#131 = CARTESIAN_POINT ('', (-1., 6.00000000000001, 24.));
#132 = CARTESIAN_POINT ('', (-27.5833333333333, 6., 24.));
#133 = CARTESIAN_POINT ('', (-54.1666666666666, 6., 24.));
#134 = CARTESIAN_POINT ('', (-80.75, 5.99999999999999, 24.));
#135 = CARTESIAN_POINT ('', (-1., -18., 12.));
#136 = CARTESIAN_POINT ('', (-27.5833333333333, -18., 12.));
#137 = CARTESIAN_POINT ('', (-54.1666666666666, -18., 12.));
#138 = CARTESIAN_POINT ('', (-80.75, -18., 12.));
#139 = CARTESIAN_POINT ('', (-1., -18., -12.));
#140 = CARTESIAN_POINT ('', (-27.5833333333333, -18., -12.));
#141 = CARTESIAN_POINT ('', (-54.1666666666666, -18., -12.));
#142 = CARTESIAN_POINT ('', (-80.75, -18., -12.));
#143 = CARTESIAN_POINT ('', (-0.999999999999998, 5.99999999999999, -24.));
#144 = CARTESIAN_POINT ('', (-27.5833333333333, 6., -24.));
#145 = CARTESIAN_POINT ('', (-54.1666666666666, 6.00000000000002, -24.));
#146 = CARTESIAN_POINT ('', (-80.75, 6.00000000000002, -24.));
#147 = CARTESIAN_POINT ('', (-1., 6., -1.46957615897682E-15));
#148 = CARTESIAN_POINT ('', (-27.5833333333333, 6., -1.46957615897682E-15));
#149 = CARTESIAN_POINT ('', (-54.1666666666666, 6.00000000000001, -1.46957615897682E-15));
#150 = CARTESIAN_POINT ('', (-80.75, 6., -1.46957615897682E-15));
#151 = (
   BOUNDED_SURFACE ()
   B_SPLINE_SURFACE (5, 3, ((#127, #128, #129, #130), (#131, #132, #133, #134), (#135, #136, #137, #138), (#139, #140, #141, #142), (#143, #144, #145, #146), (#147, #148, #149, #150)), .UNSPECIFIED., .T., .F., .U.)
   B_SPLINE_SURFACE_WITH_KNOTS ((6, 6), (4, 4), (0., 1.), (0., 1.), .UNSPECIFIED.)
   SURFACE ()
   GEOMETRIC_REPRESENTATION_ITEM ()
   RATIONAL_B_SPLINE_SURFACE (((5., 5., 5., 5.), (1., 1., 1., 1.), (1., 1., 1., 1.), (1., 1., 1., 1.), (1., 1., 1., 1.), (5., 5., 5., 5.)))
   REPRESENTATION_ITEM ('')
);
#152 = ADVANCED_FACE ('', (#126), #151, .F.);
#153 = CARTESIAN_POINT ('', (-81., 5.75, -1.40834381901946E-15));
#154 = VERTEX_POINT ('', #153);
#155 = CARTESIAN_POINT ('', (-81., 4.95981953654678E-15, -4.95981953654678E-15));
#156 = VERTEX_POINT ('', #155);
#157 = CARTESIAN_POINT ('', (-81., 5.75, -1.40834381901946E-15));
#158 = CARTESIAN_POINT ('', (-81., 4.95981953654678E-15, -4.95981953654678E-15));
#159 = B_SPLINE_CURVE_WITH_KNOTS ('', 1, (#157, #158), .UNSPECIFIED., .F., .U., (2, 2), (0., 1.), .UNSPECIFIED.);
#160 = EDGE_CURVE ('', #154, #156, #159, .T.);
#161 = ORIENTED_EDGE ('', *, *, #160, .F.);
#162 = CARTESIAN_POINT ('', (-81., 5.75, -1.40834381901946E-15));
#163 = CARTESIAN_POINT ('', (-81., 5.74999999999999, 23.));
#164 = CARTESIAN_POINT ('', (-81., -17.25, 11.5));
#165 = CARTESIAN_POINT ('', (-81., -17.25, -11.5));
#166 = CARTESIAN_POINT ('', (-81., 5.75000000000002, -23.));
#167 = CARTESIAN_POINT ('', (-81., 5.75, -1.40834381901946E-15));
#168 = (
   BOUNDED_CURVE ()
   B_SPLINE_CURVE (5, (#162, #163, #164, #165, #166, #167), .UNSPECIFIED., .T., .U.)
   B_SPLINE_CURVE_WITH_KNOTS ((6, 6), (0., 1.), .UNSPECIFIED.)
   CURVE ()
   GEOMETRIC_REPRESENTATION_ITEM ()
   RATIONAL_B_SPLINE_CURVE ((5., 1., 1., 1., 1., 5.))
   REPRESENTATION_ITEM ('')
);
#169 = EDGE_CURVE ('', #154, #154, #168, .T.);
#170 = ORIENTED_EDGE ('', *, *, #169, .T.);
#171 = ORIENTED_EDGE ('', *, *, #160, .T.);
#172 = EDGE_LOOP ('', (#161, #170, #171));
#173 = FACE_OUTER_BOUND ('', #172, .F.);
#174 = CARTESIAN_POINT ('', (-81., 5.75, -1.40834381901946E-15));
#175 = CARTESIAN_POINT ('', (-81., 4.95981953654678E-15, -4.95981953654678E-15));
#176 = CARTESIAN_POINT ('', (-81., 5.74999999999999, 23.));
#177 = CARTESIAN_POINT ('', (-81., 4.95981953654678E-15, -4.95981953654678E-15));
#178 = CARTESIAN_POINT ('', (-81., -17.25, 11.5));
#179 = CARTESIAN_POINT ('', (-81., 4.95981953654678E-15, -4.95981953654678E-15));
#180 = CARTESIAN_POINT ('', (-81., -17.25, -11.5));
#181 = CARTESIAN_POINT ('', (-81., 4.95981953654678E-15, -4.95981953654678E-15));
#182 = CARTESIAN_POINT ('', (-81., 5.75000000000002, -23.));
#183 = CARTESIAN_POINT ('', (-81., 4.95981953654678E-15, -4.95981953654678E-15));
#184 = CARTESIAN_POINT ('', (-81., 5.75, -1.40834381901946E-15));
#185 = CARTESIAN_POINT ('', (-81., 4.95981953654678E-15, -4.95981953654678E-15));
#186 = (
   BOUNDED_SURFACE ()
   B_SPLINE_SURFACE (5, 1, ((#174, #175), (#176, #177), (#178, #179), (#180, #181), (#182, #183), (#184, #185)), .UNSPECIFIED., .T., .F., .U.)
   B_SPLINE_SURFACE_WITH_KNOTS ((6, 6), (2, 2), (0., 1.), (0., 1.), .UNSPECIFIED.)
   SURFACE ()
   GEOMETRIC_REPRESENTATION_ITEM ()
   RATIONAL_B_SPLINE_SURFACE (((5., 5.), (1., 1.), (1., 1.), (1., 1.), (1., 1.), (5., 5.)))
   REPRESENTATION_ITEM ('')
);
#187 = ADVANCED_FACE ('', (#173), #186, .F.);
#188 = CARTESIAN_POINT ('', (-80.75, 6., -1.46957615897682E-15));
#189 = CARTESIAN_POINT ('', (-80.8333333333333, 5.91666666666666, -1.44916537899103E-15));
#190 = CARTESIAN_POINT ('', (-80.9166666666666, 5.83333333333334, -1.42875459900525E-15));
#191 = CARTESIAN_POINT ('', (-81., 5.75, -1.40834381901946E-15));
#192 = B_SPLINE_CURVE_WITH_KNOTS ('', 3, (#188, #189, #190, #191), .UNSPECIFIED., .F., .U., (4, 4), (0., 1.), .UNSPECIFIED.);
#193 = EDGE_CURVE ('', #106, #154, #192, .T.);
#194 = ORIENTED_EDGE ('', *, *, #193, .F.);
#195 = ORIENTED_EDGE ('', *, *, #123, .T.);
#196 = ORIENTED_EDGE ('', *, *, #193, .T.);
#197 = ORIENTED_EDGE ('', *, *, #169, .F.);
#198 = EDGE_LOOP ('', (#194, #195, #196, #197));
#199 = FACE_OUTER_BOUND ('', #198, .F.);
#200 = CARTESIAN_POINT ('', (-80.75, 6., -1.46957615897682E-15));
#201 = CARTESIAN_POINT ('', (-80.8333333333333, 5.91666666666666, -1.44916537899103E-15));
#202 = CARTESIAN_POINT ('', (-80.9166666666666, 5.83333333333334, -1.42875459900525E-15));
#203 = CARTESIAN_POINT ('', (-81., 5.75, -1.40834381901946E-15));
#204 = CARTESIAN_POINT ('', (-80.75, 5.99999999999999, 24.));
#205 = CARTESIAN_POINT ('', (-80.8333333333333, 5.91666666666664, 23.6666666666666));
#206 = CARTESIAN_POINT ('', (-80.9166666666666, 5.83333333333332, 23.3333333333333));
#207 = CARTESIAN_POINT ('', (-81., 5.74999999999999, 23.));
#208 = CARTESIAN_POINT ('', (-80.75, -18., 12.));
#209 = CARTESIAN_POINT ('', (-80.8333333333333, -17.75, 11.8333333333333));
#210 = CARTESIAN_POINT ('', (-80.9166666666666, -17.5, 11.6666666666666));
#211 = CARTESIAN_POINT ('', (-81., -17.25, 11.5));
#212 = CARTESIAN_POINT ('', (-80.75, -18., -12.));
#213 = CARTESIAN_POINT ('', (-80.8333333333333, -17.7499999999999, -11.8333333333333));
#214 = CARTESIAN_POINT ('', (-80.9166666666666, -17.5, -11.6666666666667));
#215 = CARTESIAN_POINT ('', (-81., -17.25, -11.5));
#216 = CARTESIAN_POINT ('', (-80.75, 6.00000000000002, -24.));
#217 = CARTESIAN_POINT ('', (-80.8333333333333, 5.91666666666667, -23.6666666666666));
#218 = CARTESIAN_POINT ('', (-80.9166666666666, 5.83333333333335, -23.3333333333333));
#219 = CARTESIAN_POINT ('', (-81., 5.75000000000002, -23.));
#220 = CARTESIAN_POINT ('', (-80.75, 6., -1.46957615897682E-15));
#221 = CARTESIAN_POINT ('', (-80.8333333333333, 5.91666666666666, -1.44916537899103E-15));
#222 = CARTESIAN_POINT ('', (-80.9166666666666, 5.83333333333334, -1.42875459900525E-15));
#223 = CARTESIAN_POINT ('', (-81., 5.75, -1.40834381901946E-15));
#224 = (
   BOUNDED_SURFACE ()
   B_SPLINE_SURFACE (5, 3, ((#200, #201, #202, #203), (#204, #205, #206, #207), (#208, #209, #210, #211), (#212, #213, #214, #215), (#216, #217, #218, #219), (#220, #221, #222, #223)), .UNSPECIFIED., .T., .F., .U.)
   B_SPLINE_SURFACE_WITH_KNOTS ((6, 6), (4, 4), (0., 1.), (0., 1.), .UNSPECIFIED.)
   SURFACE ()
   GEOMETRIC_REPRESENTATION_ITEM ()
   RATIONAL_B_SPLINE_SURFACE (((5., 5., 5., 5.), (1., 1., 1., 1.), (1., 1., 1., 1.), (1., 1., 1., 1.), (1., 1., 1., 1.), (5., 5., 5., 5.)))
   REPRESENTATION_ITEM ('')
);
#225 = ADVANCED_FACE ('', (#199), #224, .F.);
#226 = CLOSED_SHELL ('', (#35, #104, #152, #187, #225));
#227 = MANIFOLD_SOLID_BREP ('', #226);
#228 = (
   LENGTH_UNIT ()
   NAMED_UNIT (*)
   SI_UNIT (.MILLI., .METRE.)
);
#229 = (
   NAMED_UNIT (*)
   SI_UNIT ($, .STERADIAN.)
   SOLID_ANGLE_UNIT ()
);
#230 = (
   NAMED_UNIT (*)
   SI_UNIT ($, .RADIAN.)
   PLANE_ANGLE_UNIT ()
);
#231 = UNCERTAINTY_MEASURE_WITH_UNIT (LENGTH_MEASURE(0.001), #228, 'DISTANCE_ACCURACY_VALUE', '');
#232 = (
   GEOMETRIC_REPRESENTATION_CONTEXT (3)
   GLOBAL_UNCERTAINTY_ASSIGNED_CONTEXT ((#231))
   GLOBAL_UNIT_ASSIGNED_CONTEXT ((#228, #229, #230))
   REPRESENTATION_CONTEXT ('', '3D')
);
#233 = SHAPE_REPRESENTATION ('', (), #232);
#234 = APPLICATION_CONTEXT ('configuration controlled 3D designs of mechanical parts and assemblies');
#235 = APPLICATION_PROTOCOL_DEFINITION ('International Standard', 'config_control_design', 1997, #234);
#236 = MECHANICAL_CONTEXT ('', #234, 'mechanical');
#237 = PRODUCT ('', '', '', (#236));
#238 = PERSON_AND_ORGANIZATION_ROLE ('design_owner');
#239 = PERSON ('', '', $, $, $, $);
#240 = ORGANIZATION ($, '', '');
#241 = PERSON_AND_ORGANIZATION (#239, #240);
#242 = CC_DESIGN_PERSON_AND_ORGANIZATION_ASSIGNMENT (#241, #238, (#237));
#243 = PRODUCT_RELATED_PRODUCT_CATEGORY ('detail', $, (#237));
#244 = PRODUCT_DEFINITION_FORMATION_WITH_SPECIFIED_SOURCE ('', '', #237, .NOT_KNOWN.);
#245 = APPROVAL_STATUS ('approved');
#246 = APPROVAL (#245, '');
#247 = CALENDAR_DATE (2020, 16, 4);
#248 = COORDINATED_UNIVERSAL_TIME_OFFSET (0, $, .AHEAD.);
#249 = LOCAL_TIME (14, 24, 19., #248);
#250 = DATE_AND_TIME (#247, #249);
#251 = APPROVAL_DATE_TIME (#250, #246);
#252 = APPROVAL_ROLE ('');
#253 = PERSON ('', '', $, $, $, $);
#254 = ORGANIZATION ($, '', '');
#255 = PERSON_AND_ORGANIZATION (#253, #254);
#256 = APPROVAL_PERSON_ORGANIZATION (#255, #246, #252);
#257 = CC_DESIGN_APPROVAL (#246, (#244));
#258 = PERSON_AND_ORGANIZATION_ROLE ('creator');
#259 = PERSON ('', '', $, $, $, $);
#260 = ORGANIZATION ($, '', '');
#261 = PERSON_AND_ORGANIZATION (#259, #260);
#262 = CC_DESIGN_PERSON_AND_ORGANIZATION_ASSIGNMENT (#261, #258, (#244));
#263 = PERSON_AND_ORGANIZATION_ROLE ('part_supplier');
#264 = PERSON ('', '', $, $, $, $);
#265 = ORGANIZATION ($, '', '');
#266 = PERSON_AND_ORGANIZATION (#264, #265);
#267 = CC_DESIGN_PERSON_AND_ORGANIZATION_ASSIGNMENT (#266, #263, (#244));
#268 = SECURITY_CLASSIFICATION_LEVEL ('unclassified');
#269 = SECURITY_CLASSIFICATION ('', '', #268);
#270 = APPROVAL_STATUS ('approved');
#271 = APPROVAL (#270, '');
#272 = CALENDAR_DATE (2020, 16, 4);
#273 = COORDINATED_UNIVERSAL_TIME_OFFSET (0, $, .AHEAD.);
#274 = LOCAL_TIME (14, 24, 19., #273);
#275 = DATE_AND_TIME (#272, #274);
#276 = APPROVAL_DATE_TIME (#275, #271);
#277 = APPROVAL_ROLE ('');
#278 = PERSON ('', '', $, $, $, $);
#279 = ORGANIZATION ($, '', '');
#280 = PERSON_AND_ORGANIZATION (#278, #279);
#281 = APPROVAL_PERSON_ORGANIZATION (#280, #271, #277);
#282 = CC_DESIGN_APPROVAL (#271, (#269));
#283 = DATE_TIME_ROLE ('classification_date');
#284 = CALENDAR_DATE (2020, 16, 4);
#285 = COORDINATED_UNIVERSAL_TIME_OFFSET (0, $, .AHEAD.);
#286 = LOCAL_TIME (14, 24, 19., #285);
#287 = DATE_AND_TIME (#284, #286);
#288 = CC_DESIGN_DATE_AND_TIME_ASSIGNMENT (#287, #283, (#269));
#289 = PERSON_AND_ORGANIZATION_ROLE ('classification_officer');
#290 = PERSON ('', '', $, $, $, $);
#291 = ORGANIZATION ($, '', '');
#292 = PERSON_AND_ORGANIZATION (#290, #291);
#293 = CC_DESIGN_PERSON_AND_ORGANIZATION_ASSIGNMENT (#292, #289, (#269));
#294 = CC_DESIGN_SECURITY_CLASSIFICATION (#269, (#244));
#295 = DESIGN_CONTEXT ('', #234, 'design');
#296 = PRODUCT_DEFINITION ('', '', #244, #295);
#297 = APPROVAL_STATUS ('approved');
#298 = APPROVAL (#297, '');
#299 = CALENDAR_DATE (2020, 16, 4);
#300 = COORDINATED_UNIVERSAL_TIME_OFFSET (0, $, .AHEAD.);
#301 = LOCAL_TIME (14, 24, 19., #300);
#302 = DATE_AND_TIME (#299, #301);
#303 = APPROVAL_DATE_TIME (#302, #298);
#304 = APPROVAL_ROLE ('');
#305 = PERSON ('', '', $, $, $, $);
#306 = ORGANIZATION ($, '', '');
#307 = PERSON_AND_ORGANIZATION (#305, #306);
#308 = APPROVAL_PERSON_ORGANIZATION (#307, #298, #304);
#309 = CC_DESIGN_APPROVAL (#298, (#296));
#310 = DATE_TIME_ROLE ('creation_date');
#311 = CALENDAR_DATE (2020, 16, 4);
#312 = COORDINATED_UNIVERSAL_TIME_OFFSET (0, $, .AHEAD.);
#313 = LOCAL_TIME (14, 24, 19., #312);
#314 = DATE_AND_TIME (#311, #313);
#315 = CC_DESIGN_DATE_AND_TIME_ASSIGNMENT (#314, #310, (#296));
#316 = PERSON_AND_ORGANIZATION_ROLE ('creator');
#317 = PERSON ('', '', $, $, $, $);
#318 = ORGANIZATION ($, '', '');
#319 = PERSON_AND_ORGANIZATION (#317, #318);
#320 = CC_DESIGN_PERSON_AND_ORGANIZATION_ASSIGNMENT (#319, #316, (#296));
#321 = PRODUCT_DEFINITION_SHAPE ('', '', #296);
#322 = SHAPE_DEFINITION_REPRESENTATION (#321, #233);
#323 = SHAPE_REPRESENTATION_RELATIONSHIP ('', '', #233, #324);
#324 = ADVANCED_BREP_SHAPE_REPRESENTATION ('', (#227), #232);
ENDSEC;
END-ISO-10303-21;
