ISO-10303-21;
HEADER;
FILE_DESCRIPTION ((), '1');
FILE_NAME ('C:\\Users\\kevin\\380 Range\\380M 1600-0_5RAX.STP', '2020-04-16T14:19:43', ('Unknown'), ('mafordeurope'), 'OneCNC-XR7 Mill 3D Expert', 'OneCNC-XR7 Mill 3D Expert', '');
FILE_SCHEMA (('CONFIG_CONTROL_DESIGN'));
ENDSEC;

DATA;
#1 = CARTESIAN_POINT ('', (-4.59242549680258E-16, 2.81204959249098E-32, -2.81204959249098E-32));
#2 = VERTEX_POINT ('', #1);
#3 = CARTESIAN_POINT ('', (9.86076131526265E-32, 7.5, -1.83697019872103E-15));
#4 = VERTEX_POINT ('', #3);
#5 = CARTESIAN_POINT ('', (-4.59242549680258E-16, 2.81204959249098E-32, -2.81204959249098E-32));
#6 = CARTESIAN_POINT ('', (9.86076131526265E-32, 7.5, -1.83697019872103E-15));
#7 = B_SPLINE_CURVE_WITH_KNOTS ('', 1, (#5, #6), .UNSPECIFIED., .F., .U., (2, 2), (0., 1.), .UNSPECIFIED.);
#8 = EDGE_CURVE ('', #2, #4, #7, .T.);
#9 = ORIENTED_EDGE ('', *, *, #8, .F.);
#10 = ORIENTED_EDGE ('', *, *, #8, .T.);
#11 = CARTESIAN_POINT ('', (9.86076131526265E-32, 7.5, -1.83697019872103E-15));
#12 = CARTESIAN_POINT ('', (-1.83697019872103E-15, 7.50000000000001, 30.));
#13 = CARTESIAN_POINT ('', (-2.75545529808154E-15, -22.5, 15.));
#14 = CARTESIAN_POINT ('', (-9.18485099360516E-16, -22.5, -15.));
#15 = CARTESIAN_POINT ('', (1.83697019872103E-15, 7.49999999999999, -30.));
#16 = CARTESIAN_POINT ('', (9.86076131526265E-32, 7.5, -1.83697019872103E-15));
#17 = (
   BOUNDED_CURVE ()
   B_SPLINE_CURVE (5, (#11, #12, #13, #14, #15, #16), .UNSPECIFIED., .T., .U.)
   B_SPLINE_CURVE_WITH_KNOTS ((6, 6), (0., 1.), .UNSPECIFIED.)
   CURVE ()
   GEOMETRIC_REPRESENTATION_ITEM ()
   RATIONAL_B_SPLINE_CURVE ((5., 1., 1., 1., 1., 5.))
   REPRESENTATION_ITEM ('')
);
#18 = EDGE_CURVE ('', #4, #4, #17, .T.);
#19 = ORIENTED_EDGE ('', *, *, #18, .F.);
#20 = EDGE_LOOP ('', (#9, #10, #19));
#21 = FACE_OUTER_BOUND ('', #20, .F.);
#22 = CARTESIAN_POINT ('', (-4.59242549680258E-16, 2.81204959249098E-32, -2.81204959249098E-32));
#23 = CARTESIAN_POINT ('', (9.86076131526265E-32, 7.5, -1.83697019872103E-15));
#24 = CARTESIAN_POINT ('', (-4.59242549680258E-16, 2.81204959249098E-32, -2.81204959249098E-32));
#25 = CARTESIAN_POINT ('', (-1.83697019872103E-15, 7.50000000000001, 30.));
#26 = CARTESIAN_POINT ('', (-4.59242549680258E-16, 2.81204959249098E-32, -2.81204959249098E-32));
#27 = CARTESIAN_POINT ('', (-2.75545529808154E-15, -22.5, 15.));
#28 = CARTESIAN_POINT ('', (-4.59242549680258E-16, 2.81204959249098E-32, -2.81204959249098E-32));
#29 = CARTESIAN_POINT ('', (-9.18485099360516E-16, -22.5, -15.));
#30 = CARTESIAN_POINT ('', (-4.59242549680258E-16, 2.81204959249098E-32, -2.81204959249098E-32));
#31 = CARTESIAN_POINT ('', (1.83697019872103E-15, 7.49999999999999, -30.));
#32 = CARTESIAN_POINT ('', (-4.59242549680258E-16, 2.81204959249098E-32, -2.81204959249098E-32));
#33 = CARTESIAN_POINT ('', (9.86076131526265E-32, 7.5, -1.83697019872103E-15));
#34 = (
   BOUNDED_SURFACE ()
   B_SPLINE_SURFACE (5, 1, ((#22, #23), (#24, #25), (#26, #27), (#28, #29), (#30, #31), (#32, #33)), .UNSPECIFIED., .T., .F., .U.)
   B_SPLINE_SURFACE_WITH_KNOTS ((6, 6), (2, 2), (0., 1.), (0., 1.), .UNSPECIFIED.)
   SURFACE ()
   GEOMETRIC_REPRESENTATION_ITEM ()
   RATIONAL_B_SPLINE_SURFACE (((5., 5.), (1., 1.), (1., 1.), (1., 1.), (1., 1.), (5., 5.)))
   REPRESENTATION_ITEM ('')
);
#35 = ADVANCED_FACE ('', (#21), #34, .F.);
#36 = CARTESIAN_POINT ('', (-0.5, 8., -1.95943487863577E-15));
#37 = VERTEX_POINT ('', #36);
#38 = CARTESIAN_POINT ('', (9.86076131526265E-32, 7.5, -1.83697019872103E-15));
#39 = CARTESIAN_POINT ('', (9.86076131526265E-32, 7.58801006997535, -1.85852644881864E-15));
#40 = CARTESIAN_POINT ('', (-0.0379028087976897, 7.72730101693357, -1.89264289128716E-15));
#41 = CARTESIAN_POINT ('', (-0.205021401527423, 7.93286667337575, -1.94299195592246E-15));
#42 = CARTESIAN_POINT ('', (-0.377723889808762, 8., -1.95943487863577E-15));
#43 = CARTESIAN_POINT ('', (-0.5, 8., -1.95943487863577E-15));
#44 = B_SPLINE_CURVE_WITH_KNOTS ('', 3, (#38, #39, #40, #41, #42, #43), .UNSPECIFIED., .F., .U., (4, 1, 1, 4), (0., 0.33617370428258, 0.532939663384363, 1.), .UNSPECIFIED.);
#45 = EDGE_CURVE ('', #4, #37, #44, .T.);
#46 = ORIENTED_EDGE ('', *, *, #45, .F.);
#47 = ORIENTED_EDGE ('', *, *, #18, .T.);
#48 = ORIENTED_EDGE ('', *, *, #45, .T.);
#49 = CARTESIAN_POINT ('', (-0.5, 8., -1.95943487863577E-15));
#50 = CARTESIAN_POINT ('', (-0.500000000000002, 8.00000000000001, 32.));
#51 = CARTESIAN_POINT ('', (-0.500000000000003, -24., 16.));
#52 = CARTESIAN_POINT ('', (-0.500000000000001, -24., -16.));
#53 = CARTESIAN_POINT ('', (-0.499999999999998, 7.99999999999999, -32.));
#54 = CARTESIAN_POINT ('', (-0.5, 8., -1.95943487863577E-15));
#55 = (
   BOUNDED_CURVE ()
   B_SPLINE_CURVE (5, (#49, #50, #51, #52, #53, #54), .UNSPECIFIED., .T., .U.)
   B_SPLINE_CURVE_WITH_KNOTS ((6, 6), (0., 1.), .UNSPECIFIED.)
   CURVE ()
   GEOMETRIC_REPRESENTATION_ITEM ()
   RATIONAL_B_SPLINE_CURVE ((5., 1., 1., 1., 1., 5.))
   REPRESENTATION_ITEM ('')
);
#56 = EDGE_CURVE ('', #37, #37, #55, .T.);
#57 = ORIENTED_EDGE ('', *, *, #56, .F.);
#58 = EDGE_LOOP ('', (#46, #47, #48, #57));
#59 = FACE_OUTER_BOUND ('', #58, .F.);
#60 = CARTESIAN_POINT ('', (9.86076131526265E-32, 7.5, -1.83697019872103E-15));
#61 = CARTESIAN_POINT ('', (9.86076131526265E-32, 7.58801006997535, -1.85852644881864E-15));
#62 = CARTESIAN_POINT ('', (-0.0379028087976897, 7.72730101693357, -1.89264289128716E-15));
#63 = CARTESIAN_POINT ('', (-0.205021401527423, 7.93286667337575, -1.94299195592246E-15));
#64 = CARTESIAN_POINT ('', (-0.377723889808762, 8., -1.95943487863577E-15));
#65 = CARTESIAN_POINT ('', (-0.5, 8., -1.95943487863577E-15));
#66 = CARTESIAN_POINT ('', (-1.83697019872103E-15, 7.50000000000001, 30.));
#67 = CARTESIAN_POINT ('', (-1.85852644881864E-15, 7.58801006997536, 30.3520402799014));
#68 = CARTESIAN_POINT ('', (-0.0379028087976916, 7.72730101693357, 30.9092040677343));
#69 = CARTESIAN_POINT ('', (-0.205021401527425, 7.93286667337576, 31.731466693503));
#70 = CARTESIAN_POINT ('', (-0.377723889808764, 8.00000000000001, 32.));
#71 = CARTESIAN_POINT ('', (-0.500000000000002, 8.00000000000001, 32.));
#72 = CARTESIAN_POINT ('', (-2.75545529808154E-15, -22.5, 15.));
#73 = CARTESIAN_POINT ('', (-2.78778967322796E-15, -22.7640302099261, 15.1760201399507));
#74 = CARTESIAN_POINT ('', (-0.0379028087976925, -23.1819030508007, 15.4546020338671));
#75 = CARTESIAN_POINT ('', (-0.205021401527426, -23.7986000201273, 15.8657333467515));
#76 = CARTESIAN_POINT ('', (-0.377723889808765, -24., 16.));
#77 = CARTESIAN_POINT ('', (-0.500000000000003, -24., 16.));
#78 = CARTESIAN_POINT ('', (-9.18485099360516E-16, -22.5, -15.));
#79 = CARTESIAN_POINT ('', (-9.29263224409321E-16, -22.7640302099261, -15.1760201399507));
#80 = CARTESIAN_POINT ('', (-0.0379028087976906, -23.1819030508007, -15.4546020338671));
#81 = CARTESIAN_POINT ('', (-0.205021401527424, -23.7986000201273, -15.8657333467515));
#82 = CARTESIAN_POINT ('', (-0.377723889808763, -24., -16.));
#83 = CARTESIAN_POINT ('', (-0.500000000000001, -24., -16.));
#84 = CARTESIAN_POINT ('', (1.83697019872103E-15, 7.49999999999999, -30.));
#85 = CARTESIAN_POINT ('', (1.85852644881864E-15, 7.58801006997535, -30.3520402799014));
#86 = CARTESIAN_POINT ('', (-0.0379028087976878, 7.72730101693356, -30.9092040677343));
#87 = CARTESIAN_POINT ('', (-0.205021401527421, 7.93286667337574, -31.731466693503));
#88 = CARTESIAN_POINT ('', (-0.37772388980876, 7.99999999999999, -32.));
#89 = CARTESIAN_POINT ('', (-0.499999999999998, 7.99999999999999, -32.));
#90 = CARTESIAN_POINT ('', (9.86076131526265E-32, 7.5, -1.83697019872103E-15));
#91 = CARTESIAN_POINT ('', (9.86076131526265E-32, 7.58801006997535, -1.85852644881864E-15));
#92 = CARTESIAN_POINT ('', (-0.0379028087976897, 7.72730101693357, -1.89264289128716E-15));
#93 = CARTESIAN_POINT ('', (-0.205021401527423, 7.93286667337575, -1.94299195592246E-15));
#94 = CARTESIAN_POINT ('', (-0.377723889808762, 8., -1.95943487863577E-15));
#95 = CARTESIAN_POINT ('', (-0.5, 8., -1.95943487863577E-15));
#96 = (
   BOUNDED_SURFACE ()
   B_SPLINE_SURFACE (5, 3, ((#60, #61, #62, #63, #64, #65), (#66, #67, #68, #69, #70, #71), (#72, #73, #74, #75, #76, #77), (#78, #79, #80, #81, #82, #83), (#84, #85, #86, #87, #88, #89), (#90, #91, #92, #93, #94, #95)), .UNSPECIFIED., .T., .F., .U.)
   B_SPLINE_SURFACE_WITH_KNOTS ((6, 6), (4, 1, 1, 4), (0., 1.), (0., 0.33617370428258, 0.532939663384363, 1.), .UNSPECIFIED.)
   SURFACE ()
   GEOMETRIC_REPRESENTATION_ITEM ()
   RATIONAL_B_SPLINE_SURFACE (((5., 5., 5., 5., 5., 5.), (1., 1., 1., 1., 1., 1.), (1., 1., 1., 1., 1., 1.), (1., 1., 1., 1., 1., 1.), (1., 1., 1., 1., 1., 1.), (5., 5., 5., 5., 5., 5.)))
   REPRESENTATION_ITEM ('')
);
#97 = ADVANCED_FACE ('', (#59), #96, .F.);
#98 = CARTESIAN_POINT ('', (-91.75, 8., -1.95943487863576E-15));
#99 = VERTEX_POINT ('', #98);
#100 = CARTESIAN_POINT ('', (-0.5, 8., -1.95943487863577E-15));
#101 = CARTESIAN_POINT ('', (-30.9166666666667, 8., -1.95943487863576E-15));
#102 = CARTESIAN_POINT ('', (-61.3333333333334, 8., -1.95943487863576E-15));
#103 = CARTESIAN_POINT ('', (-91.75, 8., -1.95943487863576E-15));
#104 = B_SPLINE_CURVE_WITH_KNOTS ('', 3, (#100, #101, #102, #103), .UNSPECIFIED., .F., .U., (4, 4), (0., 1.), .UNSPECIFIED.);
#105 = EDGE_CURVE ('', #37, #99, #104, .T.);
#106 = ORIENTED_EDGE ('', *, *, #105, .F.);
#107 = ORIENTED_EDGE ('', *, *, #56, .T.);
#108 = ORIENTED_EDGE ('', *, *, #105, .T.);
#109 = CARTESIAN_POINT ('', (-91.75, 8., -1.95943487863576E-15));
#110 = CARTESIAN_POINT ('', (-91.75, 7.99999999999999, 32.));
#111 = CARTESIAN_POINT ('', (-91.75, -24., 16.));
#112 = CARTESIAN_POINT ('', (-91.75, -24., -16.));
#113 = CARTESIAN_POINT ('', (-91.75, 8.00000000000001, -32.));
#114 = CARTESIAN_POINT ('', (-91.75, 8., -1.95943487863576E-15));
#115 = (
   BOUNDED_CURVE ()
   B_SPLINE_CURVE (5, (#109, #110, #111, #112, #113, #114), .UNSPECIFIED., .T., .U.)
   B_SPLINE_CURVE_WITH_KNOTS ((6, 6), (0., 1.), .UNSPECIFIED.)
   CURVE ()
   GEOMETRIC_REPRESENTATION_ITEM ()
   RATIONAL_B_SPLINE_CURVE ((5., 1., 1., 1., 1., 5.))
   REPRESENTATION_ITEM ('')
);
#116 = EDGE_CURVE ('', #99, #99, #115, .T.);
#117 = ORIENTED_EDGE ('', *, *, #116, .F.);
#118 = EDGE_LOOP ('', (#106, #107, #108, #117));
#119 = FACE_OUTER_BOUND ('', #118, .F.);
#120 = CARTESIAN_POINT ('', (-0.5, 8., -1.95943487863577E-15));
#121 = CARTESIAN_POINT ('', (-30.9166666666667, 8., -1.95943487863576E-15));
#122 = CARTESIAN_POINT ('', (-61.3333333333334, 8., -1.95943487863576E-15));
#123 = CARTESIAN_POINT ('', (-91.75, 8., -1.95943487863576E-15));
#124 = CARTESIAN_POINT ('', (-0.500000000000002, 8.00000000000001, 32.));
#125 = CARTESIAN_POINT ('', (-30.9166666666667, 8., 32.));
#126 = CARTESIAN_POINT ('', (-61.3333333333334, 7.99999999999999, 32.));
#127 = CARTESIAN_POINT ('', (-91.75, 7.99999999999999, 32.));
#128 = CARTESIAN_POINT ('', (-0.500000000000003, -24., 16.));
#129 = CARTESIAN_POINT ('', (-30.9166666666667, -24., 16.));
#130 = CARTESIAN_POINT ('', (-61.3333333333334, -24., 16.));
#131 = CARTESIAN_POINT ('', (-91.75, -24., 16.));
#132 = CARTESIAN_POINT ('', (-0.500000000000001, -24., -16.));
#133 = CARTESIAN_POINT ('', (-30.9166666666667, -24., -16.));
#134 = CARTESIAN_POINT ('', (-61.3333333333334, -24., -16.));
#135 = CARTESIAN_POINT ('', (-91.75, -24., -16.));
#136 = CARTESIAN_POINT ('', (-0.499999999999998, 7.99999999999999, -32.));
#137 = CARTESIAN_POINT ('', (-30.9166666666667, 8., -32.));
#138 = CARTESIAN_POINT ('', (-61.3333333333334, 8.00000000000001, -32.));
#139 = CARTESIAN_POINT ('', (-91.75, 8.00000000000001, -32.));
#140 = CARTESIAN_POINT ('', (-0.5, 8., -1.95943487863577E-15));
#141 = CARTESIAN_POINT ('', (-30.9166666666667, 8., -1.95943487863576E-15));
#142 = CARTESIAN_POINT ('', (-61.3333333333334, 8., -1.95943487863576E-15));
#143 = CARTESIAN_POINT ('', (-91.75, 8., -1.95943487863576E-15));
#144 = (
   BOUNDED_SURFACE ()
   B_SPLINE_SURFACE (5, 3, ((#120, #121, #122, #123), (#124, #125, #126, #127), (#128, #129, #130, #131), (#132, #133, #134, #135), (#136, #137, #138, #139), (#140, #141, #142, #143)), .UNSPECIFIED., .T., .F., .U.)
   B_SPLINE_SURFACE_WITH_KNOTS ((6, 6), (4, 4), (0., 1.), (0., 1.), .UNSPECIFIED.)
   SURFACE ()
   GEOMETRIC_REPRESENTATION_ITEM ()
   RATIONAL_B_SPLINE_SURFACE (((5., 5., 5., 5.), (1., 1., 1., 1.), (1., 1., 1., 1.), (1., 1., 1., 1.), (1., 1., 1., 1.), (5., 5., 5., 5.)))
   REPRESENTATION_ITEM ('')
);
#145 = ADVANCED_FACE ('', (#119), #144, .F.);
#146 = CARTESIAN_POINT ('', (-92., 7.75, -1.8982025386784E-15));
#147 = VERTEX_POINT ('', #146);
#148 = CARTESIAN_POINT ('', (-92., 5.63337527607782E-15, -5.63337527607782E-15));
#149 = VERTEX_POINT ('', #148);
#150 = CARTESIAN_POINT ('', (-92., 7.75, -1.8982025386784E-15));
#151 = CARTESIAN_POINT ('', (-92., 5.63337527607782E-15, -5.63337527607782E-15));
#152 = B_SPLINE_CURVE_WITH_KNOTS ('', 1, (#150, #151), .UNSPECIFIED., .F., .U., (2, 2), (0., 1.), .UNSPECIFIED.);
#153 = EDGE_CURVE ('', #147, #149, #152, .T.);
#154 = ORIENTED_EDGE ('', *, *, #153, .F.);
#155 = CARTESIAN_POINT ('', (-92., 7.75, -1.8982025386784E-15));
#156 = CARTESIAN_POINT ('', (-92., 7.74999999999998, 31.));
#157 = CARTESIAN_POINT ('', (-92., -23.25, 15.5));
#158 = CARTESIAN_POINT ('', (-92., -23.25, -15.5));
#159 = CARTESIAN_POINT ('', (-92., 7.75000000000001, -31.));
#160 = CARTESIAN_POINT ('', (-92., 7.75, -1.8982025386784E-15));
#161 = (
   BOUNDED_CURVE ()
   B_SPLINE_CURVE (5, (#155, #156, #157, #158, #159, #160), .UNSPECIFIED., .T., .U.)
   B_SPLINE_CURVE_WITH_KNOTS ((6, 6), (0., 1.), .UNSPECIFIED.)
   CURVE ()
   GEOMETRIC_REPRESENTATION_ITEM ()
   RATIONAL_B_SPLINE_CURVE ((5., 1., 1., 1., 1., 5.))
   REPRESENTATION_ITEM ('')
);
#162 = EDGE_CURVE ('', #147, #147, #161, .T.);
#163 = ORIENTED_EDGE ('', *, *, #162, .T.);
#164 = ORIENTED_EDGE ('', *, *, #153, .T.);
#165 = EDGE_LOOP ('', (#154, #163, #164));
#166 = FACE_OUTER_BOUND ('', #165, .F.);
#167 = CARTESIAN_POINT ('', (-92., 7.75, -1.8982025386784E-15));
#168 = CARTESIAN_POINT ('', (-92., 5.63337527607782E-15, -5.63337527607782E-15));
#169 = CARTESIAN_POINT ('', (-92., 7.74999999999998, 31.));
#170 = CARTESIAN_POINT ('', (-92., 5.63337527607782E-15, -5.63337527607782E-15));
#171 = CARTESIAN_POINT ('', (-92., -23.25, 15.5));
#172 = CARTESIAN_POINT ('', (-92., 5.63337527607782E-15, -5.63337527607782E-15));
#173 = CARTESIAN_POINT ('', (-92., -23.25, -15.5));
#174 = CARTESIAN_POINT ('', (-92., 5.63337527607782E-15, -5.63337527607782E-15));
#175 = CARTESIAN_POINT ('', (-92., 7.75000000000001, -31.));
#176 = CARTESIAN_POINT ('', (-92., 5.63337527607782E-15, -5.63337527607782E-15));
#177 = CARTESIAN_POINT ('', (-92., 7.75, -1.8982025386784E-15));
#178 = CARTESIAN_POINT ('', (-92., 5.63337527607782E-15, -5.63337527607782E-15));
#179 = (
   BOUNDED_SURFACE ()
   B_SPLINE_SURFACE (5, 1, ((#167, #168), (#169, #170), (#171, #172), (#173, #174), (#175, #176), (#177, #178)), .UNSPECIFIED., .T., .F., .U.)
   B_SPLINE_SURFACE_WITH_KNOTS ((6, 6), (2, 2), (0., 1.), (0., 1.), .UNSPECIFIED.)
   SURFACE ()
   GEOMETRIC_REPRESENTATION_ITEM ()
   RATIONAL_B_SPLINE_SURFACE (((5., 5.), (1., 1.), (1., 1.), (1., 1.), (1., 1.), (5., 5.)))
   REPRESENTATION_ITEM ('')
);
#180 = ADVANCED_FACE ('', (#166), #179, .F.);
#181 = CARTESIAN_POINT ('', (-91.75, 8., -1.95943487863576E-15));
#182 = CARTESIAN_POINT ('', (-91.8333333333332, 7.91666666666664, -1.93902409864997E-15));
#183 = CARTESIAN_POINT ('', (-91.9166666666666, 7.83333333333334, -1.91861331866419E-15));
#184 = CARTESIAN_POINT ('', (-92., 7.75, -1.8982025386784E-15));
#185 = B_SPLINE_CURVE_WITH_KNOTS ('', 3, (#181, #182, #183, #184), .UNSPECIFIED., .F., .U., (4, 4), (0., 1.), .UNSPECIFIED.);
#186 = EDGE_CURVE ('', #99, #147, #185, .T.);
#187 = ORIENTED_EDGE ('', *, *, #186, .F.);
#188 = ORIENTED_EDGE ('', *, *, #116, .T.);
#189 = ORIENTED_EDGE ('', *, *, #186, .T.);
#190 = ORIENTED_EDGE ('', *, *, #162, .F.);
#191 = EDGE_LOOP ('', (#187, #188, #189, #190));
#192 = FACE_OUTER_BOUND ('', #191, .F.);
#193 = CARTESIAN_POINT ('', (-91.75, 8., -1.95943487863576E-15));
#194 = CARTESIAN_POINT ('', (-91.8333333333332, 7.91666666666664, -1.93902409864997E-15));
#195 = CARTESIAN_POINT ('', (-91.9166666666666, 7.83333333333334, -1.91861331866419E-15));
#196 = CARTESIAN_POINT ('', (-92., 7.75, -1.8982025386784E-15));
#197 = CARTESIAN_POINT ('', (-91.75, 7.99999999999999, 32.));
#198 = CARTESIAN_POINT ('', (-91.8333333333332, 7.91666666666662, 31.6666666666665));
#199 = CARTESIAN_POINT ('', (-91.9166666666666, 7.83333333333332, 31.3333333333333));
#200 = CARTESIAN_POINT ('', (-92., 7.74999999999998, 31.));
#201 = CARTESIAN_POINT ('', (-91.75, -24., 16.));
#202 = CARTESIAN_POINT ('', (-91.8333333333332, -23.7499999999999, 15.8333333333333));
#203 = CARTESIAN_POINT ('', (-91.9166666666666, -23.5, 15.6666666666666));
#204 = CARTESIAN_POINT ('', (-92., -23.25, 15.5));
#205 = CARTESIAN_POINT ('', (-91.75, -24., -16.));
#206 = CARTESIAN_POINT ('', (-91.8333333333332, -23.7499999999999, -15.8333333333333));
#207 = CARTESIAN_POINT ('', (-91.9166666666666, -23.5, -15.6666666666667));
#208 = CARTESIAN_POINT ('', (-92., -23.25, -15.5));
#209 = CARTESIAN_POINT ('', (-91.75, 8.00000000000001, -32.));
#210 = CARTESIAN_POINT ('', (-91.8333333333332, 7.91666666666665, -31.6666666666665));
#211 = CARTESIAN_POINT ('', (-91.9166666666666, 7.83333333333335, -31.3333333333333));
#212 = CARTESIAN_POINT ('', (-92., 7.75000000000001, -31.));
#213 = CARTESIAN_POINT ('', (-91.75, 8., -1.95943487863576E-15));
#214 = CARTESIAN_POINT ('', (-91.8333333333332, 7.91666666666664, -1.93902409864997E-15));
#215 = CARTESIAN_POINT ('', (-91.9166666666666, 7.83333333333334, -1.91861331866419E-15));
#216 = CARTESIAN_POINT ('', (-92., 7.75, -1.8982025386784E-15));
#217 = (
   BOUNDED_SURFACE ()
   B_SPLINE_SURFACE (5, 3, ((#193, #194, #195, #196), (#197, #198, #199, #200), (#201, #202, #203, #204), (#205, #206, #207, #208), (#209, #210, #211, #212), (#213, #214, #215, #216)), .UNSPECIFIED., .T., .F., .U.)
   B_SPLINE_SURFACE_WITH_KNOTS ((6, 6), (4, 4), (0., 1.), (0., 1.), .UNSPECIFIED.)
   SURFACE ()
   GEOMETRIC_REPRESENTATION_ITEM ()
   RATIONAL_B_SPLINE_SURFACE (((5., 5., 5., 5.), (1., 1., 1., 1.), (1., 1., 1., 1.), (1., 1., 1., 1.), (1., 1., 1., 1.), (5., 5., 5., 5.)))
   REPRESENTATION_ITEM ('')
);
#218 = ADVANCED_FACE ('', (#192), #217, .F.);
#219 = CLOSED_SHELL ('', (#35, #97, #145, #180, #218));
#220 = MANIFOLD_SOLID_BREP ('', #219);
#221 = (
   LENGTH_UNIT ()
   NAMED_UNIT (*)
   SI_UNIT (.MILLI., .METRE.)
);
#222 = (
   NAMED_UNIT (*)
   SI_UNIT ($, .STERADIAN.)
   SOLID_ANGLE_UNIT ()
);
#223 = (
   NAMED_UNIT (*)
   SI_UNIT ($, .RADIAN.)
   PLANE_ANGLE_UNIT ()
);
#224 = UNCERTAINTY_MEASURE_WITH_UNIT (LENGTH_MEASURE(0.001), #221, 'DISTANCE_ACCURACY_VALUE', '');
#225 = (
   GEOMETRIC_REPRESENTATION_CONTEXT (3)
   GLOBAL_UNCERTAINTY_ASSIGNED_CONTEXT ((#224))
   GLOBAL_UNIT_ASSIGNED_CONTEXT ((#221, #222, #223))
   REPRESENTATION_CONTEXT ('', '3D')
);
#226 = SHAPE_REPRESENTATION ('', (), #225);
#227 = APPLICATION_CONTEXT ('configuration controlled 3D designs of mechanical parts and assemblies');
#228 = APPLICATION_PROTOCOL_DEFINITION ('International Standard', 'config_control_design', 1997, #227);
#229 = MECHANICAL_CONTEXT ('', #227, 'mechanical');
#230 = PRODUCT ('', '', '', (#229));
#231 = PERSON_AND_ORGANIZATION_ROLE ('design_owner');
#232 = PERSON ('', '', $, $, $, $);
#233 = ORGANIZATION ($, '', '');
#234 = PERSON_AND_ORGANIZATION (#232, #233);
#235 = CC_DESIGN_PERSON_AND_ORGANIZATION_ASSIGNMENT (#234, #231, (#230));
#236 = PRODUCT_RELATED_PRODUCT_CATEGORY ('detail', $, (#230));
#237 = PRODUCT_DEFINITION_FORMATION_WITH_SPECIFIED_SOURCE ('', '', #230, .NOT_KNOWN.);
#238 = APPROVAL_STATUS ('approved');
#239 = APPROVAL (#238, '');
#240 = CALENDAR_DATE (2020, 16, 4);
#241 = COORDINATED_UNIVERSAL_TIME_OFFSET (0, $, .AHEAD.);
#242 = LOCAL_TIME (14, 19, 43., #241);
#243 = DATE_AND_TIME (#240, #242);
#244 = APPROVAL_DATE_TIME (#243, #239);
#245 = APPROVAL_ROLE ('');
#246 = PERSON ('', '', $, $, $, $);
#247 = ORGANIZATION ($, '', '');
#248 = PERSON_AND_ORGANIZATION (#246, #247);
#249 = APPROVAL_PERSON_ORGANIZATION (#248, #239, #245);
#250 = CC_DESIGN_APPROVAL (#239, (#237));
#251 = PERSON_AND_ORGANIZATION_ROLE ('creator');
#252 = PERSON ('', '', $, $, $, $);
#253 = ORGANIZATION ($, '', '');
#254 = PERSON_AND_ORGANIZATION (#252, #253);
#255 = CC_DESIGN_PERSON_AND_ORGANIZATION_ASSIGNMENT (#254, #251, (#237));
#256 = PERSON_AND_ORGANIZATION_ROLE ('part_supplier');
#257 = PERSON ('', '', $, $, $, $);
#258 = ORGANIZATION ($, '', '');
#259 = PERSON_AND_ORGANIZATION (#257, #258);
#260 = CC_DESIGN_PERSON_AND_ORGANIZATION_ASSIGNMENT (#259, #256, (#237));
#261 = SECURITY_CLASSIFICATION_LEVEL ('unclassified');
#262 = SECURITY_CLASSIFICATION ('', '', #261);
#263 = APPROVAL_STATUS ('approved');
#264 = APPROVAL (#263, '');
#265 = CALENDAR_DATE (2020, 16, 4);
#266 = COORDINATED_UNIVERSAL_TIME_OFFSET (0, $, .AHEAD.);
#267 = LOCAL_TIME (14, 19, 43., #266);
#268 = DATE_AND_TIME (#265, #267);
#269 = APPROVAL_DATE_TIME (#268, #264);
#270 = APPROVAL_ROLE ('');
#271 = PERSON ('', '', $, $, $, $);
#272 = ORGANIZATION ($, '', '');
#273 = PERSON_AND_ORGANIZATION (#271, #272);
#274 = APPROVAL_PERSON_ORGANIZATION (#273, #264, #270);
#275 = CC_DESIGN_APPROVAL (#264, (#262));
#276 = DATE_TIME_ROLE ('classification_date');
#277 = CALENDAR_DATE (2020, 16, 4);
#278 = COORDINATED_UNIVERSAL_TIME_OFFSET (0, $, .AHEAD.);
#279 = LOCAL_TIME (14, 19, 43., #278);
#280 = DATE_AND_TIME (#277, #279);
#281 = CC_DESIGN_DATE_AND_TIME_ASSIGNMENT (#280, #276, (#262));
#282 = PERSON_AND_ORGANIZATION_ROLE ('classification_officer');
#283 = PERSON ('', '', $, $, $, $);
#284 = ORGANIZATION ($, '', '');
#285 = PERSON_AND_ORGANIZATION (#283, #284);
#286 = CC_DESIGN_PERSON_AND_ORGANIZATION_ASSIGNMENT (#285, #282, (#262));
#287 = CC_DESIGN_SECURITY_CLASSIFICATION (#262, (#237));
#288 = DESIGN_CONTEXT ('', #227, 'design');
#289 = PRODUCT_DEFINITION ('', '', #237, #288);
#290 = APPROVAL_STATUS ('approved');
#291 = APPROVAL (#290, '');
#292 = CALENDAR_DATE (2020, 16, 4);
#293 = COORDINATED_UNIVERSAL_TIME_OFFSET (0, $, .AHEAD.);
#294 = LOCAL_TIME (14, 19, 43., #293);
#295 = DATE_AND_TIME (#292, #294);
#296 = APPROVAL_DATE_TIME (#295, #291);
#297 = APPROVAL_ROLE ('');
#298 = PERSON ('', '', $, $, $, $);
#299 = ORGANIZATION ($, '', '');
#300 = PERSON_AND_ORGANIZATION (#298, #299);
#301 = APPROVAL_PERSON_ORGANIZATION (#300, #291, #297);
#302 = CC_DESIGN_APPROVAL (#291, (#289));
#303 = DATE_TIME_ROLE ('creation_date');
#304 = CALENDAR_DATE (2020, 16, 4);
#305 = COORDINATED_UNIVERSAL_TIME_OFFSET (0, $, .AHEAD.);
#306 = LOCAL_TIME (14, 19, 43., #305);
#307 = DATE_AND_TIME (#304, #306);
#308 = CC_DESIGN_DATE_AND_TIME_ASSIGNMENT (#307, #303, (#289));
#309 = PERSON_AND_ORGANIZATION_ROLE ('creator');
#310 = PERSON ('', '', $, $, $, $);
#311 = ORGANIZATION ($, '', '');
#312 = PERSON_AND_ORGANIZATION (#310, #311);
#313 = CC_DESIGN_PERSON_AND_ORGANIZATION_ASSIGNMENT (#312, #309, (#289));
#314 = PRODUCT_DEFINITION_SHAPE ('', '', #289);
#315 = SHAPE_DEFINITION_REPRESENTATION (#314, #226);
#316 = SHAPE_REPRESENTATION_RELATIONSHIP ('', '', #226, #317);
#317 = ADVANCED_BREP_SHAPE_REPRESENTATION ('', (#220), #225);
ENDSEC;
END-ISO-10303-21;
