ISO-10303-21;
HEADER;
FILE_DESCRIPTION ((), '1');
FILE_NAME ('C:\\Users\\kevin\\380 Range\\380M-1600-3_0RAX.STP', '2020-04-16T14:14:10', ('Unknown'), ('mafordeurope'), 'OneCNC-XR7 Mill 3D Expert', 'OneCNC-XR7 Mill 3D Expert', '');
FILE_SCHEMA (('CONFIG_CONTROL_DESIGN'));
ENDSEC;

DATA;
#1 = CARTESIAN_POINT ('', (-3.06161699786838E-16, 1.87469972832732E-32, -1.87469972832732E-32));
#2 = VERTEX_POINT ('', #1);
#3 = CARTESIAN_POINT ('', (9.86076131526265E-32, 5., -1.22464679914735E-15));
#4 = VERTEX_POINT ('', #3);
#5 = CARTESIAN_POINT ('', (-3.06161699786838E-16, 1.87469972832732E-32, -1.87469972832732E-32));
#6 = CARTESIAN_POINT ('', (9.86076131526265E-32, 5., -1.22464679914735E-15));
#7 = B_SPLINE_CURVE_WITH_KNOTS ('', 1, (#5, #6), .UNSPECIFIED., .F., .U., (2, 2), (0., 1.), .UNSPECIFIED.);
#8 = EDGE_CURVE ('', #2, #4, #7, .T.);
#9 = ORIENTED_EDGE ('', *, *, #8, .F.);
#10 = ORIENTED_EDGE ('', *, *, #8, .T.);
#11 = CARTESIAN_POINT ('', (9.86076131526265E-32, 5., -1.22464679914735E-15));
#12 = CARTESIAN_POINT ('', (-1.22464679914735E-15, 5.00000000000001, 20.));
#13 = CARTESIAN_POINT ('', (-1.83697019872103E-15, -15., 10.));
#14 = CARTESIAN_POINT ('', (-6.12323399573677E-16, -15., -10.));
#15 = CARTESIAN_POINT ('', (1.22464679914735E-15, 4.99999999999999, -20.));
#16 = CARTESIAN_POINT ('', (9.86076131526265E-32, 5., -1.22464679914735E-15));
#17 = (
   BOUNDED_CURVE ()
   B_SPLINE_CURVE (5, (#11, #12, #13, #14, #15, #16), .UNSPECIFIED., .T., .U.)
   B_SPLINE_CURVE_WITH_KNOTS ((6, 6), (0., 1.), .UNSPECIFIED.)
   CURVE ()
   GEOMETRIC_REPRESENTATION_ITEM ()
   RATIONAL_B_SPLINE_CURVE ((5., 1., 1., 1., 1., 5.))
   REPRESENTATION_ITEM ('')
);
#18 = EDGE_CURVE ('', #4, #4, #17, .T.);
#19 = ORIENTED_EDGE ('', *, *, #18, .F.);
#20 = EDGE_LOOP ('', (#9, #10, #19));
#21 = FACE_OUTER_BOUND ('', #20, .F.);
#22 = CARTESIAN_POINT ('', (-3.06161699786838E-16, 1.87469972832732E-32, -1.87469972832732E-32));
#23 = CARTESIAN_POINT ('', (9.86076131526265E-32, 5., -1.22464679914735E-15));
#24 = CARTESIAN_POINT ('', (-3.06161699786838E-16, 1.87469972832732E-32, -1.87469972832732E-32));
#25 = CARTESIAN_POINT ('', (-1.22464679914735E-15, 5.00000000000001, 20.));
#26 = CARTESIAN_POINT ('', (-3.06161699786838E-16, 1.87469972832732E-32, -1.87469972832732E-32));
#27 = CARTESIAN_POINT ('', (-1.83697019872103E-15, -15., 10.));
#28 = CARTESIAN_POINT ('', (-3.06161699786838E-16, 1.87469972832732E-32, -1.87469972832732E-32));
#29 = CARTESIAN_POINT ('', (-6.12323399573677E-16, -15., -10.));
#30 = CARTESIAN_POINT ('', (-3.06161699786838E-16, 1.87469972832732E-32, -1.87469972832732E-32));
#31 = CARTESIAN_POINT ('', (1.22464679914735E-15, 4.99999999999999, -20.));
#32 = CARTESIAN_POINT ('', (-3.06161699786838E-16, 1.87469972832732E-32, -1.87469972832732E-32));
#33 = CARTESIAN_POINT ('', (9.86076131526265E-32, 5., -1.22464679914735E-15));
#34 = (
   BOUNDED_SURFACE ()
   B_SPLINE_SURFACE (5, 1, ((#22, #23), (#24, #25), (#26, #27), (#28, #29), (#30, #31), (#32, #33)), .UNSPECIFIED., .T., .F., .U.)
   B_SPLINE_SURFACE_WITH_KNOTS ((6, 6), (2, 2), (0., 1.), (0., 1.), .UNSPECIFIED.)
   SURFACE ()
   GEOMETRIC_REPRESENTATION_ITEM ()
   RATIONAL_B_SPLINE_SURFACE (((5., 5.), (1., 1.), (1., 1.), (1., 1.), (1., 1.), (5., 5.)))
   REPRESENTATION_ITEM ('')
);
#35 = ADVANCED_FACE ('', (#21), #34, .F.);
#36 = CARTESIAN_POINT ('', (-3., 8., -1.95943487863577E-15));
#37 = VERTEX_POINT ('', #36);
#38 = CARTESIAN_POINT ('', (9.86076131526265E-32, 5., -1.22464679914735E-15));
#39 = CARTESIAN_POINT ('', (9.86076131526265E-32, 5.32776613333918, -1.3049263483599E-15));
#40 = CARTESIAN_POINT ('', (-0.121585381127065, 6.06122580083336, -1.48457215517999E-15));
#41 = CARTESIAN_POINT ('', (-0.660162900605778, 6.97909979189655, -1.70938644421521E-15));
#42 = CARTESIAN_POINT ('', (-1.37883095753834, 7.56335494615278, -1.85248768512426E-15));
#43 = CARTESIAN_POINT ('', (-2.14431523595443, 7.91248709266072, -1.93800039826434E-15));
#44 = CARTESIAN_POINT ('', (-2.67223386666082, 8., -1.95943487863577E-15));
#45 = CARTESIAN_POINT ('', (-3., 8., -1.95943487863577E-15));
#46 = B_SPLINE_CURVE_WITH_KNOTS ('', 3, (#38, #39, #40, #41, #42, #43, #44, #45), .UNSPECIFIED., .F., .U., (4, 1, 1, 1, 1, 4), (0., 0.208662401196191, 0.467060336615637, 0.66382629571742, 0.791337598803809, 1.), .UNSPECIFIED.);
#47 = EDGE_CURVE ('', #4, #37, #46, .T.);
#48 = ORIENTED_EDGE ('', *, *, #47, .F.);
#49 = ORIENTED_EDGE ('', *, *, #18, .T.);
#50 = ORIENTED_EDGE ('', *, *, #47, .T.);
#51 = CARTESIAN_POINT ('', (-3., 8., -1.95943487863577E-15));
#52 = CARTESIAN_POINT ('', (-3., 8.00000000000001, 32.));
#53 = CARTESIAN_POINT ('', (-3., -24., 16.));
#54 = CARTESIAN_POINT ('', (-3., -24., -16.));
#55 = CARTESIAN_POINT ('', (-3., 7.99999999999999, -32.));
#56 = CARTESIAN_POINT ('', (-3., 8., -1.95943487863577E-15));
#57 = (
   BOUNDED_CURVE ()
   B_SPLINE_CURVE (5, (#51, #52, #53, #54, #55, #56), .UNSPECIFIED., .T., .U.)
   B_SPLINE_CURVE_WITH_KNOTS ((6, 6), (0., 1.), .UNSPECIFIED.)
   CURVE ()
   GEOMETRIC_REPRESENTATION_ITEM ()
   RATIONAL_B_SPLINE_CURVE ((5., 1., 1., 1., 1., 5.))
   REPRESENTATION_ITEM ('')
);
#58 = EDGE_CURVE ('', #37, #37, #57, .T.);
#59 = ORIENTED_EDGE ('', *, *, #58, .F.);
#60 = EDGE_LOOP ('', (#48, #49, #50, #59));
#61 = FACE_OUTER_BOUND ('', #60, .F.);
#62 = CARTESIAN_POINT ('', (9.86076131526265E-32, 5., -1.22464679914735E-15));
#63 = CARTESIAN_POINT ('', (9.86076131526265E-32, 5.32776613333918, -1.3049263483599E-15));
#64 = CARTESIAN_POINT ('', (-0.121585381127065, 6.06122580083336, -1.48457215517999E-15));
#65 = CARTESIAN_POINT ('', (-0.660162900605778, 6.97909979189655, -1.70938644421521E-15));
#66 = CARTESIAN_POINT ('', (-1.37883095753834, 7.56335494615278, -1.85248768512426E-15));
#67 = CARTESIAN_POINT ('', (-2.14431523595443, 7.91248709266072, -1.93800039826434E-15));
#68 = CARTESIAN_POINT ('', (-2.67223386666082, 8., -1.95943487863577E-15));
#69 = CARTESIAN_POINT ('', (-3., 8., -1.95943487863577E-15));
#70 = CARTESIAN_POINT ('', (-1.22464679914735E-15, 5.00000000000001, 20.));
#71 = CARTESIAN_POINT ('', (-1.3049263483599E-15, 5.32776613333918, 21.3110645333567));
#72 = CARTESIAN_POINT ('', (-0.121585381127066, 6.06122580083337, 24.2449032033335));
#73 = CARTESIAN_POINT ('', (-0.66016290060578, 6.97909979189655, 27.9163991675862));
#74 = CARTESIAN_POINT ('', (-1.37883095753835, 7.56335494615279, 30.2534197846111));
#75 = CARTESIAN_POINT ('', (-2.14431523595443, 7.91248709266072, 31.6499483706429));
#76 = CARTESIAN_POINT ('', (-2.67223386666082, 8.00000000000001, 32.));
#77 = CARTESIAN_POINT ('', (-3., 8.00000000000001, 32.));
#78 = CARTESIAN_POINT ('', (-1.83697019872103E-15, -15., 10.));
#79 = CARTESIAN_POINT ('', (-1.95738952253985E-15, -15.9832984000175, 10.6555322666784));
#80 = CARTESIAN_POINT ('', (-0.121585381127067, -18.1836774025001, 12.1224516016667));
#81 = CARTESIAN_POINT ('', (-0.660162900605781, -20.9372993756896, 13.9581995837931));
#82 = CARTESIAN_POINT ('', (-1.37883095753835, -22.6900648384584, 15.1267098923056));
#83 = CARTESIAN_POINT ('', (-2.14431523595444, -23.7374612779821, 15.8249741853214));
#84 = CARTESIAN_POINT ('', (-2.67223386666082, -24., 16.));
#85 = CARTESIAN_POINT ('', (-3., -24., 16.));
#86 = CARTESIAN_POINT ('', (-6.12323399573677E-16, -15., -10.));
#87 = CARTESIAN_POINT ('', (-6.52463174179949E-16, -15.9832984000175, -10.6555322666783));
#88 = CARTESIAN_POINT ('', (-0.121585381127066, -18.1836774025001, -12.1224516016667));
#89 = CARTESIAN_POINT ('', (-0.660162900605779, -20.9372993756896, -13.9581995837931));
#90 = CARTESIAN_POINT ('', (-1.37883095753835, -22.6900648384584, -15.1267098923056));
#91 = CARTESIAN_POINT ('', (-2.14431523595443, -23.7374612779822, -15.8249741853214));
#92 = CARTESIAN_POINT ('', (-2.67223386666082, -24., -16.));
#93 = CARTESIAN_POINT ('', (-3., -24., -16.));
#94 = CARTESIAN_POINT ('', (1.22464679914735E-15, 4.99999999999999, -20.));
#95 = CARTESIAN_POINT ('', (1.3049263483599E-15, 5.32776613333917, -21.3110645333567));
#96 = CARTESIAN_POINT ('', (-0.121585381127063, 6.06122580083336, -24.2449032033335));
#97 = CARTESIAN_POINT ('', (-0.660162900605777, 6.97909979189654, -27.9163991675862));
#98 = CARTESIAN_POINT ('', (-1.37883095753834, 7.56335494615278, -30.2534197846111));
#99 = CARTESIAN_POINT ('', (-2.14431523595443, 7.91248709266071, -31.6499483706429));
#100 = CARTESIAN_POINT ('', (-2.67223386666082, 7.99999999999999, -32.));
#101 = CARTESIAN_POINT ('', (-3., 7.99999999999999, -32.));
#102 = CARTESIAN_POINT ('', (9.86076131526265E-32, 5., -1.22464679914735E-15));
#103 = CARTESIAN_POINT ('', (9.86076131526265E-32, 5.32776613333918, -1.3049263483599E-15));
#104 = CARTESIAN_POINT ('', (-0.121585381127065, 6.06122580083336, -1.48457215517999E-15));
#105 = CARTESIAN_POINT ('', (-0.660162900605778, 6.97909979189655, -1.70938644421521E-15));
#106 = CARTESIAN_POINT ('', (-1.37883095753834, 7.56335494615278, -1.85248768512426E-15));
#107 = CARTESIAN_POINT ('', (-2.14431523595443, 7.91248709266072, -1.93800039826434E-15));
#108 = CARTESIAN_POINT ('', (-2.67223386666082, 8., -1.95943487863577E-15));
#109 = CARTESIAN_POINT ('', (-3., 8., -1.95943487863577E-15));
#110 = (
   BOUNDED_SURFACE ()
   B_SPLINE_SURFACE (5, 3, ((#62, #63, #64, #65, #66, #67, #68, #69), (#70, #71, #72, #73, #74, #75, #76, #77), (#78, #79, #80, #81, #82, #83, #84, #85), (#86, #87, #88, #89, #90, #91, #92, #93), (#94, #95, #96, #97, #98, #99, #100, #101), (#102, #103, #104, #105, #106, #107, #108, #109)), .UNSPECIFIED., .T., .F., .U.)
   B_SPLINE_SURFACE_WITH_KNOTS ((6, 6), (4, 1, 1, 1, 1, 4), (0., 1.), (0., 0.208662401196191, 0.467060336615637, 0.66382629571742, 0.791337598803809, 1.), .UNSPECIFIED.)
   SURFACE ()
   GEOMETRIC_REPRESENTATION_ITEM ()
   RATIONAL_B_SPLINE_SURFACE (((5., 5., 5., 5., 5., 5., 5., 5.), (1., 1., 1., 1., 1., 1., 1., 1.), (1., 1., 1., 1., 1., 1., 1., 1.), (1., 1., 1., 1., 1., 1., 1., 1.), (1., 1., 1., 1., 1., 1., 1., 1.), (5., 5., 5., 5., 5., 5., 5., 5.)))
   REPRESENTATION_ITEM ('')
);
#111 = ADVANCED_FACE ('', (#61), #110, .F.);
#112 = CARTESIAN_POINT ('', (-91.75, 8., -1.95943487863576E-15));
#113 = VERTEX_POINT ('', #112);
#114 = CARTESIAN_POINT ('', (-3., 8., -1.95943487863577E-15));
#115 = CARTESIAN_POINT ('', (-32.5833333333333, 8., -1.95943487863576E-15));
#116 = CARTESIAN_POINT ('', (-62.1666666666665, 8., -1.95943487863576E-15));
#117 = CARTESIAN_POINT ('', (-91.75, 8., -1.95943487863576E-15));
#118 = B_SPLINE_CURVE_WITH_KNOTS ('', 3, (#114, #115, #116, #117), .UNSPECIFIED., .F., .U., (4, 4), (0., 1.), .UNSPECIFIED.);
#119 = EDGE_CURVE ('', #37, #113, #118, .T.);
#120 = ORIENTED_EDGE ('', *, *, #119, .F.);
#121 = ORIENTED_EDGE ('', *, *, #58, .T.);
#122 = ORIENTED_EDGE ('', *, *, #119, .T.);
#123 = CARTESIAN_POINT ('', (-91.75, 8., -1.95943487863576E-15));
#124 = CARTESIAN_POINT ('', (-91.75, 7.99999999999999, 32.));
#125 = CARTESIAN_POINT ('', (-91.75, -24., 16.));
#126 = CARTESIAN_POINT ('', (-91.75, -24., -16.));
#127 = CARTESIAN_POINT ('', (-91.75, 8.00000000000001, -32.));
#128 = CARTESIAN_POINT ('', (-91.75, 8., -1.95943487863576E-15));
#129 = (
   BOUNDED_CURVE ()
   B_SPLINE_CURVE (5, (#123, #124, #125, #126, #127, #128), .UNSPECIFIED., .T., .U.)
   B_SPLINE_CURVE_WITH_KNOTS ((6, 6), (0., 1.), .UNSPECIFIED.)
   CURVE ()
   GEOMETRIC_REPRESENTATION_ITEM ()
   RATIONAL_B_SPLINE_CURVE ((5., 1., 1., 1., 1., 5.))
   REPRESENTATION_ITEM ('')
);
#130 = EDGE_CURVE ('', #113, #113, #129, .T.);
#131 = ORIENTED_EDGE ('', *, *, #130, .F.);
#132 = EDGE_LOOP ('', (#120, #121, #122, #131));
#133 = FACE_OUTER_BOUND ('', #132, .F.);
#134 = CARTESIAN_POINT ('', (-3., 8., -1.95943487863577E-15));
#135 = CARTESIAN_POINT ('', (-32.5833333333333, 8., -1.95943487863576E-15));
#136 = CARTESIAN_POINT ('', (-62.1666666666665, 8., -1.95943487863576E-15));
#137 = CARTESIAN_POINT ('', (-91.75, 8., -1.95943487863576E-15));
#138 = CARTESIAN_POINT ('', (-3., 8.00000000000001, 32.));
#139 = CARTESIAN_POINT ('', (-32.5833333333333, 8., 32.));
#140 = CARTESIAN_POINT ('', (-62.1666666666665, 7.99999999999999, 32.));
#141 = CARTESIAN_POINT ('', (-91.75, 7.99999999999999, 32.));
#142 = CARTESIAN_POINT ('', (-3., -24., 16.));
#143 = CARTESIAN_POINT ('', (-32.5833333333333, -24., 16.));
#144 = CARTESIAN_POINT ('', (-62.1666666666665, -24., 16.));
#145 = CARTESIAN_POINT ('', (-91.75, -24., 16.));
#146 = CARTESIAN_POINT ('', (-3., -24., -16.));
#147 = CARTESIAN_POINT ('', (-32.5833333333333, -24., -16.));
#148 = CARTESIAN_POINT ('', (-62.1666666666665, -24., -16.));
#149 = CARTESIAN_POINT ('', (-91.75, -24., -16.));
#150 = CARTESIAN_POINT ('', (-3., 7.99999999999999, -32.));
#151 = CARTESIAN_POINT ('', (-32.5833333333333, 8., -32.));
#152 = CARTESIAN_POINT ('', (-62.1666666666665, 8.00000000000001, -32.));
#153 = CARTESIAN_POINT ('', (-91.75, 8.00000000000001, -32.));
#154 = CARTESIAN_POINT ('', (-3., 8., -1.95943487863577E-15));
#155 = CARTESIAN_POINT ('', (-32.5833333333333, 8., -1.95943487863576E-15));
#156 = CARTESIAN_POINT ('', (-62.1666666666665, 8., -1.95943487863576E-15));
#157 = CARTESIAN_POINT ('', (-91.75, 8., -1.95943487863576E-15));
#158 = (
   BOUNDED_SURFACE ()
   B_SPLINE_SURFACE (5, 3, ((#134, #135, #136, #137), (#138, #139, #140, #141), (#142, #143, #144, #145), (#146, #147, #148, #149), (#150, #151, #152, #153), (#154, #155, #156, #157)), .UNSPECIFIED., .T., .F., .U.)
   B_SPLINE_SURFACE_WITH_KNOTS ((6, 6), (4, 4), (0., 1.), (0., 1.), .UNSPECIFIED.)
   SURFACE ()
   GEOMETRIC_REPRESENTATION_ITEM ()
   RATIONAL_B_SPLINE_SURFACE (((5., 5., 5., 5.), (1., 1., 1., 1.), (1., 1., 1., 1.), (1., 1., 1., 1.), (1., 1., 1., 1.), (5., 5., 5., 5.)))
   REPRESENTATION_ITEM ('')
);
#159 = ADVANCED_FACE ('', (#133), #158, .F.);
#160 = CARTESIAN_POINT ('', (-92., 7.75, -1.8982025386784E-15));
#161 = VERTEX_POINT ('', #160);
#162 = CARTESIAN_POINT ('', (-92., 5.63337527607782E-15, -5.63337527607782E-15));
#163 = VERTEX_POINT ('', #162);
#164 = CARTESIAN_POINT ('', (-92., 7.75, -1.8982025386784E-15));
#165 = CARTESIAN_POINT ('', (-92., 5.63337527607782E-15, -5.63337527607782E-15));
#166 = B_SPLINE_CURVE_WITH_KNOTS ('', 1, (#164, #165), .UNSPECIFIED., .F., .U., (2, 2), (0., 1.), .UNSPECIFIED.);
#167 = EDGE_CURVE ('', #161, #163, #166, .T.);
#168 = ORIENTED_EDGE ('', *, *, #167, .F.);
#169 = CARTESIAN_POINT ('', (-92., 7.75, -1.8982025386784E-15));
#170 = CARTESIAN_POINT ('', (-92., 7.74999999999998, 31.));
#171 = CARTESIAN_POINT ('', (-92., -23.25, 15.5));
#172 = CARTESIAN_POINT ('', (-92., -23.25, -15.5));
#173 = CARTESIAN_POINT ('', (-92., 7.75000000000001, -31.));
#174 = CARTESIAN_POINT ('', (-92., 7.75, -1.8982025386784E-15));
#175 = (
   BOUNDED_CURVE ()
   B_SPLINE_CURVE (5, (#169, #170, #171, #172, #173, #174), .UNSPECIFIED., .T., .U.)
   B_SPLINE_CURVE_WITH_KNOTS ((6, 6), (0., 1.), .UNSPECIFIED.)
   CURVE ()
   GEOMETRIC_REPRESENTATION_ITEM ()
   RATIONAL_B_SPLINE_CURVE ((5., 1., 1., 1., 1., 5.))
   REPRESENTATION_ITEM ('')
);
#176 = EDGE_CURVE ('', #161, #161, #175, .T.);
#177 = ORIENTED_EDGE ('', *, *, #176, .T.);
#178 = ORIENTED_EDGE ('', *, *, #167, .T.);
#179 = EDGE_LOOP ('', (#168, #177, #178));
#180 = FACE_OUTER_BOUND ('', #179, .F.);
#181 = CARTESIAN_POINT ('', (-92., 7.75, -1.8982025386784E-15));
#182 = CARTESIAN_POINT ('', (-92., 5.63337527607782E-15, -5.63337527607782E-15));
#183 = CARTESIAN_POINT ('', (-92., 7.74999999999998, 31.));
#184 = CARTESIAN_POINT ('', (-92., 5.63337527607782E-15, -5.63337527607782E-15));
#185 = CARTESIAN_POINT ('', (-92., -23.25, 15.5));
#186 = CARTESIAN_POINT ('', (-92., 5.63337527607782E-15, -5.63337527607782E-15));
#187 = CARTESIAN_POINT ('', (-92., -23.25, -15.5));
#188 = CARTESIAN_POINT ('', (-92., 5.63337527607782E-15, -5.63337527607782E-15));
#189 = CARTESIAN_POINT ('', (-92., 7.75000000000001, -31.));
#190 = CARTESIAN_POINT ('', (-92., 5.63337527607782E-15, -5.63337527607782E-15));
#191 = CARTESIAN_POINT ('', (-92., 7.75, -1.8982025386784E-15));
#192 = CARTESIAN_POINT ('', (-92., 5.63337527607782E-15, -5.63337527607782E-15));
#193 = (
   BOUNDED_SURFACE ()
   B_SPLINE_SURFACE (5, 1, ((#181, #182), (#183, #184), (#185, #186), (#187, #188), (#189, #190), (#191, #192)), .UNSPECIFIED., .T., .F., .U.)
   B_SPLINE_SURFACE_WITH_KNOTS ((6, 6), (2, 2), (0., 1.), (0., 1.), .UNSPECIFIED.)
   SURFACE ()
   GEOMETRIC_REPRESENTATION_ITEM ()
   RATIONAL_B_SPLINE_SURFACE (((5., 5.), (1., 1.), (1., 1.), (1., 1.), (1., 1.), (5., 5.)))
   REPRESENTATION_ITEM ('')
);
#194 = ADVANCED_FACE ('', (#180), #193, .F.);
#195 = CARTESIAN_POINT ('', (-91.75, 8., -1.95943487863576E-15));
#196 = CARTESIAN_POINT ('', (-91.8333333333332, 7.91666666666664, -1.93902409864997E-15));
#197 = CARTESIAN_POINT ('', (-91.9166666666666, 7.83333333333334, -1.91861331866419E-15));
#198 = CARTESIAN_POINT ('', (-92., 7.75, -1.8982025386784E-15));
#199 = B_SPLINE_CURVE_WITH_KNOTS ('', 3, (#195, #196, #197, #198), .UNSPECIFIED., .F., .U., (4, 4), (0., 1.), .UNSPECIFIED.);
#200 = EDGE_CURVE ('', #113, #161, #199, .T.);
#201 = ORIENTED_EDGE ('', *, *, #200, .F.);
#202 = ORIENTED_EDGE ('', *, *, #130, .T.);
#203 = ORIENTED_EDGE ('', *, *, #200, .T.);
#204 = ORIENTED_EDGE ('', *, *, #176, .F.);
#205 = EDGE_LOOP ('', (#201, #202, #203, #204));
#206 = FACE_OUTER_BOUND ('', #205, .F.);
#207 = CARTESIAN_POINT ('', (-91.75, 8., -1.95943487863576E-15));
#208 = CARTESIAN_POINT ('', (-91.8333333333332, 7.91666666666664, -1.93902409864997E-15));
#209 = CARTESIAN_POINT ('', (-91.9166666666666, 7.83333333333334, -1.91861331866419E-15));
#210 = CARTESIAN_POINT ('', (-92., 7.75, -1.8982025386784E-15));
#211 = CARTESIAN_POINT ('', (-91.75, 7.99999999999999, 32.));
#212 = CARTESIAN_POINT ('', (-91.8333333333332, 7.91666666666662, 31.6666666666665));
#213 = CARTESIAN_POINT ('', (-91.9166666666666, 7.83333333333332, 31.3333333333333));
#214 = CARTESIAN_POINT ('', (-92., 7.74999999999998, 31.));
#215 = CARTESIAN_POINT ('', (-91.75, -24., 16.));
#216 = CARTESIAN_POINT ('', (-91.8333333333332, -23.7499999999999, 15.8333333333333));
#217 = CARTESIAN_POINT ('', (-91.9166666666666, -23.5, 15.6666666666666));
#218 = CARTESIAN_POINT ('', (-92., -23.25, 15.5));
#219 = CARTESIAN_POINT ('', (-91.75, -24., -16.));
#220 = CARTESIAN_POINT ('', (-91.8333333333332, -23.7499999999999, -15.8333333333333));
#221 = CARTESIAN_POINT ('', (-91.9166666666666, -23.5, -15.6666666666667));
#222 = CARTESIAN_POINT ('', (-92., -23.25, -15.5));
#223 = CARTESIAN_POINT ('', (-91.75, 8.00000000000001, -32.));
#224 = CARTESIAN_POINT ('', (-91.8333333333332, 7.91666666666665, -31.6666666666665));
#225 = CARTESIAN_POINT ('', (-91.9166666666666, 7.83333333333335, -31.3333333333333));
#226 = CARTESIAN_POINT ('', (-92., 7.75000000000001, -31.));
#227 = CARTESIAN_POINT ('', (-91.75, 8., -1.95943487863576E-15));
#228 = CARTESIAN_POINT ('', (-91.8333333333332, 7.91666666666664, -1.93902409864997E-15));
#229 = CARTESIAN_POINT ('', (-91.9166666666666, 7.83333333333334, -1.91861331866419E-15));
#230 = CARTESIAN_POINT ('', (-92., 7.75, -1.8982025386784E-15));
#231 = (
   BOUNDED_SURFACE ()
   B_SPLINE_SURFACE (5, 3, ((#207, #208, #209, #210), (#211, #212, #213, #214), (#215, #216, #217, #218), (#219, #220, #221, #222), (#223, #224, #225, #226), (#227, #228, #229, #230)), .UNSPECIFIED., .T., .F., .U.)
   B_SPLINE_SURFACE_WITH_KNOTS ((6, 6), (4, 4), (0., 1.), (0., 1.), .UNSPECIFIED.)
   SURFACE ()
   GEOMETRIC_REPRESENTATION_ITEM ()
   RATIONAL_B_SPLINE_SURFACE (((5., 5., 5., 5.), (1., 1., 1., 1.), (1., 1., 1., 1.), (1., 1., 1., 1.), (1., 1., 1., 1.), (5., 5., 5., 5.)))
   REPRESENTATION_ITEM ('')
);
#232 = ADVANCED_FACE ('', (#206), #231, .F.);
#233 = CLOSED_SHELL ('', (#35, #111, #159, #194, #232));
#234 = MANIFOLD_SOLID_BREP ('', #233);
#235 = (
   LENGTH_UNIT ()
   NAMED_UNIT (*)
   SI_UNIT (.MILLI., .METRE.)
);
#236 = (
   NAMED_UNIT (*)
   SI_UNIT ($, .STERADIAN.)
   SOLID_ANGLE_UNIT ()
);
#237 = (
   NAMED_UNIT (*)
   SI_UNIT ($, .RADIAN.)
   PLANE_ANGLE_UNIT ()
);
#238 = UNCERTAINTY_MEASURE_WITH_UNIT (LENGTH_MEASURE(0.001), #235, 'DISTANCE_ACCURACY_VALUE', '');
#239 = (
   GEOMETRIC_REPRESENTATION_CONTEXT (3)
   GLOBAL_UNCERTAINTY_ASSIGNED_CONTEXT ((#238))
   GLOBAL_UNIT_ASSIGNED_CONTEXT ((#235, #236, #237))
   REPRESENTATION_CONTEXT ('', '3D')
);
#240 = SHAPE_REPRESENTATION ('', (), #239);
#241 = APPLICATION_CONTEXT ('configuration controlled 3D designs of mechanical parts and assemblies');
#242 = APPLICATION_PROTOCOL_DEFINITION ('International Standard', 'config_control_design', 1997, #241);
#243 = MECHANICAL_CONTEXT ('', #241, 'mechanical');
#244 = PRODUCT ('', '', '', (#243));
#245 = PERSON_AND_ORGANIZATION_ROLE ('design_owner');
#246 = PERSON ('', '', $, $, $, $);
#247 = ORGANIZATION ($, '', '');
#248 = PERSON_AND_ORGANIZATION (#246, #247);
#249 = CC_DESIGN_PERSON_AND_ORGANIZATION_ASSIGNMENT (#248, #245, (#244));
#250 = PRODUCT_RELATED_PRODUCT_CATEGORY ('detail', $, (#244));
#251 = PRODUCT_DEFINITION_FORMATION_WITH_SPECIFIED_SOURCE ('', '', #244, .NOT_KNOWN.);
#252 = APPROVAL_STATUS ('approved');
#253 = APPROVAL (#252, '');
#254 = CALENDAR_DATE (2020, 16, 4);
#255 = COORDINATED_UNIVERSAL_TIME_OFFSET (0, $, .AHEAD.);
#256 = LOCAL_TIME (14, 14, 10., #255);
#257 = DATE_AND_TIME (#254, #256);
#258 = APPROVAL_DATE_TIME (#257, #253);
#259 = APPROVAL_ROLE ('');
#260 = PERSON ('', '', $, $, $, $);
#261 = ORGANIZATION ($, '', '');
#262 = PERSON_AND_ORGANIZATION (#260, #261);
#263 = APPROVAL_PERSON_ORGANIZATION (#262, #253, #259);
#264 = CC_DESIGN_APPROVAL (#253, (#251));
#265 = PERSON_AND_ORGANIZATION_ROLE ('creator');
#266 = PERSON ('', '', $, $, $, $);
#267 = ORGANIZATION ($, '', '');
#268 = PERSON_AND_ORGANIZATION (#266, #267);
#269 = CC_DESIGN_PERSON_AND_ORGANIZATION_ASSIGNMENT (#268, #265, (#251));
#270 = PERSON_AND_ORGANIZATION_ROLE ('part_supplier');
#271 = PERSON ('', '', $, $, $, $);
#272 = ORGANIZATION ($, '', '');
#273 = PERSON_AND_ORGANIZATION (#271, #272);
#274 = CC_DESIGN_PERSON_AND_ORGANIZATION_ASSIGNMENT (#273, #270, (#251));
#275 = SECURITY_CLASSIFICATION_LEVEL ('unclassified');
#276 = SECURITY_CLASSIFICATION ('', '', #275);
#277 = APPROVAL_STATUS ('approved');
#278 = APPROVAL (#277, '');
#279 = CALENDAR_DATE (2020, 16, 4);
#280 = COORDINATED_UNIVERSAL_TIME_OFFSET (0, $, .AHEAD.);
#281 = LOCAL_TIME (14, 14, 10., #280);
#282 = DATE_AND_TIME (#279, #281);
#283 = APPROVAL_DATE_TIME (#282, #278);
#284 = APPROVAL_ROLE ('');
#285 = PERSON ('', '', $, $, $, $);
#286 = ORGANIZATION ($, '', '');
#287 = PERSON_AND_ORGANIZATION (#285, #286);
#288 = APPROVAL_PERSON_ORGANIZATION (#287, #278, #284);
#289 = CC_DESIGN_APPROVAL (#278, (#276));
#290 = DATE_TIME_ROLE ('classification_date');
#291 = CALENDAR_DATE (2020, 16, 4);
#292 = COORDINATED_UNIVERSAL_TIME_OFFSET (0, $, .AHEAD.);
#293 = LOCAL_TIME (14, 14, 10., #292);
#294 = DATE_AND_TIME (#291, #293);
#295 = CC_DESIGN_DATE_AND_TIME_ASSIGNMENT (#294, #290, (#276));
#296 = PERSON_AND_ORGANIZATION_ROLE ('classification_officer');
#297 = PERSON ('', '', $, $, $, $);
#298 = ORGANIZATION ($, '', '');
#299 = PERSON_AND_ORGANIZATION (#297, #298);
#300 = CC_DESIGN_PERSON_AND_ORGANIZATION_ASSIGNMENT (#299, #296, (#276));
#301 = CC_DESIGN_SECURITY_CLASSIFICATION (#276, (#251));
#302 = DESIGN_CONTEXT ('', #241, 'design');
#303 = PRODUCT_DEFINITION ('', '', #251, #302);
#304 = APPROVAL_STATUS ('approved');
#305 = APPROVAL (#304, '');
#306 = CALENDAR_DATE (2020, 16, 4);
#307 = COORDINATED_UNIVERSAL_TIME_OFFSET (0, $, .AHEAD.);
#308 = LOCAL_TIME (14, 14, 10., #307);
#309 = DATE_AND_TIME (#306, #308);
#310 = APPROVAL_DATE_TIME (#309, #305);
#311 = APPROVAL_ROLE ('');
#312 = PERSON ('', '', $, $, $, $);
#313 = ORGANIZATION ($, '', '');
#314 = PERSON_AND_ORGANIZATION (#312, #313);
#315 = APPROVAL_PERSON_ORGANIZATION (#314, #305, #311);
#316 = CC_DESIGN_APPROVAL (#305, (#303));
#317 = DATE_TIME_ROLE ('creation_date');
#318 = CALENDAR_DATE (2020, 16, 4);
#319 = COORDINATED_UNIVERSAL_TIME_OFFSET (0, $, .AHEAD.);
#320 = LOCAL_TIME (14, 14, 10., #319);
#321 = DATE_AND_TIME (#318, #320);
#322 = CC_DESIGN_DATE_AND_TIME_ASSIGNMENT (#321, #317, (#303));
#323 = PERSON_AND_ORGANIZATION_ROLE ('creator');
#324 = PERSON ('', '', $, $, $, $);
#325 = ORGANIZATION ($, '', '');
#326 = PERSON_AND_ORGANIZATION (#324, #325);
#327 = CC_DESIGN_PERSON_AND_ORGANIZATION_ASSIGNMENT (#326, #323, (#303));
#328 = PRODUCT_DEFINITION_SHAPE ('', '', #303);
#329 = SHAPE_DEFINITION_REPRESENTATION (#328, #240);
#330 = SHAPE_REPRESENTATION_RELATIONSHIP ('', '', #240, #331);
#331 = ADVANCED_BREP_SHAPE_REPRESENTATION ('', (#234), #239);
ENDSEC;
END-ISO-10303-21;
