ISO-10303-21;
HEADER;
FILE_DESCRIPTION ((), '1');
FILE_NAME ('C:\\Users\\Nick\\Desktop\\TEAMS STP FILES\\3MVR\\3MVRM0200AH.STP', '2020-04-17T07:47:40', ('Unknown'), ('M.A.FORD Europe Ltd'), 'OneCNC-XR7 Mill 3D Expert', 'OneCNC-XR7 Mill 3D Expert', '');
FILE_SCHEMA (('CONFIG_CONTROL_DESIGN'));
ENDSEC;

DATA;
#1 = CARTESIAN_POINT ('', (-6., 1., -2.44929359829471E-16));
#2 = VERTEX_POINT ('', #1);
#3 = CARTESIAN_POINT ('', (1.23259516440783E-32, 1., -2.44929359829471E-16));
#4 = VERTEX_POINT ('', #3);
#5 = CARTESIAN_POINT ('', (-6., 1., -2.44929359829471E-16));
#6 = CARTESIAN_POINT ('', (-4., 1., -2.44929359829471E-16));
#7 = CARTESIAN_POINT ('', (-2., 1., -2.44929359829471E-16));
#8 = CARTESIAN_POINT ('', (1.23259516440783E-32, 1., -2.44929359829471E-16));
#9 = B_SPLINE_CURVE_WITH_KNOTS ('', 3, (#5, #6, #7, #8), .UNSPECIFIED., .F., .U., (4, 4), (0., 1.), .UNSPECIFIED.);
#10 = EDGE_CURVE ('', #2, #4, #9, .T.);
#11 = ORIENTED_EDGE ('', *, *, #10, .F.);
#12 = CARTESIAN_POINT ('', (-6., 1., -2.44929359829471E-16));
#13 = CARTESIAN_POINT ('', (-6., 1., 4.));
#14 = CARTESIAN_POINT ('', (-6., -3., 2.));
#15 = CARTESIAN_POINT ('', (-6., -3., -2.));
#16 = CARTESIAN_POINT ('', (-6., 1., -4.));
#17 = CARTESIAN_POINT ('', (-6., 1., -2.44929359829471E-16));
#18 = (
   BOUNDED_CURVE ()
   B_SPLINE_CURVE (5, (#12, #13, #14, #15, #16, #17), .UNSPECIFIED., .T., .U.)
   B_SPLINE_CURVE_WITH_KNOTS ((6, 6), (0., 1.), .UNSPECIFIED.)
   CURVE ()
   GEOMETRIC_REPRESENTATION_ITEM ()
   RATIONAL_B_SPLINE_CURVE ((5., 1., 1., 1., 1., 5.))
   REPRESENTATION_ITEM ('')
);
#19 = EDGE_CURVE ('', #2, #2, #18, .T.);
#20 = ORIENTED_EDGE ('', *, *, #19, .T.);
#21 = ORIENTED_EDGE ('', *, *, #10, .T.);
#22 = CARTESIAN_POINT ('', (1.23259516440783E-32, 1., -2.44929359829471E-16));
#23 = CARTESIAN_POINT ('', (-2.44929359829471E-16, 1., 4.));
#24 = CARTESIAN_POINT ('', (-3.67394039744206E-16, -3., 2.));
#25 = CARTESIAN_POINT ('', (-1.22464679914735E-16, -3., -2.));
#26 = CARTESIAN_POINT ('', (2.44929359829471E-16, 0.999999999999999, -4.));
#27 = CARTESIAN_POINT ('', (1.23259516440783E-32, 1., -2.44929359829471E-16));
#28 = (
   BOUNDED_CURVE ()
   B_SPLINE_CURVE (5, (#22, #23, #24, #25, #26, #27), .UNSPECIFIED., .T., .U.)
   B_SPLINE_CURVE_WITH_KNOTS ((6, 6), (0., 1.), .UNSPECIFIED.)
   CURVE ()
   GEOMETRIC_REPRESENTATION_ITEM ()
   RATIONAL_B_SPLINE_CURVE ((5., 1., 1., 1., 1., 5.))
   REPRESENTATION_ITEM ('')
);
#29 = EDGE_CURVE ('', #4, #4, #28, .T.);
#30 = ORIENTED_EDGE ('', *, *, #29, .F.);
#31 = EDGE_LOOP ('', (#11, #20, #21, #30));
#32 = FACE_OUTER_BOUND ('', #31, .T.);
#33 = CARTESIAN_POINT ('', (-6., 1., -2.44929359829471E-16));
#34 = CARTESIAN_POINT ('', (-4., 1., -2.44929359829471E-16));
#35 = CARTESIAN_POINT ('', (-2., 1., -2.44929359829471E-16));
#36 = CARTESIAN_POINT ('', (1.23259516440783E-32, 1., -2.44929359829471E-16));
#37 = CARTESIAN_POINT ('', (-6., 1., 4.));
#38 = CARTESIAN_POINT ('', (-4., 1., 4.));
#39 = CARTESIAN_POINT ('', (-2., 1., 4.));
#40 = CARTESIAN_POINT ('', (-2.44929359829471E-16, 1., 4.));
#41 = CARTESIAN_POINT ('', (-6., -3., 2.));
#42 = CARTESIAN_POINT ('', (-4., -3., 2.));
#43 = CARTESIAN_POINT ('', (-2., -3., 2.));
#44 = CARTESIAN_POINT ('', (-3.67394039744206E-16, -3., 2.));
#45 = CARTESIAN_POINT ('', (-6., -3., -2.));
#46 = CARTESIAN_POINT ('', (-4., -3., -2.));
#47 = CARTESIAN_POINT ('', (-2., -3., -2.));
#48 = CARTESIAN_POINT ('', (-1.22464679914735E-16, -3., -2.));
#49 = CARTESIAN_POINT ('', (-6., 1., -4.));
#50 = CARTESIAN_POINT ('', (-4., 1., -4.));
#51 = CARTESIAN_POINT ('', (-2., 1., -4.));
#52 = CARTESIAN_POINT ('', (2.44929359829471E-16, 0.999999999999999, -4.));
#53 = CARTESIAN_POINT ('', (-6., 1., -2.44929359829471E-16));
#54 = CARTESIAN_POINT ('', (-4., 1., -2.44929359829471E-16));
#55 = CARTESIAN_POINT ('', (-2., 1., -2.44929359829471E-16));
#56 = CARTESIAN_POINT ('', (1.23259516440783E-32, 1., -2.44929359829471E-16));
#57 = (
   BOUNDED_SURFACE ()
   B_SPLINE_SURFACE (5, 3, ((#33, #34, #35, #36), (#37, #38, #39, #40), (#41, #42, #43, #44), (#45, #46, #47, #48), (#49, #50, #51, #52), (#53, #54, #55, #56)), .UNSPECIFIED., .T., .F., .U.)
   B_SPLINE_SURFACE_WITH_KNOTS ((6, 6), (4, 4), (0., 1.), (0., 1.), .UNSPECIFIED.)
   SURFACE ()
   GEOMETRIC_REPRESENTATION_ITEM ()
   RATIONAL_B_SPLINE_SURFACE (((5., 5., 5., 5.), (1., 1., 1., 1.), (1., 1., 1., 1.), (1., 1., 1., 1.), (1., 1., 1., 1.), (5., 5., 5., 5.)))
   REPRESENTATION_ITEM ('')
);
#58 = ADVANCED_FACE ('', (#32), #57, .T.);
#59 = CARTESIAN_POINT ('', (-11.1445540159703, 2.00000000000001, -4.89858719658942E-16));
#60 = VERTEX_POINT ('', #59);
#61 = CARTESIAN_POINT ('', (-11.1445540159703, 2.00000000000001, -4.89858719658942E-16));
#62 = CARTESIAN_POINT ('', (-9.42970267731355, 1.66666666666667, -4.08215599715785E-16));
#63 = CARTESIAN_POINT ('', (-7.71485133865679, 1.33333333333333, -3.26572479772627E-16));
#64 = CARTESIAN_POINT ('', (-6., 1., -2.44929359829471E-16));
#65 = B_SPLINE_CURVE_WITH_KNOTS ('', 3, (#61, #62, #63, #64), .UNSPECIFIED., .F., .U., (4, 4), (0., 1.), .UNSPECIFIED.);
#66 = EDGE_CURVE ('', #60, #2, #65, .T.);
#67 = ORIENTED_EDGE ('', *, *, #66, .F.);
#68 = CARTESIAN_POINT ('', (-11.1445540159703, 2.00000000000001, -4.89858719658942E-16));
#69 = CARTESIAN_POINT ('', (-11.1445540159703, 2., 8.00000000000002));
#70 = CARTESIAN_POINT ('', (-11.1445540159703, -6.00000000000001, 4.00000000000001));
#71 = CARTESIAN_POINT ('', (-11.1445540159703, -6.00000000000001, -4.00000000000001));
#72 = CARTESIAN_POINT ('', (-11.1445540159703, 2.00000000000001, -8.00000000000002));
#73 = CARTESIAN_POINT ('', (-11.1445540159703, 2.00000000000001, -4.89858719658942E-16));
#74 = (
   BOUNDED_CURVE ()
   B_SPLINE_CURVE (5, (#68, #69, #70, #71, #72, #73), .UNSPECIFIED., .T., .U.)
   B_SPLINE_CURVE_WITH_KNOTS ((6, 6), (0., 1.), .UNSPECIFIED.)
   CURVE ()
   GEOMETRIC_REPRESENTATION_ITEM ()
   RATIONAL_B_SPLINE_CURVE ((5., 1., 1., 1., 1., 5.))
   REPRESENTATION_ITEM ('')
);
#75 = EDGE_CURVE ('', #60, #60, #74, .T.);
#76 = ORIENTED_EDGE ('', *, *, #75, .T.);
#77 = ORIENTED_EDGE ('', *, *, #66, .T.);
#78 = ORIENTED_EDGE ('', *, *, #19, .F.);
#79 = EDGE_LOOP ('', (#67, #76, #77, #78));
#80 = FACE_OUTER_BOUND ('', #79, .T.);
#81 = CARTESIAN_POINT ('', (-11.1445540159703, 2.00000000000001, -4.89858719658942E-16));
#82 = CARTESIAN_POINT ('', (-9.42970267731355, 1.66666666666667, -4.08215599715785E-16));
#83 = CARTESIAN_POINT ('', (-7.71485133865679, 1.33333333333333, -3.26572479772627E-16));
#84 = CARTESIAN_POINT ('', (-6., 1., -2.44929359829471E-16));
#85 = CARTESIAN_POINT ('', (-11.1445540159703, 2., 8.00000000000002));
#86 = CARTESIAN_POINT ('', (-9.42970267731355, 1.66666666666667, 6.66666666666668));
#87 = CARTESIAN_POINT ('', (-7.71485133865679, 1.33333333333333, 5.33333333333333));
#88 = CARTESIAN_POINT ('', (-6., 1., 4.));
#89 = CARTESIAN_POINT ('', (-11.1445540159703, -6.00000000000001, 4.00000000000001));
#90 = CARTESIAN_POINT ('', (-9.42970267731355, -5.00000000000001, 3.33333333333334));
#91 = CARTESIAN_POINT ('', (-7.71485133865679, -4., 2.66666666666666));
#92 = CARTESIAN_POINT ('', (-6., -3., 2.));
#93 = CARTESIAN_POINT ('', (-11.1445540159703, -6.00000000000001, -4.00000000000001));
#94 = CARTESIAN_POINT ('', (-9.42970267731355, -5.00000000000001, -3.33333333333334));
#95 = CARTESIAN_POINT ('', (-7.71485133865679, -3.99999999999999, -2.66666666666666));
#96 = CARTESIAN_POINT ('', (-6., -3., -2.));
#97 = CARTESIAN_POINT ('', (-11.1445540159703, 2.00000000000001, -8.00000000000002));
#98 = CARTESIAN_POINT ('', (-9.42970267731355, 1.66666666666667, -6.66666666666668));
#99 = CARTESIAN_POINT ('', (-7.71485133865679, 1.33333333333333, -5.33333333333333));
#100 = CARTESIAN_POINT ('', (-6., 1., -4.));
#101 = CARTESIAN_POINT ('', (-11.1445540159703, 2.00000000000001, -4.89858719658942E-16));
#102 = CARTESIAN_POINT ('', (-9.42970267731355, 1.66666666666667, -4.08215599715785E-16));
#103 = CARTESIAN_POINT ('', (-7.71485133865679, 1.33333333333333, -3.26572479772627E-16));
#104 = CARTESIAN_POINT ('', (-6., 1., -2.44929359829471E-16));
#105 = (
   BOUNDED_SURFACE ()
   B_SPLINE_SURFACE (5, 3, ((#81, #82, #83, #84), (#85, #86, #87, #88), (#89, #90, #91, #92), (#93, #94, #95, #96), (#97, #98, #99, #100), (#101, #102, #103, #104)), .UNSPECIFIED., .T., .F., .U.)
   B_SPLINE_SURFACE_WITH_KNOTS ((6, 6), (4, 4), (0., 1.), (0., 1.), .UNSPECIFIED.)
   SURFACE ()
   GEOMETRIC_REPRESENTATION_ITEM ()
   RATIONAL_B_SPLINE_SURFACE (((5., 5., 5., 5.), (1., 1., 1., 1.), (1., 1., 1., 1.), (1., 1., 1., 1.), (1., 1., 1., 1.), (5., 5., 5., 5.)))
   REPRESENTATION_ITEM ('')
);
#106 = ADVANCED_FACE ('', (#80), #105, .T.);
#107 = CARTESIAN_POINT ('', (-49.75, 2.00000000000001, -4.89858719658942E-16));
#108 = VERTEX_POINT ('', #107);
#109 = CARTESIAN_POINT ('', (-49.75, 2.00000000000001, -4.89858719658942E-16));
#110 = CARTESIAN_POINT ('', (-36.8815180053235, 2.00000000000001, -4.89858719658942E-16));
#111 = CARTESIAN_POINT ('', (-24.0130360106469, 2.00000000000001, -4.89858719658943E-16));
#112 = CARTESIAN_POINT ('', (-11.1445540159703, 2.00000000000001, -4.89858719658942E-16));
#113 = B_SPLINE_CURVE_WITH_KNOTS ('', 3, (#109, #110, #111, #112), .UNSPECIFIED., .F., .U., (4, 4), (0., 1.), .UNSPECIFIED.);
#114 = EDGE_CURVE ('', #108, #60, #113, .T.);
#115 = ORIENTED_EDGE ('', *, *, #114, .F.);
#116 = CARTESIAN_POINT ('', (-49.75, 2.00000000000001, -4.89858719658942E-16));
#117 = CARTESIAN_POINT ('', (-49.75, 2., 8.00000000000001));
#118 = CARTESIAN_POINT ('', (-49.75, -6.00000000000001, 4.));
#119 = CARTESIAN_POINT ('', (-49.75, -6., -4.00000000000002));
#120 = CARTESIAN_POINT ('', (-49.75, 2.00000000000002, -8.00000000000001));
#121 = CARTESIAN_POINT ('', (-49.75, 2.00000000000001, -4.89858719658942E-16));
#122 = (
   BOUNDED_CURVE ()
   B_SPLINE_CURVE (5, (#116, #117, #118, #119, #120, #121), .UNSPECIFIED., .T., .U.)
   B_SPLINE_CURVE_WITH_KNOTS ((6, 6), (0., 1.), .UNSPECIFIED.)
   CURVE ()
   GEOMETRIC_REPRESENTATION_ITEM ()
   RATIONAL_B_SPLINE_CURVE ((5., 1., 1., 1., 1., 5.))
   REPRESENTATION_ITEM ('')
);
#123 = EDGE_CURVE ('', #108, #108, #122, .T.);
#124 = ORIENTED_EDGE ('', *, *, #123, .T.);
#125 = ORIENTED_EDGE ('', *, *, #114, .T.);
#126 = ORIENTED_EDGE ('', *, *, #75, .F.);
#127 = EDGE_LOOP ('', (#115, #124, #125, #126));
#128 = FACE_OUTER_BOUND ('', #127, .T.);
#129 = CARTESIAN_POINT ('', (-49.75, 2.00000000000001, -4.89858719658942E-16));
#130 = CARTESIAN_POINT ('', (-36.8815180053235, 2.00000000000001, -4.89858719658942E-16));
#131 = CARTESIAN_POINT ('', (-24.0130360106469, 2.00000000000001, -4.89858719658943E-16));
#132 = CARTESIAN_POINT ('', (-11.1445540159703, 2.00000000000001, -4.89858719658942E-16));
#133 = CARTESIAN_POINT ('', (-49.75, 2., 8.00000000000001));
#134 = CARTESIAN_POINT ('', (-36.8815180053235, 2., 8.00000000000002));
#135 = CARTESIAN_POINT ('', (-24.0130360106469, 2., 8.00000000000003));
#136 = CARTESIAN_POINT ('', (-11.1445540159703, 2., 8.00000000000002));
#137 = CARTESIAN_POINT ('', (-49.75, -6.00000000000001, 4.));
#138 = CARTESIAN_POINT ('', (-36.8815180053235, -6.00000000000001, 4.));
#139 = CARTESIAN_POINT ('', (-24.0130360106469, -6.00000000000002, 4.00000000000001));
#140 = CARTESIAN_POINT ('', (-11.1445540159703, -6.00000000000001, 4.00000000000001));
#141 = CARTESIAN_POINT ('', (-49.75, -6., -4.00000000000002));
#142 = CARTESIAN_POINT ('', (-36.8815180053235, -6.00000000000001, -4.00000000000002));
#143 = CARTESIAN_POINT ('', (-24.0130360106469, -6.00000000000002, -4.00000000000002));
#144 = CARTESIAN_POINT ('', (-11.1445540159703, -6.00000000000001, -4.00000000000001));
#145 = CARTESIAN_POINT ('', (-49.75, 2.00000000000002, -8.00000000000001));
#146 = CARTESIAN_POINT ('', (-36.8815180053235, 2.00000000000001, -8.00000000000002));
#147 = CARTESIAN_POINT ('', (-24.0130360106469, 2.00000000000001, -8.00000000000003));
#148 = CARTESIAN_POINT ('', (-11.1445540159703, 2.00000000000001, -8.00000000000002));
#149 = CARTESIAN_POINT ('', (-49.75, 2.00000000000001, -4.89858719658942E-16));
#150 = CARTESIAN_POINT ('', (-36.8815180053235, 2.00000000000001, -4.89858719658942E-16));
#151 = CARTESIAN_POINT ('', (-24.0130360106469, 2.00000000000001, -4.89858719658943E-16));
#152 = CARTESIAN_POINT ('', (-11.1445540159703, 2.00000000000001, -4.89858719658942E-16));
#153 = (
   BOUNDED_SURFACE ()
   B_SPLINE_SURFACE (5, 3, ((#129, #130, #131, #132), (#133, #134, #135, #136), (#137, #138, #139, #140), (#141, #142, #143, #144), (#145, #146, #147, #148), (#149, #150, #151, #152)), .UNSPECIFIED., .T., .F., .U.)
   B_SPLINE_SURFACE_WITH_KNOTS ((6, 6), (4, 4), (0., 1.), (0., 1.), .UNSPECIFIED.)
   SURFACE ()
   GEOMETRIC_REPRESENTATION_ITEM ()
   RATIONAL_B_SPLINE_SURFACE (((5., 5., 5., 5.), (1., 1., 1., 1.), (1., 1., 1., 1.), (1., 1., 1., 1.), (1., 1., 1., 1.), (5., 5., 5., 5.)))
   REPRESENTATION_ITEM ('')
);
#154 = ADVANCED_FACE ('', (#128), #153, .T.);
#155 = CARTESIAN_POINT ('', (-50., 1.75000000000001, -4.28626379701574E-16));
#156 = VERTEX_POINT ('', #155);
#157 = CARTESIAN_POINT ('', (-50., 1.75000000000001, -4.28626379701574E-16));
#158 = CARTESIAN_POINT ('', (-49.9166666666667, 1.83333333333334, -4.49037159687363E-16));
#159 = CARTESIAN_POINT ('', (-49.8333333333334, 1.91666666666667, -4.69447939673153E-16));
#160 = CARTESIAN_POINT ('', (-49.75, 2.00000000000001, -4.89858719658942E-16));
#161 = B_SPLINE_CURVE_WITH_KNOTS ('', 3, (#157, #158, #159, #160), .UNSPECIFIED., .F., .U., (4, 4), (0., 1.), .UNSPECIFIED.);
#162 = EDGE_CURVE ('', #156, #108, #161, .T.);
#163 = ORIENTED_EDGE ('', *, *, #162, .F.);
#164 = CARTESIAN_POINT ('', (-50., 1.75000000000001, -4.28626379701574E-16));
#165 = CARTESIAN_POINT ('', (-50., 1.75, 7.00000000000001));
#166 = CARTESIAN_POINT ('', (-50., -5.25000000000001, 3.5));
#167 = CARTESIAN_POINT ('', (-50., -5.25, -3.50000000000002));
#168 = CARTESIAN_POINT ('', (-50., 1.75000000000002, -7.00000000000001));
#169 = CARTESIAN_POINT ('', (-50., 1.75000000000001, -4.28626379701574E-16));
#170 = (
   BOUNDED_CURVE ()
   B_SPLINE_CURVE (5, (#164, #165, #166, #167, #168, #169), .UNSPECIFIED., .T., .U.)
   B_SPLINE_CURVE_WITH_KNOTS ((6, 6), (0., 1.), .UNSPECIFIED.)
   CURVE ()
   GEOMETRIC_REPRESENTATION_ITEM ()
   RATIONAL_B_SPLINE_CURVE ((5., 1., 1., 1., 1., 5.))
   REPRESENTATION_ITEM ('')
);
#171 = EDGE_CURVE ('', #156, #156, #170, .T.);
#172 = ORIENTED_EDGE ('', *, *, #171, .T.);
#173 = ORIENTED_EDGE ('', *, *, #162, .T.);
#174 = ORIENTED_EDGE ('', *, *, #123, .F.);
#175 = EDGE_LOOP ('', (#163, #172, #173, #174));
#176 = FACE_OUTER_BOUND ('', #175, .T.);
#177 = CARTESIAN_POINT ('', (-50., 1.75000000000001, -4.28626379701574E-16));
#178 = CARTESIAN_POINT ('', (-49.9166666666667, 1.83333333333334, -4.49037159687363E-16));
#179 = CARTESIAN_POINT ('', (-49.8333333333334, 1.91666666666667, -4.69447939673153E-16));
#180 = CARTESIAN_POINT ('', (-49.75, 2.00000000000001, -4.89858719658942E-16));
#181 = CARTESIAN_POINT ('', (-50., 1.75, 7.00000000000001));
#182 = CARTESIAN_POINT ('', (-49.9166666666667, 1.83333333333333, 7.33333333333334));
#183 = CARTESIAN_POINT ('', (-49.8333333333334, 1.91666666666666, 7.66666666666668));
#184 = CARTESIAN_POINT ('', (-49.75, 2., 8.00000000000001));
#185 = CARTESIAN_POINT ('', (-50., -5.25000000000001, 3.5));
#186 = CARTESIAN_POINT ('', (-49.9166666666667, -5.50000000000001, 3.66666666666666));
#187 = CARTESIAN_POINT ('', (-49.8333333333334, -5.75000000000001, 3.83333333333333));
#188 = CARTESIAN_POINT ('', (-49.75, -6.00000000000001, 4.));
#189 = CARTESIAN_POINT ('', (-50., -5.25, -3.50000000000002));
#190 = CARTESIAN_POINT ('', (-49.9166666666667, -5.5, -3.66666666666668));
#191 = CARTESIAN_POINT ('', (-49.8333333333334, -5.75, -3.83333333333335));
#192 = CARTESIAN_POINT ('', (-49.75, -6., -4.00000000000002));
#193 = CARTESIAN_POINT ('', (-50., 1.75000000000002, -7.00000000000001));
#194 = CARTESIAN_POINT ('', (-49.9166666666667, 1.83333333333335, -7.33333333333334));
#195 = CARTESIAN_POINT ('', (-49.8333333333334, 1.91666666666668, -7.66666666666668));
#196 = CARTESIAN_POINT ('', (-49.75, 2.00000000000002, -8.00000000000001));
#197 = CARTESIAN_POINT ('', (-50., 1.75000000000001, -4.28626379701574E-16));
#198 = CARTESIAN_POINT ('', (-49.9166666666667, 1.83333333333334, -4.49037159687363E-16));
#199 = CARTESIAN_POINT ('', (-49.8333333333334, 1.91666666666667, -4.69447939673153E-16));
#200 = CARTESIAN_POINT ('', (-49.75, 2.00000000000001, -4.89858719658942E-16));
#201 = (
   BOUNDED_SURFACE ()
   B_SPLINE_SURFACE (5, 3, ((#177, #178, #179, #180), (#181, #182, #183, #184), (#185, #186, #187, #188), (#189, #190, #191, #192), (#193, #194, #195, #196), (#197, #198, #199, #200)), .UNSPECIFIED., .T., .F., .U.)
   B_SPLINE_SURFACE_WITH_KNOTS ((6, 6), (4, 4), (0., 1.), (0., 1.), .UNSPECIFIED.)
   SURFACE ()
   GEOMETRIC_REPRESENTATION_ITEM ()
   RATIONAL_B_SPLINE_SURFACE (((5., 5., 5., 5.), (1., 1., 1., 1.), (1., 1., 1., 1.), (1., 1., 1., 1.), (1., 1., 1., 1.), (5., 5., 5., 5.)))
   REPRESENTATION_ITEM ('')
);
#202 = ADVANCED_FACE ('', (#176), #201, .T.);
#203 = CARTESIAN_POINT ('', (-50., 3.06161699786838E-15, -3.06161699786838E-15));
#204 = VERTEX_POINT ('', #203);
#205 = CARTESIAN_POINT ('', (-50., 3.06161699786838E-15, -3.06161699786838E-15));
#206 = CARTESIAN_POINT ('', (-50., 1.75000000000001, -4.28626379701574E-16));
#207 = B_SPLINE_CURVE_WITH_KNOTS ('', 1, (#205, #206), .UNSPECIFIED., .F., .U., (2, 2), (0., 1.), .UNSPECIFIED.);
#208 = EDGE_CURVE ('', #204, #156, #207, .T.);
#209 = ORIENTED_EDGE ('', *, *, #208, .F.);
#210 = ORIENTED_EDGE ('', *, *, #208, .T.);
#211 = ORIENTED_EDGE ('', *, *, #171, .F.);
#212 = EDGE_LOOP ('', (#209, #210, #211));
#213 = FACE_OUTER_BOUND ('', #212, .T.);
#214 = CARTESIAN_POINT ('', (-50., 3.06161699786838E-15, -3.06161699786838E-15));
#215 = CARTESIAN_POINT ('', (-50., 1.75000000000001, -4.28626379701574E-16));
#216 = CARTESIAN_POINT ('', (-50., 3.06161699786838E-15, -3.06161699786838E-15));
#217 = CARTESIAN_POINT ('', (-50., 1.75, 7.00000000000001));
#218 = CARTESIAN_POINT ('', (-50., 3.06161699786838E-15, -3.06161699786838E-15));
#219 = CARTESIAN_POINT ('', (-50., -5.25000000000001, 3.5));
#220 = CARTESIAN_POINT ('', (-50., 3.06161699786838E-15, -3.06161699786838E-15));
#221 = CARTESIAN_POINT ('', (-50., -5.25, -3.50000000000002));
#222 = CARTESIAN_POINT ('', (-50., 3.06161699786838E-15, -3.06161699786838E-15));
#223 = CARTESIAN_POINT ('', (-50., 1.75000000000002, -7.00000000000001));
#224 = CARTESIAN_POINT ('', (-50., 3.06161699786838E-15, -3.06161699786838E-15));
#225 = CARTESIAN_POINT ('', (-50., 1.75000000000001, -4.28626379701574E-16));
#226 = (
   BOUNDED_SURFACE ()
   B_SPLINE_SURFACE (5, 1, ((#214, #215), (#216, #217), (#218, #219), (#220, #221), (#222, #223), (#224, #225)), .UNSPECIFIED., .T., .F., .U.)
   B_SPLINE_SURFACE_WITH_KNOTS ((6, 6), (2, 2), (0., 1.), (0., 1.), .UNSPECIFIED.)
   SURFACE ()
   GEOMETRIC_REPRESENTATION_ITEM ()
   RATIONAL_B_SPLINE_SURFACE (((5., 5.), (1., 1.), (1., 1.), (1., 1.), (1., 1.), (5., 5.)))
   REPRESENTATION_ITEM ('')
);
#227 = ADVANCED_FACE ('', (#213), #226, .T.);
#228 = CARTESIAN_POINT ('', (-6.12323399573677E-17, 3.74939945665464E-33, -3.74939945665464E-33));
#229 = VERTEX_POINT ('', #228);
#230 = CARTESIAN_POINT ('', (1.23259516440783E-32, 1., -2.44929359829471E-16));
#231 = CARTESIAN_POINT ('', (-6.12323399573677E-17, 3.74939945665464E-33, -3.74939945665464E-33));
#232 = B_SPLINE_CURVE_WITH_KNOTS ('', 1, (#230, #231), .UNSPECIFIED., .F., .U., (2, 2), (0., 1.), .UNSPECIFIED.);
#233 = EDGE_CURVE ('', #4, #229, #232, .T.);
#234 = ORIENTED_EDGE ('', *, *, #233, .F.);
#235 = ORIENTED_EDGE ('', *, *, #29, .T.);
#236 = ORIENTED_EDGE ('', *, *, #233, .T.);
#237 = EDGE_LOOP ('', (#234, #235, #236));
#238 = FACE_OUTER_BOUND ('', #237, .T.);
#239 = CARTESIAN_POINT ('', (1.23259516440783E-32, 1., -2.44929359829471E-16));
#240 = CARTESIAN_POINT ('', (-6.12323399573677E-17, 3.74939945665464E-33, -3.74939945665464E-33));
#241 = CARTESIAN_POINT ('', (-2.44929359829471E-16, 1., 4.));
#242 = CARTESIAN_POINT ('', (-6.12323399573677E-17, 3.74939945665464E-33, -3.74939945665464E-33));
#243 = CARTESIAN_POINT ('', (-3.67394039744206E-16, -3., 2.));
#244 = CARTESIAN_POINT ('', (-6.12323399573677E-17, 3.74939945665464E-33, -3.74939945665464E-33));
#245 = CARTESIAN_POINT ('', (-1.22464679914735E-16, -3., -2.));
#246 = CARTESIAN_POINT ('', (-6.12323399573677E-17, 3.74939945665464E-33, -3.74939945665464E-33));
#247 = CARTESIAN_POINT ('', (2.44929359829471E-16, 0.999999999999999, -4.));
#248 = CARTESIAN_POINT ('', (-6.12323399573677E-17, 3.74939945665464E-33, -3.74939945665464E-33));
#249 = CARTESIAN_POINT ('', (1.23259516440783E-32, 1., -2.44929359829471E-16));
#250 = CARTESIAN_POINT ('', (-6.12323399573677E-17, 3.74939945665464E-33, -3.74939945665464E-33));
#251 = (
   BOUNDED_SURFACE ()
   B_SPLINE_SURFACE (5, 1, ((#239, #240), (#241, #242), (#243, #244), (#245, #246), (#247, #248), (#249, #250)), .UNSPECIFIED., .T., .F., .U.)
   B_SPLINE_SURFACE_WITH_KNOTS ((6, 6), (2, 2), (0., 1.), (0., 1.), .UNSPECIFIED.)
   SURFACE ()
   GEOMETRIC_REPRESENTATION_ITEM ()
   RATIONAL_B_SPLINE_SURFACE (((5., 5.), (1., 1.), (1., 1.), (1., 1.), (1., 1.), (5., 5.)))
   REPRESENTATION_ITEM ('')
);
#252 = ADVANCED_FACE ('', (#238), #251, .T.);
#253 = CLOSED_SHELL ('', (#58, #106, #154, #202, #227, #252));
#254 = MANIFOLD_SOLID_BREP ('', #253);
#255 = (
   LENGTH_UNIT ()
   NAMED_UNIT (*)
   SI_UNIT (.MILLI., .METRE.)
);
#256 = (
   NAMED_UNIT (*)
   SI_UNIT ($, .STERADIAN.)
   SOLID_ANGLE_UNIT ()
);
#257 = (
   NAMED_UNIT (*)
   SI_UNIT ($, .RADIAN.)
   PLANE_ANGLE_UNIT ()
);
#258 = UNCERTAINTY_MEASURE_WITH_UNIT (LENGTH_MEASURE(0.001), #255, 'DISTANCE_ACCURACY_VALUE', '');
#259 = (
   GEOMETRIC_REPRESENTATION_CONTEXT (3)
   GLOBAL_UNCERTAINTY_ASSIGNED_CONTEXT ((#258))
   GLOBAL_UNIT_ASSIGNED_CONTEXT ((#255, #256, #257))
   REPRESENTATION_CONTEXT ('', '3D')
);
#260 = SHAPE_REPRESENTATION ('', (), #259);
#261 = APPLICATION_CONTEXT ('configuration controlled 3D designs of mechanical parts and assemblies');
#262 = APPLICATION_PROTOCOL_DEFINITION ('International Standard', 'config_control_design', 1997, #261);
#263 = MECHANICAL_CONTEXT ('', #261, 'mechanical');
#264 = PRODUCT ('', '', '', (#263));
#265 = PERSON_AND_ORGANIZATION_ROLE ('design_owner');
#266 = PERSON ('', '', $, $, $, $);
#267 = ORGANIZATION ($, '', '');
#268 = PERSON_AND_ORGANIZATION (#266, #267);
#269 = CC_DESIGN_PERSON_AND_ORGANIZATION_ASSIGNMENT (#268, #265, (#264));
#270 = PRODUCT_RELATED_PRODUCT_CATEGORY ('detail', $, (#264));
#271 = PRODUCT_DEFINITION_FORMATION_WITH_SPECIFIED_SOURCE ('', '', #264, .NOT_KNOWN.);
#272 = APPROVAL_STATUS ('approved');
#273 = APPROVAL (#272, '');
#274 = CALENDAR_DATE (2020, 17, 4);
#275 = COORDINATED_UNIVERSAL_TIME_OFFSET (0, $, .AHEAD.);
#276 = LOCAL_TIME (7, 47, 40., #275);
#277 = DATE_AND_TIME (#274, #276);
#278 = APPROVAL_DATE_TIME (#277, #273);
#279 = APPROVAL_ROLE ('');
#280 = PERSON ('', '', $, $, $, $);
#281 = ORGANIZATION ($, '', '');
#282 = PERSON_AND_ORGANIZATION (#280, #281);
#283 = APPROVAL_PERSON_ORGANIZATION (#282, #273, #279);
#284 = CC_DESIGN_APPROVAL (#273, (#271));
#285 = PERSON_AND_ORGANIZATION_ROLE ('creator');
#286 = PERSON ('', '', $, $, $, $);
#287 = ORGANIZATION ($, '', '');
#288 = PERSON_AND_ORGANIZATION (#286, #287);
#289 = CC_DESIGN_PERSON_AND_ORGANIZATION_ASSIGNMENT (#288, #285, (#271));
#290 = PERSON_AND_ORGANIZATION_ROLE ('part_supplier');
#291 = PERSON ('', '', $, $, $, $);
#292 = ORGANIZATION ($, '', '');
#293 = PERSON_AND_ORGANIZATION (#291, #292);
#294 = CC_DESIGN_PERSON_AND_ORGANIZATION_ASSIGNMENT (#293, #290, (#271));
#295 = SECURITY_CLASSIFICATION_LEVEL ('unclassified');
#296 = SECURITY_CLASSIFICATION ('', '', #295);
#297 = APPROVAL_STATUS ('approved');
#298 = APPROVAL (#297, '');
#299 = CALENDAR_DATE (2020, 17, 4);
#300 = COORDINATED_UNIVERSAL_TIME_OFFSET (0, $, .AHEAD.);
#301 = LOCAL_TIME (7, 47, 40., #300);
#302 = DATE_AND_TIME (#299, #301);
#303 = APPROVAL_DATE_TIME (#302, #298);
#304 = APPROVAL_ROLE ('');
#305 = PERSON ('', '', $, $, $, $);
#306 = ORGANIZATION ($, '', '');
#307 = PERSON_AND_ORGANIZATION (#305, #306);
#308 = APPROVAL_PERSON_ORGANIZATION (#307, #298, #304);
#309 = CC_DESIGN_APPROVAL (#298, (#296));
#310 = DATE_TIME_ROLE ('classification_date');
#311 = CALENDAR_DATE (2020, 17, 4);
#312 = COORDINATED_UNIVERSAL_TIME_OFFSET (0, $, .AHEAD.);
#313 = LOCAL_TIME (7, 47, 40., #312);
#314 = DATE_AND_TIME (#311, #313);
#315 = CC_DESIGN_DATE_AND_TIME_ASSIGNMENT (#314, #310, (#296));
#316 = PERSON_AND_ORGANIZATION_ROLE ('classification_officer');
#317 = PERSON ('', '', $, $, $, $);
#318 = ORGANIZATION ($, '', '');
#319 = PERSON_AND_ORGANIZATION (#317, #318);
#320 = CC_DESIGN_PERSON_AND_ORGANIZATION_ASSIGNMENT (#319, #316, (#296));
#321 = CC_DESIGN_SECURITY_CLASSIFICATION (#296, (#271));
#322 = DESIGN_CONTEXT ('', #261, 'design');
#323 = PRODUCT_DEFINITION ('', '', #271, #322);
#324 = APPROVAL_STATUS ('approved');
#325 = APPROVAL (#324, '');
#326 = CALENDAR_DATE (2020, 17, 4);
#327 = COORDINATED_UNIVERSAL_TIME_OFFSET (0, $, .AHEAD.);
#328 = LOCAL_TIME (7, 47, 40., #327);
#329 = DATE_AND_TIME (#326, #328);
#330 = APPROVAL_DATE_TIME (#329, #325);
#331 = APPROVAL_ROLE ('');
#332 = PERSON ('', '', $, $, $, $);
#333 = ORGANIZATION ($, '', '');
#334 = PERSON_AND_ORGANIZATION (#332, #333);
#335 = APPROVAL_PERSON_ORGANIZATION (#334, #325, #331);
#336 = CC_DESIGN_APPROVAL (#325, (#323));
#337 = DATE_TIME_ROLE ('creation_date');
#338 = CALENDAR_DATE (2020, 17, 4);
#339 = COORDINATED_UNIVERSAL_TIME_OFFSET (0, $, .AHEAD.);
#340 = LOCAL_TIME (7, 47, 40., #339);
#341 = DATE_AND_TIME (#338, #340);
#342 = CC_DESIGN_DATE_AND_TIME_ASSIGNMENT (#341, #337, (#323));
#343 = PERSON_AND_ORGANIZATION_ROLE ('creator');
#344 = PERSON ('', '', $, $, $, $);
#345 = ORGANIZATION ($, '', '');
#346 = PERSON_AND_ORGANIZATION (#344, #345);
#347 = CC_DESIGN_PERSON_AND_ORGANIZATION_ASSIGNMENT (#346, #343, (#323));
#348 = PRODUCT_DEFINITION_SHAPE ('', '', #323);
#349 = SHAPE_DEFINITION_REPRESENTATION (#348, #260);
#350 = SHAPE_REPRESENTATION_RELATIONSHIP ('', '', #260, #351);
#351 = ADVANCED_BREP_SHAPE_REPRESENTATION ('', (#254), #259);
ENDSEC;
END-ISO-10303-21;
