ISO-10303-21;
HEADER;
FILE_DESCRIPTION ((), '1');
FILE_NAME ('C:\\Users\\Paul\\Documents\\5AXFA081525-AX.STP', '2022-07-25T16:55:20', ('Unknown'), ('M.A. Ford Europe'), 'OneCNC-XR8 Mill 3D Expert', 'OneCNC-XR8 Mill 3D Expert', '');
FILE_SCHEMA (('CONFIG_CONTROL_DESIGN'));
ENDSEC;

DATA;
#1 = CARTESIAN_POINT ('', (75., -4.0000000002534, 9.79717439379947E-16));
#2 = VERTEX_POINT ('', #1);
#3 = CARTESIAN_POINT ('', (75., 3.06161699786838E-16, -3.06161699786838E-16));
#4 = VERTEX_POINT ('', #3);
#5 = CARTESIAN_POINT ('', (75., -4.0000000002534, 9.79717439379947E-16));
#6 = CARTESIAN_POINT ('', (75., 0., -3.06161699786838E-16));
#7 = B_SPLINE_CURVE_WITH_KNOTS ('', 1, (#5, #6), .UNSPECIFIED., .F., .U., (2, 2), (0., 1.), .UNSPECIFIED.);
#8 = EDGE_CURVE ('', #2, #4, #7, .T.);
#9 = ORIENTED_EDGE ('', *, *, #8, .F.);
#10 = CARTESIAN_POINT ('', (75., -4.0000000002534, 9.79717439379947E-16));
#11 = CARTESIAN_POINT ('', (75., -4.0000000002534, -16.0000000010136));
#12 = CARTESIAN_POINT ('', (75., 12.0000000007602, -8.0000000005068));
#13 = CARTESIAN_POINT ('', (75., 12.0000000007602, 8.00000000050679));
#14 = CARTESIAN_POINT ('', (75., -4.00000000025339, 16.0000000010136));
#15 = CARTESIAN_POINT ('', (75., -4.0000000002534, 9.79717439379947E-16));
#16 = (
   BOUNDED_CURVE ()
   B_SPLINE_CURVE (5, (#10, #11, #12, #13, #14, #15), .UNSPECIFIED., .T., .U.)
   B_SPLINE_CURVE_WITH_KNOTS ((6, 6), (0., 1.), .UNSPECIFIED.)
   CURVE ()
   GEOMETRIC_REPRESENTATION_ITEM ()
   RATIONAL_B_SPLINE_CURVE ((5., 1., 1., 1., 1., 5.))
   REPRESENTATION_ITEM ('')
);
#17 = EDGE_CURVE ('', #2, #2, #16, .T.);
#18 = ORIENTED_EDGE ('', *, *, #17, .T.);
#19 = ORIENTED_EDGE ('', *, *, #8, .T.);
#20 = EDGE_LOOP ('', (#9, #18, #19));
#21 = FACE_OUTER_BOUND ('', #20, .T.);
#22 = CARTESIAN_POINT ('', (75., -4.0000000002534, 9.79717439379947E-16));
#23 = CARTESIAN_POINT ('', (75., 3.06161699786838E-16, -3.06161699786838E-16));
#24 = CARTESIAN_POINT ('', (75., -4.0000000002534, -16.0000000010136));
#25 = CARTESIAN_POINT ('', (75., 3.06161699786838E-16, -3.06161699786838E-16));
#26 = CARTESIAN_POINT ('', (75., 12.0000000007602, -8.0000000005068));
#27 = CARTESIAN_POINT ('', (75., 3.06161699786838E-16, -3.06161699786838E-16));
#28 = CARTESIAN_POINT ('', (75., 12.0000000007602, 8.00000000050679));
#29 = CARTESIAN_POINT ('', (75., 3.06161699786838E-16, -3.06161699786838E-16));
#30 = CARTESIAN_POINT ('', (75., -4.00000000025339, 16.0000000010136));
#31 = CARTESIAN_POINT ('', (75., 3.06161699786838E-16, -3.06161699786838E-16));
#32 = CARTESIAN_POINT ('', (75., -4.0000000002534, 9.79717439379947E-16));
#33 = CARTESIAN_POINT ('', (75., 3.06161699786838E-16, -3.06161699786838E-16));
#34 = (
   BOUNDED_SURFACE ()
   B_SPLINE_SURFACE (5, 1, ((#22, #23), (#24, #25), (#26, #27), (#28, #29), (#30, #31), (#32, #33)), .UNSPECIFIED., .T., .F., .U.)
   B_SPLINE_SURFACE_WITH_KNOTS ((6, 6), (2, 2), (0., 1.), (0., 1.), .UNSPECIFIED.)
   SURFACE ()
   GEOMETRIC_REPRESENTATION_ITEM ()
   RATIONAL_B_SPLINE_SURFACE (((5., 5.), (1., 1.), (1., 1.), (1., 1.), (1., 1.), (5., 5.)))
   REPRESENTATION_ITEM ('')
);
#35 = ADVANCED_FACE ('', (#21), #34, .T.);
#36 = CARTESIAN_POINT ('', (0., 4.89858719658941E-15, -4.89858719658941E-15));
#37 = VERTEX_POINT ('', #36);
#38 = CARTESIAN_POINT ('', (1.00621767957045, -1.41639649110809, 3.46917085831815E-16));
#39 = VERTEX_POINT ('', #38);
#40 = CARTESIAN_POINT ('', (0., 4.89858719658941E-15, -4.89858719658941E-15));
#41 = CARTESIAN_POINT ('', (2.98427949019242E-13, -0.170187212018168, 4.16838448907739E-17));
#42 = CARTESIAN_POINT ('', (0.0566252095547526, -0.498858046952448, 1.22184982085844E-16));
#43 = CARTESIAN_POINT ('', (0.35590314429389, -1.04807540567071, 2.56704438163941E-16));
#44 = CARTESIAN_POINT ('', (0.733414319084048, -1.32129213494275, 3.23623236759242E-16));
#45 = CARTESIAN_POINT ('', (1.00621767957045, -1.41639649110809, 3.46917085831815E-16));
#46 = B_SPLINE_CURVE_WITH_KNOTS ('', 3, (#40, #41, #42, #43, #44, #45), .UNSPECIFIED., .F., .U., (4, 1, 1, 4), (0., 0.275528159892093, 0.532270027565656, 1.), .UNSPECIFIED.);
#47 = EDGE_CURVE ('', #37, #39, #46, .T.);
#48 = ORIENTED_EDGE ('', *, *, #47, .F.);
#49 = ORIENTED_EDGE ('', *, *, #47, .T.);
#50 = CARTESIAN_POINT ('', (1.00621767957045, -1.41639649110809, 3.46917085831815E-16));
#51 = CARTESIAN_POINT ('', (1.00621767957045, -1.41639649110811, -5.66558596443239));
#52 = CARTESIAN_POINT ('', (1.00621767957045, 4.24918947332429, -2.83279298221622));
#53 = CARTESIAN_POINT ('', (1.00621767957045, 4.24918947332431, 2.83279298221617));
#54 = CARTESIAN_POINT ('', (1.00621767957045, -1.41639649110807, 5.66558596443239));
#55 = CARTESIAN_POINT ('', (1.00621767957045, -1.41639649110809, 3.46917085831815E-16));
#56 = (
   BOUNDED_CURVE ()
   B_SPLINE_CURVE (5, (#50, #51, #52, #53, #54, #55), .UNSPECIFIED., .T., .U.)
   B_SPLINE_CURVE_WITH_KNOTS ((6, 6), (0., 1.), .UNSPECIFIED.)
   CURVE ()
   GEOMETRIC_REPRESENTATION_ITEM ()
   RATIONAL_B_SPLINE_CURVE ((5., 1., 1., 1., 1., 5.))
   REPRESENTATION_ITEM ('')
);
#57 = EDGE_CURVE ('', #39, #39, #56, .T.);
#58 = ORIENTED_EDGE ('', *, *, #57, .F.);
#59 = EDGE_LOOP ('', (#48, #49, #58));
#60 = FACE_OUTER_BOUND ('', #59, .T.);
#61 = CARTESIAN_POINT ('', (0., 4.89858719658941E-15, -4.89858719658941E-15));
#62 = CARTESIAN_POINT ('', (2.98427949019242E-13, -0.170187212018168, 4.16838448907739E-17));
#63 = CARTESIAN_POINT ('', (0.0566252095547526, -0.498858046952448, 1.22184982085844E-16));
#64 = CARTESIAN_POINT ('', (0.35590314429389, -1.04807540567071, 2.56704438163941E-16));
#65 = CARTESIAN_POINT ('', (0.733414319084048, -1.32129213494275, 3.23623236759242E-16));
#66 = CARTESIAN_POINT ('', (1.00621767957045, -1.41639649110809, 3.46917085831815E-16));
#67 = CARTESIAN_POINT ('', (0., 4.89858719658941E-15, -4.89858719658941E-15));
#68 = CARTESIAN_POINT ('', (2.98427949019242E-13, -0.170187212018188, -0.680748848072693));
#69 = CARTESIAN_POINT ('', (0.0566252095547526, -0.498858046952468, -1.99543218780981));
#70 = CARTESIAN_POINT ('', (0.35590314429389, -1.04807540567073, -4.19230162268284));
#71 = CARTESIAN_POINT ('', (0.733414319084048, -1.32129213494277, -5.28516853977101));
#72 = CARTESIAN_POINT ('', (1.00621767957045, -1.41639649110811, -5.66558596443239));
#73 = CARTESIAN_POINT ('', (0., 4.89858719658941E-15, -4.89858719658941E-15));
#74 = CARTESIAN_POINT ('', (2.98427949019242E-13, 0.510561636054515, -0.340374424036366));
#75 = CARTESIAN_POINT ('', (0.0566252095547526, 1.49657414085735, -0.997716093904926));
#76 = CARTESIAN_POINT ('', (0.35590314429389, 3.14422621701213, -2.09615081134144));
#77 = CARTESIAN_POINT ('', (0.733414319084048, 3.96387640482825, -2.64258426988553));
#78 = CARTESIAN_POINT ('', (1.00621767957045, 4.24918947332429, -2.83279298221622));
#79 = CARTESIAN_POINT ('', (0., 4.89858719658941E-15, -4.89858719658941E-15));
#80 = CARTESIAN_POINT ('', (2.98427949019242E-13, 0.510561636054534, 0.340374424036327));
#81 = CARTESIAN_POINT ('', (0.0566252095547526, 1.49657414085737, 0.997716093904886));
#82 = CARTESIAN_POINT ('', (0.35590314429389, 3.14422621701215, 2.0961508113414));
#83 = CARTESIAN_POINT ('', (0.733414319084048, 3.96387640482827, 2.64258426988549));
#84 = CARTESIAN_POINT ('', (1.00621767957045, 4.24918947332431, 2.83279298221617));
#85 = CARTESIAN_POINT ('', (0., 4.89858719658941E-15, -4.89858719658941E-15));
#86 = CARTESIAN_POINT ('', (2.98427949019242E-13, -0.170187212018149, 0.680748848072693));
#87 = CARTESIAN_POINT ('', (0.0566252095547526, -0.498858046952428, 1.99543218780981));
#88 = CARTESIAN_POINT ('', (0.35590314429389, -1.04807540567068, 4.19230162268284));
#89 = CARTESIAN_POINT ('', (0.733414319084048, -1.32129213494273, 5.28516853977101));
#90 = CARTESIAN_POINT ('', (1.00621767957045, -1.41639649110807, 5.66558596443239));
#91 = CARTESIAN_POINT ('', (0., 4.89858719658941E-15, -4.89858719658941E-15));
#92 = CARTESIAN_POINT ('', (2.98427949019242E-13, -0.170187212018168, 4.16838448907739E-17));
#93 = CARTESIAN_POINT ('', (0.0566252095547526, -0.498858046952448, 1.22184982085844E-16));
#94 = CARTESIAN_POINT ('', (0.35590314429389, -1.04807540567071, 2.56704438163941E-16));
#95 = CARTESIAN_POINT ('', (0.733414319084048, -1.32129213494275, 3.23623236759242E-16));
#96 = CARTESIAN_POINT ('', (1.00621767957045, -1.41639649110809, 3.46917085831815E-16));
#97 = (
   BOUNDED_SURFACE ()
   B_SPLINE_SURFACE (5, 3, ((#61, #62, #63, #64, #65, #66), (#67, #68, #69, #70, #71, #72), (#73, #74, #75, #76, #77, #78), (#79, #80, #81, #82, #83, #84), (#85, #86, #87, #88, #89, #90), (#91, #92, #93, #94, #95, #96)), .UNSPECIFIED., .T., .F., .U.)
   B_SPLINE_SURFACE_WITH_KNOTS ((6, 6), (4, 1, 1, 4), (0., 1.), (0., 0.275528159892093, 0.532270027565656, 1.), .UNSPECIFIED.)
   SURFACE ()
   GEOMETRIC_REPRESENTATION_ITEM ()
   RATIONAL_B_SPLINE_SURFACE (((5., 5., 5., 5., 5., 5.), (1., 1., 1., 1., 1., 1.), (1., 1., 1., 1., 1., 1.), (1., 1., 1., 1., 1., 1.), (1., 1., 1., 1., 1., 1.), (5., 5., 5., 5., 5., 5.)))
   REPRESENTATION_ITEM ('')
);
#98 = ADVANCED_FACE ('', (#60), #97, .T.);
#99 = CARTESIAN_POINT ('', (7.39060790234247, -3.73988154869656, 9.16006793560299E-16));
#100 = VERTEX_POINT ('', #99);
#101 = CARTESIAN_POINT ('', (1.00621767956838, -1.41639649110758, 3.46917085831689E-16));
#102 = CARTESIAN_POINT ('', (3.14474099653854, -2.1619257354776, 5.29519086389386E-16));
#103 = CARTESIAN_POINT ('', (5.27313304321643, -2.93651609486799, 7.19239007244955E-16));
#104 = CARTESIAN_POINT ('', (7.39060790234247, -3.73988154869656, 9.16006793560299E-16));
#105 = B_SPLINE_CURVE_WITH_KNOTS ('', 3, (#101, #102, #103, #104), .UNSPECIFIED., .F., .U., (4, 4), (0., 1.), .UNSPECIFIED.);
#106 = EDGE_CURVE ('', #39, #100, #105, .T.);
#107 = ORIENTED_EDGE ('', *, *, #106, .F.);
#108 = ORIENTED_EDGE ('', *, *, #57, .T.);
#109 = ORIENTED_EDGE ('', *, *, #106, .T.);
#110 = CARTESIAN_POINT ('', (7.39060790234247, -3.73988154869656, 9.16006793560299E-16));
#111 = CARTESIAN_POINT ('', (7.39060790234247, -3.73988154869658, -14.9595261947863));
#112 = CARTESIAN_POINT ('', (7.39060790234247, 11.2196446460897, -7.47976309739315));
#113 = CARTESIAN_POINT ('', (7.39060790234247, 11.2196446460897, 7.47976309739311));
#114 = CARTESIAN_POINT ('', (7.39060790234247, -3.73988154869654, 14.9595261947863));
#115 = CARTESIAN_POINT ('', (7.39060790234247, -3.73988154869656, 9.16006793560299E-16));
#116 = (
   BOUNDED_CURVE ()
   B_SPLINE_CURVE (5, (#110, #111, #112, #113, #114, #115), .UNSPECIFIED., .T., .U.)
   B_SPLINE_CURVE_WITH_KNOTS ((6, 6), (0., 1.), .UNSPECIFIED.)
   CURVE ()
   GEOMETRIC_REPRESENTATION_ITEM ()
   RATIONAL_B_SPLINE_CURVE ((5., 1., 1., 1., 1., 5.))
   REPRESENTATION_ITEM ('')
);
#117 = EDGE_CURVE ('', #100, #100, #116, .T.);
#118 = ORIENTED_EDGE ('', *, *, #117, .F.);
#119 = EDGE_LOOP ('', (#107, #108, #109, #118));
#120 = FACE_OUTER_BOUND ('', #119, .T.);
#121 = CARTESIAN_POINT ('', (1.00621767956838, -1.41639649110758, 3.46917085831689E-16));
#122 = CARTESIAN_POINT ('', (3.14474099653854, -2.1619257354776, 5.29519086389386E-16));
#123 = CARTESIAN_POINT ('', (5.27313304321643, -2.93651609486799, 7.19239007244955E-16));
#124 = CARTESIAN_POINT ('', (7.39060790234247, -3.73988154869656, 9.16006793560299E-16));
#125 = CARTESIAN_POINT ('', (1.00621767956838, -1.4163964911076, -5.66558596443033));
#126 = CARTESIAN_POINT ('', (3.14474099653854, -2.16192573547762, -8.64770294191041));
#127 = CARTESIAN_POINT ('', (5.27313304321643, -2.93651609486801, -11.746064379472));
#128 = CARTESIAN_POINT ('', (7.39060790234247, -3.73988154869658, -14.9595261947863));
#129 = CARTESIAN_POINT ('', (1.00621767956838, 4.24918947332274, -2.83279298221518));
#130 = CARTESIAN_POINT ('', (3.14474099653854, 6.4857772064328, -4.32385147095523));
#131 = CARTESIAN_POINT ('', (5.27313304321643, 8.80954828460398, -5.87303218973601));
#132 = CARTESIAN_POINT ('', (7.39060790234247, 11.2196446460897, -7.47976309739315));
#133 = CARTESIAN_POINT ('', (1.00621767956838, 4.24918947332276, 2.83279298221514));
#134 = CARTESIAN_POINT ('', (3.14474099653854, 6.48577720643282, 4.32385147095518));
#135 = CARTESIAN_POINT ('', (5.27313304321643, 8.809548284604, 5.87303218973597));
#136 = CARTESIAN_POINT ('', (7.39060790234247, 11.2196446460897, 7.47976309739311));
#137 = CARTESIAN_POINT ('', (1.00621767956838, -1.41639649110756, 5.66558596443033));
#138 = CARTESIAN_POINT ('', (3.14474099653854, -2.16192573547758, 8.64770294191041));
#139 = CARTESIAN_POINT ('', (5.27313304321643, -2.93651609486797, 11.746064379472));
#140 = CARTESIAN_POINT ('', (7.39060790234247, -3.73988154869654, 14.9595261947863));
#141 = CARTESIAN_POINT ('', (1.00621767956838, -1.41639649110758, 3.46917085831689E-16));
#142 = CARTESIAN_POINT ('', (3.14474099653854, -2.1619257354776, 5.29519086389386E-16));
#143 = CARTESIAN_POINT ('', (5.27313304321643, -2.93651609486799, 7.19239007244955E-16));
#144 = CARTESIAN_POINT ('', (7.39060790234247, -3.73988154869656, 9.16006793560299E-16));
#145 = (
   BOUNDED_SURFACE ()
   B_SPLINE_SURFACE (5, 3, ((#121, #122, #123, #124), (#125, #126, #127, #128), (#129, #130, #131, #132), (#133, #134, #135, #136), (#137, #138, #139, #140), (#141, #142, #143, #144)), .UNSPECIFIED., .T., .F., .U.)
   B_SPLINE_SURFACE_WITH_KNOTS ((6, 6), (4, 4), (0., 1.), (0., 1.), .UNSPECIFIED.)
   SURFACE ()
   GEOMETRIC_REPRESENTATION_ITEM ()
   RATIONAL_B_SPLINE_SURFACE (((5., 5., 5., 5.), (1., 1., 1., 1.), (1., 1., 1., 1.), (1., 1., 1., 1.), (1., 1., 1., 1.), (5., 5., 5., 5.)))
   REPRESENTATION_ITEM ('')
);
#146 = ADVANCED_FACE ('', (#120), #145, .T.);
#147 = CARTESIAN_POINT ('', (8.80951100040045, -3.99999999999411, 9.7971743931644E-16));
#148 = VERTEX_POINT ('', #147);
#149 = CARTESIAN_POINT ('', (7.39060790234073, -3.73988154869585, 9.16006793560127E-16));
#150 = CARTESIAN_POINT ('', (7.84266078932731, -3.91138945167911, 9.58014114443511E-16));
#151 = CARTESIAN_POINT ('', (8.32601666390971, -3.99999999999224, 9.79717439315984E-16));
#152 = CARTESIAN_POINT ('', (8.80951100040045, -3.99999999999411, 9.7971743931644E-16));
#153 = B_SPLINE_CURVE_WITH_KNOTS ('', 3, (#149, #150, #151, #152), .UNSPECIFIED., .F., .U., (4, 4), (0., 1.), .UNSPECIFIED.);
#154 = EDGE_CURVE ('', #100, #148, #153, .T.);
#155 = ORIENTED_EDGE ('', *, *, #154, .F.);
#156 = ORIENTED_EDGE ('', *, *, #117, .T.);
#157 = ORIENTED_EDGE ('', *, *, #154, .T.);
#158 = CARTESIAN_POINT ('', (8.80951100040039, -3.99999999999403, 9.79717439316423E-16));
#159 = CARTESIAN_POINT ('', (8.80951100040039, -3.99999999999405, -15.9999999999761));
#160 = CARTESIAN_POINT ('', (8.80951100040039, 11.9999999999821, -7.99999999998809));
#161 = CARTESIAN_POINT ('', (8.80951100040039, 11.9999999999821, 7.99999999998805));
#162 = CARTESIAN_POINT ('', (8.80951100040039, -3.99999999999401, 15.9999999999761));
#163 = CARTESIAN_POINT ('', (8.80951100040039, -3.99999999999403, 9.79717439316423E-16));
#164 = (
   BOUNDED_CURVE ()
   B_SPLINE_CURVE (5, (#158, #159, #160, #161, #162, #163), .UNSPECIFIED., .T., .U.)
   B_SPLINE_CURVE_WITH_KNOTS ((6, 6), (0., 1.), .UNSPECIFIED.)
   CURVE ()
   GEOMETRIC_REPRESENTATION_ITEM ()
   RATIONAL_B_SPLINE_CURVE ((5., 1., 1., 1., 1., 5.))
   REPRESENTATION_ITEM ('')
);
#165 = EDGE_CURVE ('', #148, #148, #164, .T.);
#166 = ORIENTED_EDGE ('', *, *, #165, .F.);
#167 = EDGE_LOOP ('', (#155, #156, #157, #166));
#168 = FACE_OUTER_BOUND ('', #167, .T.);
#169 = CARTESIAN_POINT ('', (7.39060790234073, -3.73988154869585, 9.16006793560127E-16));
#170 = CARTESIAN_POINT ('', (7.84266078932731, -3.91138945167911, 9.58014114443511E-16));
#171 = CARTESIAN_POINT ('', (8.32601666390971, -3.99999999999224, 9.79717439315984E-16));
#172 = CARTESIAN_POINT ('', (8.80951100040045, -3.99999999999411, 9.7971743931644E-16));
#173 = CARTESIAN_POINT ('', (7.39060790234073, -3.73988154869588, -14.9595261947834));
#174 = CARTESIAN_POINT ('', (7.84266078932731, -3.91138945167914, -15.6455578067165));
#175 = CARTESIAN_POINT ('', (8.32601666390971, -3.99999999999226, -15.999999999969));
#176 = CARTESIAN_POINT ('', (8.80951100040045, -3.99999999999413, -15.9999999999764));
#177 = CARTESIAN_POINT ('', (7.39060790234073, 11.2196446460876, -7.47976309739174));
#178 = CARTESIAN_POINT ('', (7.84266078932731, 11.7341683550374, -7.82277890335826));
#179 = CARTESIAN_POINT ('', (8.32601666390971, 11.9999999999767, -7.99999999998451));
#180 = CARTESIAN_POINT ('', (8.80951100040045, 11.9999999999823, -7.99999999998824));
#181 = CARTESIAN_POINT ('', (7.39060790234073, 11.2196446460876, 7.4797630973917));
#182 = CARTESIAN_POINT ('', (7.84266078932731, 11.7341683550374, 7.82277890335822));
#183 = CARTESIAN_POINT ('', (8.32601666390971, 11.9999999999768, 7.99999999998447));
#184 = CARTESIAN_POINT ('', (8.80951100040045, 11.9999999999823, 7.9999999999882));
#185 = CARTESIAN_POINT ('', (7.39060790234073, -3.73988154869583, 14.9595261947834));
#186 = CARTESIAN_POINT ('', (7.84266078932731, -3.91138945167909, 15.6455578067165));
#187 = CARTESIAN_POINT ('', (8.32601666390971, -3.99999999999222, 15.999999999969));
#188 = CARTESIAN_POINT ('', (8.80951100040045, -3.99999999999408, 15.9999999999764));
#189 = CARTESIAN_POINT ('', (7.39060790234073, -3.73988154869585, 9.16006793560127E-16));
#190 = CARTESIAN_POINT ('', (7.84266078932731, -3.91138945167911, 9.58014114443511E-16));
#191 = CARTESIAN_POINT ('', (8.32601666390971, -3.99999999999224, 9.79717439315984E-16));
#192 = CARTESIAN_POINT ('', (8.80951100040045, -3.99999999999411, 9.7971743931644E-16));
#193 = (
   BOUNDED_SURFACE ()
   B_SPLINE_SURFACE (5, 3, ((#169, #170, #171, #172), (#173, #174, #175, #176), (#177, #178, #179, #180), (#181, #182, #183, #184), (#185, #186, #187, #188), (#189, #190, #191, #192)), .UNSPECIFIED., .T., .F., .U.)
   B_SPLINE_SURFACE_WITH_KNOTS ((6, 6), (4, 4), (0., 1.), (0., 1.), .UNSPECIFIED.)
   SURFACE ()
   GEOMETRIC_REPRESENTATION_ITEM ()
   RATIONAL_B_SPLINE_SURFACE (((5., 5., 5., 5.), (1., 1., 1., 1.), (1., 1., 1., 1.), (1., 1., 1., 1.), (1., 1., 1., 1.), (5., 5., 5., 5.)))
   REPRESENTATION_ITEM ('')
);
#194 = ADVANCED_FACE ('', (#168), #193, .T.);
#195 = CARTESIAN_POINT ('', (8.80951100040039, -3.99999999999403, 9.79717439316423E-16));
#196 = CARTESIAN_POINT ('', (30.8730073336003, -4.00000000008049, 9.79717439337598E-16));
#197 = CARTESIAN_POINT ('', (52.9365036668002, -4.00000000016693, 9.79717439358769E-16));
#198 = CARTESIAN_POINT ('', (75., -4.0000000002534, 9.79717439379947E-16));
#199 = B_SPLINE_CURVE_WITH_KNOTS ('', 3, (#195, #196, #197, #198), .UNSPECIFIED., .F., .U., (4, 4), (0., 1.), .UNSPECIFIED.);
#200 = EDGE_CURVE ('', #148, #2, #199, .T.);
#201 = ORIENTED_EDGE ('', *, *, #200, .F.);
#202 = ORIENTED_EDGE ('', *, *, #165, .T.);
#203 = ORIENTED_EDGE ('', *, *, #200, .T.);
#204 = ORIENTED_EDGE ('', *, *, #17, .F.);
#205 = EDGE_LOOP ('', (#201, #202, #203, #204));
#206 = FACE_OUTER_BOUND ('', #205, .T.);
#207 = CARTESIAN_POINT ('', (8.80951100040039, -3.99999999999403, 9.79717439316423E-16));
#208 = CARTESIAN_POINT ('', (30.8730073336003, -4.00000000008049, 9.79717439337598E-16));
#209 = CARTESIAN_POINT ('', (52.9365036668002, -4.00000000016693, 9.79717439358769E-16));
#210 = CARTESIAN_POINT ('', (75., -4.0000000002534, 9.79717439379947E-16));
#211 = CARTESIAN_POINT ('', (8.80951100040039, -3.99999999999405, -15.9999999999761));
#212 = CARTESIAN_POINT ('', (30.8730073336003, -4.00000000008051, -16.000000000322));
#213 = CARTESIAN_POINT ('', (52.9365036668002, -4.00000000016694, -16.0000000006677));
#214 = CARTESIAN_POINT ('', (75., -4.0000000002534, -16.0000000010136));
#215 = CARTESIAN_POINT ('', (8.80951100040039, 11.9999999999821, -7.99999999998809));
#216 = CARTESIAN_POINT ('', (30.8730073336003, 12.0000000002415, -8.000000000161));
#217 = CARTESIAN_POINT ('', (52.9365036668002, 12.0000000005008, -8.00000000033387));
#218 = CARTESIAN_POINT ('', (75., 12.0000000007602, -8.0000000005068));
#219 = CARTESIAN_POINT ('', (8.80951100040039, 11.9999999999821, 7.99999999998805));
#220 = CARTESIAN_POINT ('', (30.8730073336003, 12.0000000002415, 8.00000000016097));
#221 = CARTESIAN_POINT ('', (52.9365036668002, 12.0000000005008, 8.00000000033385));
#222 = CARTESIAN_POINT ('', (75., 12.0000000007602, 8.00000000050679));
#223 = CARTESIAN_POINT ('', (8.80951100040039, -3.99999999999401, 15.9999999999761));
#224 = CARTESIAN_POINT ('', (30.8730073336003, -4.00000000008048, 16.000000000322));
#225 = CARTESIAN_POINT ('', (52.9365036668002, -4.00000000016692, 16.0000000006677));
#226 = CARTESIAN_POINT ('', (75., -4.00000000025339, 16.0000000010136));
#227 = CARTESIAN_POINT ('', (8.80951100040039, -3.99999999999403, 9.79717439316423E-16));
#228 = CARTESIAN_POINT ('', (30.8730073336003, -4.00000000008049, 9.79717439337598E-16));
#229 = CARTESIAN_POINT ('', (52.9365036668002, -4.00000000016693, 9.79717439358769E-16));
#230 = CARTESIAN_POINT ('', (75., -4.0000000002534, 9.79717439379947E-16));
#231 = (
   BOUNDED_SURFACE ()
   B_SPLINE_SURFACE (5, 3, ((#207, #208, #209, #210), (#211, #212, #213, #214), (#215, #216, #217, #218), (#219, #220, #221, #222), (#223, #224, #225, #226), (#227, #228, #229, #230)), .UNSPECIFIED., .T., .F., .U.)
   B_SPLINE_SURFACE_WITH_KNOTS ((6, 6), (4, 4), (0., 1.), (0., 1.), .UNSPECIFIED.)
   SURFACE ()
   GEOMETRIC_REPRESENTATION_ITEM ()
   RATIONAL_B_SPLINE_SURFACE (((5., 5., 5., 5.), (1., 1., 1., 1.), (1., 1., 1., 1.), (1., 1., 1., 1.), (1., 1., 1., 1.), (5., 5., 5., 5.)))
   REPRESENTATION_ITEM ('')
);
#232 = ADVANCED_FACE ('', (#206), #231, .T.);
#233 = CLOSED_SHELL ('', (#35, #98, #146, #194, #232));
#234 = MANIFOLD_SOLID_BREP ('', #233);
#235 = (
   LENGTH_UNIT ()
   NAMED_UNIT (*)
   SI_UNIT (.MILLI., .METRE.)
);
#236 = (
   NAMED_UNIT (*)
   SI_UNIT ($, .STERADIAN.)
   SOLID_ANGLE_UNIT ()
);
#237 = (
   NAMED_UNIT (*)
   SI_UNIT ($, .RADIAN.)
   PLANE_ANGLE_UNIT ()
);
#238 = UNCERTAINTY_MEASURE_WITH_UNIT (LENGTH_MEASURE(0.001), #235, 'DISTANCE_ACCURACY_VALUE', '');
#239 = (
   GEOMETRIC_REPRESENTATION_CONTEXT (3)
   GLOBAL_UNCERTAINTY_ASSIGNED_CONTEXT ((#238))
   GLOBAL_UNIT_ASSIGNED_CONTEXT ((#235, #236, #237))
   REPRESENTATION_CONTEXT ('', '3D')
);
#240 = SHAPE_REPRESENTATION ('', (), #239);
#241 = APPLICATION_CONTEXT ('configuration controlled 3D designs of mechanical parts and assemblies');
#242 = APPLICATION_PROTOCOL_DEFINITION ('International Standard', 'config_control_design', 1997, #241);
#243 = MECHANICAL_CONTEXT ('', #241, 'mechanical');
#244 = PRODUCT ('', '', '', (#243));
#245 = PERSON_AND_ORGANIZATION_ROLE ('design_owner');
#246 = PERSON ('', '', $, $, $, $);
#247 = ORGANIZATION ($, '', '');
#248 = PERSON_AND_ORGANIZATION (#246, #247);
#249 = CC_DESIGN_PERSON_AND_ORGANIZATION_ASSIGNMENT (#248, #245, (#244));
#250 = PRODUCT_RELATED_PRODUCT_CATEGORY ('detail', $, (#244));
#251 = PRODUCT_DEFINITION_FORMATION_WITH_SPECIFIED_SOURCE ('', '', #244, .NOT_KNOWN.);
#252 = APPROVAL_STATUS ('approved');
#253 = APPROVAL (#252, '');
#254 = CALENDAR_DATE (2022, 25, 7);
#255 = COORDINATED_UNIVERSAL_TIME_OFFSET (0, $, .AHEAD.);
#256 = LOCAL_TIME (16, 55, 20., #255);
#257 = DATE_AND_TIME (#254, #256);
#258 = APPROVAL_DATE_TIME (#257, #253);
#259 = APPROVAL_ROLE ('');
#260 = PERSON ('', '', $, $, $, $);
#261 = ORGANIZATION ($, '', '');
#262 = PERSON_AND_ORGANIZATION (#260, #261);
#263 = APPROVAL_PERSON_ORGANIZATION (#262, #253, #259);
#264 = CC_DESIGN_APPROVAL (#253, (#251));
#265 = PERSON_AND_ORGANIZATION_ROLE ('creator');
#266 = PERSON ('', '', $, $, $, $);
#267 = ORGANIZATION ($, '', '');
#268 = PERSON_AND_ORGANIZATION (#266, #267);
#269 = CC_DESIGN_PERSON_AND_ORGANIZATION_ASSIGNMENT (#268, #265, (#251));
#270 = PERSON_AND_ORGANIZATION_ROLE ('part_supplier');
#271 = PERSON ('', '', $, $, $, $);
#272 = ORGANIZATION ($, '', '');
#273 = PERSON_AND_ORGANIZATION (#271, #272);
#274 = CC_DESIGN_PERSON_AND_ORGANIZATION_ASSIGNMENT (#273, #270, (#251));
#275 = SECURITY_CLASSIFICATION_LEVEL ('unclassified');
#276 = SECURITY_CLASSIFICATION ('', '', #275);
#277 = APPROVAL_STATUS ('approved');
#278 = APPROVAL (#277, '');
#279 = CALENDAR_DATE (2022, 25, 7);
#280 = COORDINATED_UNIVERSAL_TIME_OFFSET (0, $, .AHEAD.);
#281 = LOCAL_TIME (16, 55, 20., #280);
#282 = DATE_AND_TIME (#279, #281);
#283 = APPROVAL_DATE_TIME (#282, #278);
#284 = APPROVAL_ROLE ('');
#285 = PERSON ('', '', $, $, $, $);
#286 = ORGANIZATION ($, '', '');
#287 = PERSON_AND_ORGANIZATION (#285, #286);
#288 = APPROVAL_PERSON_ORGANIZATION (#287, #278, #284);
#289 = CC_DESIGN_APPROVAL (#278, (#276));
#290 = DATE_TIME_ROLE ('classification_date');
#291 = CALENDAR_DATE (2022, 25, 7);
#292 = COORDINATED_UNIVERSAL_TIME_OFFSET (0, $, .AHEAD.);
#293 = LOCAL_TIME (16, 55, 20., #292);
#294 = DATE_AND_TIME (#291, #293);
#295 = CC_DESIGN_DATE_AND_TIME_ASSIGNMENT (#294, #290, (#276));
#296 = PERSON_AND_ORGANIZATION_ROLE ('classification_officer');
#297 = PERSON ('', '', $, $, $, $);
#298 = ORGANIZATION ($, '', '');
#299 = PERSON_AND_ORGANIZATION (#297, #298);
#300 = CC_DESIGN_PERSON_AND_ORGANIZATION_ASSIGNMENT (#299, #296, (#276));
#301 = CC_DESIGN_SECURITY_CLASSIFICATION (#276, (#251));
#302 = DESIGN_CONTEXT ('', #241, 'design');
#303 = PRODUCT_DEFINITION ('', '', #251, #302);
#304 = APPROVAL_STATUS ('approved');
#305 = APPROVAL (#304, '');
#306 = CALENDAR_DATE (2022, 25, 7);
#307 = COORDINATED_UNIVERSAL_TIME_OFFSET (0, $, .AHEAD.);
#308 = LOCAL_TIME (16, 55, 20., #307);
#309 = DATE_AND_TIME (#306, #308);
#310 = APPROVAL_DATE_TIME (#309, #305);
#311 = APPROVAL_ROLE ('');
#312 = PERSON ('', '', $, $, $, $);
#313 = ORGANIZATION ($, '', '');
#314 = PERSON_AND_ORGANIZATION (#312, #313);
#315 = APPROVAL_PERSON_ORGANIZATION (#314, #305, #311);
#316 = CC_DESIGN_APPROVAL (#305, (#303));
#317 = DATE_TIME_ROLE ('creation_date');
#318 = CALENDAR_DATE (2022, 25, 7);
#319 = COORDINATED_UNIVERSAL_TIME_OFFSET (0, $, .AHEAD.);
#320 = LOCAL_TIME (16, 55, 20., #319);
#321 = DATE_AND_TIME (#318, #320);
#322 = CC_DESIGN_DATE_AND_TIME_ASSIGNMENT (#321, #317, (#303));
#323 = PERSON_AND_ORGANIZATION_ROLE ('creator');
#324 = PERSON ('', '', $, $, $, $);
#325 = ORGANIZATION ($, '', '');
#326 = PERSON_AND_ORGANIZATION (#324, #325);
#327 = CC_DESIGN_PERSON_AND_ORGANIZATION_ASSIGNMENT (#326, #323, (#303));
#328 = PRODUCT_DEFINITION_SHAPE ('', '', #303);
#329 = SHAPE_DEFINITION_REPRESENTATION (#328, #240);
#330 = SHAPE_REPRESENTATION_RELATIONSHIP ('', '', #240, #331);
#331 = ADVANCED_BREP_SHAPE_REPRESENTATION ('', (#234), #239);
ENDSEC;
END-ISO-10303-21;
