ISO-10303-21;
HEADER;
FILE_DESCRIPTION ((), '1');
FILE_NAME ('C:\\Users\\Paul\\Documents\\FAXFA102025-AX1.STP', '2022-07-25T15:51:49', ('Unknown'), ('M.A. Ford Europe'), 'OneCNC-XR8 Mill 3D Expert', 'OneCNC-XR8 Mill 3D Expert', '');
FILE_SCHEMA (('CONFIG_CONTROL_DESIGN'));
ENDSEC;

DATA;
#1 = CARTESIAN_POINT ('', (0., 2.44929359829471E-16, 0.));
#2 = CARTESIAN_POINT ('', (-8.72472900160694E-17, -1.42485637617008, 0.));
#3 = CARTESIAN_POINT ('', (1.34669524021573, -1.89028910245053, 0.));
#4 = (
   BOUNDED_CURVE ()
   B_SPLINE_CURVE (2, (#1, #2, #3), .UNSPECIFIED., .F., .U.)
   B_SPLINE_CURVE_WITH_KNOTS ((3, 3), (0., 1.), .UNSPECIFIED.)
   CURVE ()
   GEOMETRIC_REPRESENTATION_ITEM ()
   RATIONAL_B_SPLINE_CURVE ((1., 0.814448396122227, 1.))
   REPRESENTATION_ITEM ('')
);
#5 = GEOMETRIC_CURVE_SET ('', (#4, #9, #13, #16));
#6 = CARTESIAN_POINT ('', (1.34669524021714, -1.89028910245145, 0.));
#7 = CARTESIAN_POINT ('', (5.14320299847351, -3.34292007065783, 0.));
#8 = CARTESIAN_POINT ('', (8.98493005455379, -4.67135565994084, 0.));
#9 = (
   BOUNDED_CURVE ()
   B_SPLINE_CURVE (2, (#6, #7, #8), .UNSPECIFIED., .F., .U.)
   B_SPLINE_CURVE_WITH_KNOTS ((3, 3), (0., 1.), .UNSPECIFIED.)
   CURVE ()
   GEOMETRIC_REPRESENTATION_ITEM ()
   RATIONAL_B_SPLINE_CURVE ((1., 0.999867837341964, 1.))
   REPRESENTATION_ITEM ('')
);
#10 = CARTESIAN_POINT ('', (8.98493005455392, -4.67135565994036, 0.));
#11 = CARTESIAN_POINT ('', (9.84734422115141, -5.00324174774576, 0.));
#12 = CARTESIAN_POINT ('', (10.77141320049, -5.00499999999985, 0.));
#13 = (
   BOUNDED_CURVE ()
   B_SPLINE_CURVE (2, (#10, #11, #12), .UNSPECIFIED., .F., .U.)
   B_SPLINE_CURVE_WITH_KNOTS ((3, 3), (0., 1.), .UNSPECIFIED.)
   CURVE ()
   GEOMETRIC_REPRESENTATION_ITEM ()
   RATIONAL_B_SPLINE_CURVE ((1., 0.983351155625238, 1.))
   REPRESENTATION_ITEM ('')
);
#14 = CARTESIAN_POINT ('', (10.77141320049, -5.00500000000011, 0.));
#15 = CARTESIAN_POINT ('', (75., -5.00500000000011, 0.));
#16 = B_SPLINE_CURVE_WITH_KNOTS ('', 1, (#14, #15), .UNSPECIFIED., .F., .U., (2, 2), (0., 1.), .UNSPECIFIED.);
#17 = CARTESIAN_POINT ('', (8.98493005455379, -4.67135565994084, 1.14415215132508E-15));
#18 = VERTEX_POINT ('', #17);
#19 = CARTESIAN_POINT ('', (10.77141320049, -5.00500000000011, 1.22587144594653E-15));
#20 = VERTEX_POINT ('', #19);
#21 = CARTESIAN_POINT ('', (8.98493005455392, -4.67135565994036, 1.14415215132497E-15));
#22 = CARTESIAN_POINT ('', (9.55345933384401, -4.89014492108019, 1.19774006499351E-15));
#23 = CARTESIAN_POINT ('', (10.1622392198371, -5.00384090739037, 1.22558755013564E-15));
#24 = CARTESIAN_POINT ('', (10.77141320049, -5.00499999999985, 1.22587144594646E-15));
#25 = B_SPLINE_CURVE_WITH_KNOTS ('', 3, (#21, #22, #23, #24), .UNSPECIFIED., .F., .U., (4, 4), (0., 1.), .UNSPECIFIED.);
#26 = EDGE_CURVE ('', #18, #20, #25, .T.);
#27 = ORIENTED_EDGE ('', *, *, #26, .F.);
#28 = CARTESIAN_POINT ('', (8.98493005455379, -4.67135565994084, 1.14415215132508E-15));
#29 = CARTESIAN_POINT ('', (8.98493005455379, -4.67135565994085, -18.6854226397634));
#30 = CARTESIAN_POINT ('', (8.98493005455379, 14.0140669798225, -9.34271131988169));
#31 = CARTESIAN_POINT ('', (8.98493005455379, 14.0140669798225, 9.34271131988168));
#32 = CARTESIAN_POINT ('', (8.98493005455378, -4.67135565994084, 18.6854226397634));
#33 = CARTESIAN_POINT ('', (8.98493005455379, -4.67135565994084, 1.14415215132508E-15));
#34 = (
   BOUNDED_CURVE ()
   B_SPLINE_CURVE (5, (#28, #29, #30, #31, #32, #33), .UNSPECIFIED., .T., .U.)
   B_SPLINE_CURVE_WITH_KNOTS ((6, 6), (0., 1.), .UNSPECIFIED.)
   CURVE ()
   GEOMETRIC_REPRESENTATION_ITEM ()
   RATIONAL_B_SPLINE_CURVE ((5., 1., 1., 1., 1., 5.))
   REPRESENTATION_ITEM ('')
);
#35 = EDGE_CURVE ('', #18, #18, #34, .T.);
#36 = ORIENTED_EDGE ('', *, *, #35, .T.);
#37 = ORIENTED_EDGE ('', *, *, #26, .T.);
#38 = CARTESIAN_POINT ('', (10.77141320049, -5.00499999999985, 1.22587144594646E-15));
#39 = CARTESIAN_POINT ('', (10.77141320049, -5.00499999999986, -20.0199999999994));
#40 = CARTESIAN_POINT ('', (10.77141320049, 15.0149999999996, -10.0099999999997));
#41 = CARTESIAN_POINT ('', (10.77141320049, 15.0149999999996, 10.0099999999997));
#42 = CARTESIAN_POINT ('', (10.77141320049, -5.00499999999985, 20.0199999999994));
#43 = CARTESIAN_POINT ('', (10.77141320049, -5.00499999999985, 1.22587144594646E-15));
#44 = (
   BOUNDED_CURVE ()
   B_SPLINE_CURVE (5, (#38, #39, #40, #41, #42, #43), .UNSPECIFIED., .T., .U.)
   B_SPLINE_CURVE_WITH_KNOTS ((6, 6), (0., 1.), .UNSPECIFIED.)
   CURVE ()
   GEOMETRIC_REPRESENTATION_ITEM ()
   RATIONAL_B_SPLINE_CURVE ((5., 1., 1., 1., 1., 5.))
   REPRESENTATION_ITEM ('')
);
#45 = EDGE_CURVE ('', #20, #20, #44, .T.);
#46 = ORIENTED_EDGE ('', *, *, #45, .F.);
#47 = EDGE_LOOP ('', (#27, #36, #37, #46));
#48 = FACE_OUTER_BOUND ('', #47, .T.);
#49 = CARTESIAN_POINT ('', (8.98493005455392, -4.67135565994036, 1.14415215132497E-15));
#50 = CARTESIAN_POINT ('', (9.55345933384401, -4.89014492108019, 1.19774006499351E-15));
#51 = CARTESIAN_POINT ('', (10.1622392198371, -5.00384090739037, 1.22558755013564E-15));
#52 = CARTESIAN_POINT ('', (10.77141320049, -5.00499999999985, 1.22587144594646E-15));
#53 = CARTESIAN_POINT ('', (8.98493005455392, -4.67135565994036, -18.6854226397614));
#54 = CARTESIAN_POINT ('', (9.55345933384402, -4.89014492108019, -19.5605796843208));
#55 = CARTESIAN_POINT ('', (10.1622392198371, -5.00384090739037, -20.0153636295615));
#56 = CARTESIAN_POINT ('', (10.77141320049, -5.00499999999986, -20.0199999999994));
#57 = CARTESIAN_POINT ('', (8.98493005455392, 14.0140669798211, -9.34271131988071));
#58 = CARTESIAN_POINT ('', (9.55345933384402, 14.6704347632406, -9.78028984216038));
#59 = CARTESIAN_POINT ('', (10.1622392198371, 15.0115227221711, -10.0076818147807));
#60 = CARTESIAN_POINT ('', (10.77141320049, 15.0149999999996, -10.0099999999997));
#61 = CARTESIAN_POINT ('', (8.98493005455392, 14.0140669798211, 9.34271131988071));
#62 = CARTESIAN_POINT ('', (9.55345933384401, 14.6704347632406, 9.78028984216038));
#63 = CARTESIAN_POINT ('', (10.1622392198371, 15.0115227221711, 10.0076818147807));
#64 = CARTESIAN_POINT ('', (10.77141320049, 15.0149999999996, 10.0099999999997));
#65 = CARTESIAN_POINT ('', (8.98493005455392, -4.67135565994035, 18.6854226397614));
#66 = CARTESIAN_POINT ('', (9.55345933384401, -4.89014492108019, 19.5605796843208));
#67 = CARTESIAN_POINT ('', (10.1622392198371, -5.00384090739037, 20.0153636295615));
#68 = CARTESIAN_POINT ('', (10.77141320049, -5.00499999999985, 20.0199999999994));
#69 = CARTESIAN_POINT ('', (8.98493005455392, -4.67135565994036, 1.14415215132497E-15));
#70 = CARTESIAN_POINT ('', (9.55345933384401, -4.89014492108019, 1.19774006499351E-15));
#71 = CARTESIAN_POINT ('', (10.1622392198371, -5.00384090739037, 1.22558755013564E-15));
#72 = CARTESIAN_POINT ('', (10.77141320049, -5.00499999999985, 1.22587144594646E-15));
#73 = (
   BOUNDED_SURFACE ()
   B_SPLINE_SURFACE (5, 3, ((#49, #50, #51, #52), (#53, #54, #55, #56), (#57, #58, #59, #60), (#61, #62, #63, #64), (#65, #66, #67, #68), (#69, #70, #71, #72)), .UNSPECIFIED., .T., .F., .U.)
   B_SPLINE_SURFACE_WITH_KNOTS ((6, 6), (4, 4), (0., 1.), (0., 1.), .UNSPECIFIED.)
   SURFACE ()
   GEOMETRIC_REPRESENTATION_ITEM ()
   RATIONAL_B_SPLINE_SURFACE (((5., 5., 5., 5.), (1., 1., 1., 1.), (1., 1., 1., 1.), (1., 1., 1., 1.), (1., 1., 1., 1.), (5., 5., 5., 5.)))
   REPRESENTATION_ITEM ('')
);
#74 = ADVANCED_FACE ('', (#48), #73, .T.);
#75 = CARTESIAN_POINT ('', (1.34669524021573, -1.89028910245053, 4.62987299755832E-16));
#76 = VERTEX_POINT ('', #75);
#77 = CARTESIAN_POINT ('', (1.34669524021714, -1.89028910245145, 4.62987299756058E-16));
#78 = CARTESIAN_POINT ('', (3.87747740063177, -2.85862441850805, 7.0016104881807E-16));
#79 = CARTESIAN_POINT ('', (6.4240043518297, -3.78580996776992, 9.27256011841914E-16));
#80 = CARTESIAN_POINT ('', (8.98493005455379, -4.67135565994084, 1.14415215132508E-15));
#81 = B_SPLINE_CURVE_WITH_KNOTS ('', 3, (#77, #78, #79, #80), .UNSPECIFIED., .F., .U., (4, 4), (0., 1.), .UNSPECIFIED.);
#82 = EDGE_CURVE ('', #76, #18, #81, .T.);
#83 = ORIENTED_EDGE ('', *, *, #82, .F.);
#84 = CARTESIAN_POINT ('', (1.34669524021573, -1.89028910245053, 4.62987299755832E-16));
#85 = CARTESIAN_POINT ('', (1.34669524021573, -1.89028910245053, -7.5611564098021));
#86 = CARTESIAN_POINT ('', (1.34669524021573, 5.67086730735158, -3.78057820490105));
#87 = CARTESIAN_POINT ('', (1.34669524021573, 5.67086730735158, 3.78057820490105));
#88 = CARTESIAN_POINT ('', (1.34669524021573, -1.89028910245052, 7.5611564098021));
#89 = CARTESIAN_POINT ('', (1.34669524021573, -1.89028910245053, 4.62987299755832E-16));
#90 = (
   BOUNDED_CURVE ()
   B_SPLINE_CURVE (5, (#84, #85, #86, #87, #88, #89), .UNSPECIFIED., .T., .U.)
   B_SPLINE_CURVE_WITH_KNOTS ((6, 6), (0., 1.), .UNSPECIFIED.)
   CURVE ()
   GEOMETRIC_REPRESENTATION_ITEM ()
   RATIONAL_B_SPLINE_CURVE ((5., 1., 1., 1., 1., 5.))
   REPRESENTATION_ITEM ('')
);
#91 = EDGE_CURVE ('', #76, #76, #90, .T.);
#92 = ORIENTED_EDGE ('', *, *, #91, .T.);
#93 = ORIENTED_EDGE ('', *, *, #82, .T.);
#94 = ORIENTED_EDGE ('', *, *, #35, .F.);
#95 = EDGE_LOOP ('', (#83, #92, #93, #94));
#96 = FACE_OUTER_BOUND ('', #95, .T.);
#97 = CARTESIAN_POINT ('', (1.34669524021714, -1.89028910245145, 4.62987299756058E-16));
#98 = CARTESIAN_POINT ('', (3.87747740063177, -2.85862441850805, 7.0016104881807E-16));
#99 = CARTESIAN_POINT ('', (6.4240043518297, -3.78580996776992, 9.27256011841914E-16));
#100 = CARTESIAN_POINT ('', (8.98493005455379, -4.67135565994084, 1.14415215132508E-15));
#101 = CARTESIAN_POINT ('', (1.34669524021715, -1.89028910245145, -7.56115640980579));
#102 = CARTESIAN_POINT ('', (3.87747740063177, -2.85862441850806, -11.4344976740322));
#103 = CARTESIAN_POINT ('', (6.4240043518297, -3.78580996776992, -15.1432398710797));
#104 = CARTESIAN_POINT ('', (8.98493005455379, -4.67135565994085, -18.6854226397634));
#105 = CARTESIAN_POINT ('', (1.34669524021715, 5.67086730735434, -3.7805782049029));
#106 = CARTESIAN_POINT ('', (3.87747740063177, 8.57587325552416, -5.71724883701611));
#107 = CARTESIAN_POINT ('', (6.4240043518297, 11.3574299033097, -7.57161993553983));
#108 = CARTESIAN_POINT ('', (8.98493005455379, 14.0140669798225, -9.34271131988169));
#109 = CARTESIAN_POINT ('', (1.34669524021714, 5.67086730735434, 3.78057820490289));
#110 = CARTESIAN_POINT ('', (3.87747740063177, 8.57587325552416, 5.7172488370161));
#111 = CARTESIAN_POINT ('', (6.4240043518297, 11.3574299033097, 7.57161993553983));
#112 = CARTESIAN_POINT ('', (8.98493005455379, 14.0140669798225, 9.34271131988168));
#113 = CARTESIAN_POINT ('', (1.34669524021714, -1.89028910245145, 7.56115640980579));
#114 = CARTESIAN_POINT ('', (3.87747740063177, -2.85862441850805, 11.4344976740322));
#115 = CARTESIAN_POINT ('', (6.4240043518297, -3.78580996776991, 15.1432398710797));
#116 = CARTESIAN_POINT ('', (8.98493005455378, -4.67135565994084, 18.6854226397634));
#117 = CARTESIAN_POINT ('', (1.34669524021714, -1.89028910245145, 4.62987299756058E-16));
#118 = CARTESIAN_POINT ('', (3.87747740063177, -2.85862441850805, 7.0016104881807E-16));
#119 = CARTESIAN_POINT ('', (6.4240043518297, -3.78580996776992, 9.27256011841914E-16));
#120 = CARTESIAN_POINT ('', (8.98493005455379, -4.67135565994084, 1.14415215132508E-15));
#121 = (
   BOUNDED_SURFACE ()
   B_SPLINE_SURFACE (5, 3, ((#97, #98, #99, #100), (#101, #102, #103, #104), (#105, #106, #107, #108), (#109, #110, #111, #112), (#113, #114, #115, #116), (#117, #118, #119, #120)), .UNSPECIFIED., .T., .F., .U.)
   B_SPLINE_SURFACE_WITH_KNOTS ((6, 6), (4, 4), (0., 1.), (0., 1.), .UNSPECIFIED.)
   SURFACE ()
   GEOMETRIC_REPRESENTATION_ITEM ()
   RATIONAL_B_SPLINE_SURFACE (((5., 5., 5., 5.), (1., 1., 1., 1.), (1., 1., 1., 1.), (1., 1., 1., 1.), (1., 1., 1., 1.), (5., 5., 5., 5.)))
   REPRESENTATION_ITEM ('')
);
#122 = ADVANCED_FACE ('', (#96), #121, .T.);
#123 = CARTESIAN_POINT ('', (-1.49975978266186E-32, 9.18338008663387E-49, -9.18338008663387E-49));
#124 = VERTEX_POINT ('', #123);
#125 = CARTESIAN_POINT ('', (-1.49975978266186E-32, 9.18338008663387E-49, -9.18338008663387E-49));
#126 = CARTESIAN_POINT ('', (-1.39235136575371E-17, -0.227388234178723, 5.56940546301483E-17));
#127 = CARTESIAN_POINT ('', (0.075826072302041, -0.666570919783414, 1.63262788663493E-16));
#128 = CARTESIAN_POINT ('', (0.366141569323759, -1.19798561924167, 2.93421850805774E-16));
#129 = CARTESIAN_POINT ('', (0.788787179769688, -1.6269609418183, 3.98490501947109E-16));
#130 = CARTESIAN_POINT ('', (1.13178048966897, -1.81601219459658, 4.44794704265051E-16));
#131 = CARTESIAN_POINT ('', (1.34669524021573, -1.89028910245053, 4.62987299755832E-16));
#132 = B_SPLINE_CURVE_WITH_KNOTS ('', 3, (#125, #126, #127, #128, #129, #130, #131), .UNSPECIFIED., .F., .U., (4, 1, 1, 1, 4), (0., 0.27550258557349, 0.532274638253803, 0.72449741442651, 1.), .UNSPECIFIED.);
#133 = EDGE_CURVE ('', #124, #76, #132, .T.);
#134 = ORIENTED_EDGE ('', *, *, #133, .F.);
#135 = ORIENTED_EDGE ('', *, *, #133, .T.);
#136 = ORIENTED_EDGE ('', *, *, #91, .F.);
#137 = EDGE_LOOP ('', (#134, #135, #136));
#138 = FACE_OUTER_BOUND ('', #137, .T.);
#139 = CARTESIAN_POINT ('', (-1.49975978266186E-32, 9.18338008663387E-49, -9.18338008663387E-49));
#140 = CARTESIAN_POINT ('', (-1.39235136575371E-17, -0.227388234178723, 5.56940546301483E-17));
#141 = CARTESIAN_POINT ('', (0.075826072302041, -0.666570919783414, 1.63262788663493E-16));
#142 = CARTESIAN_POINT ('', (0.366141569323759, -1.19798561924167, 2.93421850805774E-16));
#143 = CARTESIAN_POINT ('', (0.788787179769688, -1.6269609418183, 3.98490501947109E-16));
#144 = CARTESIAN_POINT ('', (1.13178048966897, -1.81601219459658, 4.44794704265051E-16));
#145 = CARTESIAN_POINT ('', (1.34669524021573, -1.89028910245053, 4.62987299755832E-16));
#146 = CARTESIAN_POINT ('', (-1.49975978266186E-32, 9.18338008663387E-49, -9.18338008663387E-49));
#147 = CARTESIAN_POINT ('', (4.17705409726112E-17, -0.227388234178723, -0.90955293671489));
#148 = CARTESIAN_POINT ('', (0.0758260723020411, -0.666570919783415, -2.66628367913366));
#149 = CARTESIAN_POINT ('', (0.36614156932376, -1.19798561924167, -4.79194247696668));
#150 = CARTESIAN_POINT ('', (0.788787179769688, -1.6269609418183, -6.50784376727321));
#151 = CARTESIAN_POINT ('', (1.13178048966897, -1.81601219459658, -7.2640487783863));
#152 = CARTESIAN_POINT ('', (1.34669524021573, -1.89028910245053, -7.5611564098021));
#153 = CARTESIAN_POINT ('', (-1.49975978266186E-32, 9.18338008663387E-49, -9.18338008663387E-49));
#154 = CARTESIAN_POINT ('', (6.96175682876853E-17, 0.682164702536167, -0.454776468357445));
#155 = CARTESIAN_POINT ('', (0.0758260723020412, 1.99971275935024, -1.33314183956683));
#156 = CARTESIAN_POINT ('', (0.36614156932376, 3.59395685772501, -2.39597123848334));
#157 = CARTESIAN_POINT ('', (0.788787179769688, 4.8808828254549, -3.2539218836366));
#158 = CARTESIAN_POINT ('', (1.13178048966897, 5.44803658378973, -3.63202438919315));
#159 = CARTESIAN_POINT ('', (1.34669524021573, 5.67086730735158, -3.78057820490105));
#160 = CARTESIAN_POINT ('', (-1.49975978266186E-32, 9.18338008663387E-49, -9.18338008663387E-49));
#161 = CARTESIAN_POINT ('', (1.39235136575371E-17, 0.682164702536168, 0.454776468357445));
#162 = CARTESIAN_POINT ('', (0.075826072302041, 1.99971275935024, 1.33314183956683));
#163 = CARTESIAN_POINT ('', (0.36614156932376, 3.59395685772501, 2.39597123848334));
#164 = CARTESIAN_POINT ('', (0.788787179769688, 4.88088282545491, 3.2539218836366));
#165 = CARTESIAN_POINT ('', (1.13178048966897, 5.44803658378973, 3.63202438919315));
#166 = CARTESIAN_POINT ('', (1.34669524021573, 5.67086730735158, 3.78057820490105));
#167 = CARTESIAN_POINT ('', (-1.49975978266186E-32, 9.18338008663387E-49, -9.18338008663387E-49));
#168 = CARTESIAN_POINT ('', (-6.96175682876853E-17, -0.227388234178722, 0.90955293671489));
#169 = CARTESIAN_POINT ('', (0.0758260723020408, -0.666570919783414, 2.66628367913366));
#170 = CARTESIAN_POINT ('', (0.366141569323759, -1.19798561924167, 4.79194247696668));
#171 = CARTESIAN_POINT ('', (0.788787179769687, -1.6269609418183, 6.50784376727321));
#172 = CARTESIAN_POINT ('', (1.13178048966897, -1.81601219459657, 7.2640487783863));
#173 = CARTESIAN_POINT ('', (1.34669524021573, -1.89028910245052, 7.5611564098021));
#174 = CARTESIAN_POINT ('', (-1.49975978266186E-32, 9.18338008663387E-49, -9.18338008663387E-49));
#175 = CARTESIAN_POINT ('', (-1.39235136575371E-17, -0.227388234178723, 5.56940546301483E-17));
#176 = CARTESIAN_POINT ('', (0.075826072302041, -0.666570919783414, 1.63262788663493E-16));
#177 = CARTESIAN_POINT ('', (0.366141569323759, -1.19798561924167, 2.93421850805774E-16));
#178 = CARTESIAN_POINT ('', (0.788787179769688, -1.6269609418183, 3.98490501947109E-16));
#179 = CARTESIAN_POINT ('', (1.13178048966897, -1.81601219459658, 4.44794704265051E-16));
#180 = CARTESIAN_POINT ('', (1.34669524021573, -1.89028910245053, 4.62987299755832E-16));
#181 = (
   BOUNDED_SURFACE ()
   B_SPLINE_SURFACE (5, 3, ((#139, #140, #141, #142, #143, #144, #145), (#146, #147, #148, #149, #150, #151, #152), (#153, #154, #155, #156, #157, #158, #159), (#160, #161, #162, #163, #164, #165, #166), (#167, #168, #169, #170, #171, #172, #173), (#174, #175, #176, #177, #178, #179, #180)), .UNSPECIFIED., .T., .F., .U.)
   B_SPLINE_SURFACE_WITH_KNOTS ((6, 6), (4, 1, 1, 1, 4), (0., 1.), (0., 0.27550258557349, 0.532274638253803, 0.72449741442651, 1.), .UNSPECIFIED.)
   SURFACE ()
   GEOMETRIC_REPRESENTATION_ITEM ()
   RATIONAL_B_SPLINE_SURFACE (((5., 5., 5., 5., 5., 5., 5.), (1., 1., 1., 1., 1., 1., 1.), (1., 1., 1., 1., 1., 1., 1.), (1., 1., 1., 1., 1., 1., 1.), (1., 1., 1., 1., 1., 1., 1.), (5., 5., 5., 5., 5., 5., 5.)))
   REPRESENTATION_ITEM ('')
);
#182 = ADVANCED_FACE ('', (#138), #181, .T.);
#183 = CARTESIAN_POINT ('', (75., -5.00500000000011, 1.22587144594653E-15));
#184 = VERTEX_POINT ('', #183);
#185 = CARTESIAN_POINT ('', (10.77141320049, -5.00500000000011, 1.22587144594653E-15));
#186 = CARTESIAN_POINT ('', (32.18094213366, -5.00500000000012, 1.22587144594653E-15));
#187 = CARTESIAN_POINT ('', (53.5904710668299, -5.00500000000011, 1.22587144594653E-15));
#188 = CARTESIAN_POINT ('', (75., -5.00500000000011, 1.22587144594653E-15));
#189 = B_SPLINE_CURVE_WITH_KNOTS ('', 3, (#185, #186, #187, #188), .UNSPECIFIED., .F., .U., (4, 4), (0., 1.), .UNSPECIFIED.);
#190 = EDGE_CURVE ('', #20, #184, #189, .T.);
#191 = ORIENTED_EDGE ('', *, *, #190, .F.);
#192 = ORIENTED_EDGE ('', *, *, #45, .T.);
#193 = ORIENTED_EDGE ('', *, *, #190, .T.);
#194 = CARTESIAN_POINT ('', (75., -5.00500000000011, 1.22587144594653E-15));
#195 = CARTESIAN_POINT ('', (75., -5.0050000000001, -20.0200000000004));
#196 = CARTESIAN_POINT ('', (75., 15.0150000000003, -10.0100000000002));
#197 = CARTESIAN_POINT ('', (75., 15.0150000000003, 10.0100000000002));
#198 = CARTESIAN_POINT ('', (75., -5.00500000000012, 20.0200000000004));
#199 = CARTESIAN_POINT ('', (75., -5.00500000000011, 1.22587144594653E-15));
#200 = (
   BOUNDED_CURVE ()
   B_SPLINE_CURVE (5, (#194, #195, #196, #197, #198, #199), .UNSPECIFIED., .T., .U.)
   B_SPLINE_CURVE_WITH_KNOTS ((6, 6), (0., 1.), .UNSPECIFIED.)
   CURVE ()
   GEOMETRIC_REPRESENTATION_ITEM ()
   RATIONAL_B_SPLINE_CURVE ((5., 1., 1., 1., 1., 5.))
   REPRESENTATION_ITEM ('')
);
#201 = EDGE_CURVE ('', #184, #184, #200, .T.);
#202 = ORIENTED_EDGE ('', *, *, #201, .F.);
#203 = EDGE_LOOP ('', (#191, #192, #193, #202));
#204 = FACE_OUTER_BOUND ('', #203, .T.);
#205 = CARTESIAN_POINT ('', (10.77141320049, -5.00500000000011, 1.22587144594653E-15));
#206 = CARTESIAN_POINT ('', (32.18094213366, -5.00500000000012, 1.22587144594653E-15));
#207 = CARTESIAN_POINT ('', (53.5904710668299, -5.00500000000011, 1.22587144594653E-15));
#208 = CARTESIAN_POINT ('', (75., -5.00500000000011, 1.22587144594653E-15));
#209 = CARTESIAN_POINT ('', (10.77141320049, -5.00500000000011, -20.0200000000004));
#210 = CARTESIAN_POINT ('', (32.18094213366, -5.00500000000012, -20.0200000000005));
#211 = CARTESIAN_POINT ('', (53.5904710668299, -5.0050000000001, -20.0200000000004));
#212 = CARTESIAN_POINT ('', (75., -5.0050000000001, -20.0200000000004));
#213 = CARTESIAN_POINT ('', (10.77141320049, 15.0150000000003, -10.0100000000002));
#214 = CARTESIAN_POINT ('', (32.18094213366, 15.0150000000004, -10.0100000000002));
#215 = CARTESIAN_POINT ('', (53.5904710668299, 15.0150000000003, -10.0100000000002));
#216 = CARTESIAN_POINT ('', (75., 15.0150000000003, -10.0100000000002));
#217 = CARTESIAN_POINT ('', (10.77141320049, 15.0150000000003, 10.0100000000002));
#218 = CARTESIAN_POINT ('', (32.18094213366, 15.0150000000004, 10.0100000000002));
#219 = CARTESIAN_POINT ('', (53.5904710668299, 15.0150000000003, 10.0100000000002));
#220 = CARTESIAN_POINT ('', (75., 15.0150000000003, 10.0100000000002));
#221 = CARTESIAN_POINT ('', (10.77141320049, -5.00500000000011, 20.0200000000004));
#222 = CARTESIAN_POINT ('', (32.18094213366, -5.00500000000012, 20.0200000000005));
#223 = CARTESIAN_POINT ('', (53.5904710668299, -5.00500000000012, 20.0200000000004));
#224 = CARTESIAN_POINT ('', (75., -5.00500000000012, 20.0200000000004));
#225 = CARTESIAN_POINT ('', (10.77141320049, -5.00500000000011, 1.22587144594653E-15));
#226 = CARTESIAN_POINT ('', (32.18094213366, -5.00500000000012, 1.22587144594653E-15));
#227 = CARTESIAN_POINT ('', (53.5904710668299, -5.00500000000011, 1.22587144594653E-15));
#228 = CARTESIAN_POINT ('', (75., -5.00500000000011, 1.22587144594653E-15));
#229 = (
   BOUNDED_SURFACE ()
   B_SPLINE_SURFACE (5, 3, ((#205, #206, #207, #208), (#209, #210, #211, #212), (#213, #214, #215, #216), (#217, #218, #219, #220), (#221, #222, #223, #224), (#225, #226, #227, #228)), .UNSPECIFIED., .T., .F., .U.)
   B_SPLINE_SURFACE_WITH_KNOTS ((6, 6), (4, 4), (0., 1.), (0., 1.), .UNSPECIFIED.)
   SURFACE ()
   GEOMETRIC_REPRESENTATION_ITEM ()
   RATIONAL_B_SPLINE_SURFACE (((5., 5., 5., 5.), (1., 1., 1., 1.), (1., 1., 1., 1.), (1., 1., 1., 1.), (1., 1., 1., 1.), (5., 5., 5., 5.)))
   REPRESENTATION_ITEM ('')
);
#230 = ADVANCED_FACE ('', (#204), #229, .T.);
#231 = CARTESIAN_POINT ('', (75., -4.59242549680257E-15, 4.59242549680257E-15));
#232 = VERTEX_POINT ('', #231);
#233 = CARTESIAN_POINT ('', (75., -5.00500000000011, 1.22587144594653E-15));
#234 = CARTESIAN_POINT ('', (75., -4.59242549680257E-15, 4.59242549680257E-15));
#235 = B_SPLINE_CURVE_WITH_KNOTS ('', 1, (#233, #234), .UNSPECIFIED., .F., .U., (2, 2), (0., 1.), .UNSPECIFIED.);
#236 = EDGE_CURVE ('', #184, #232, #235, .T.);
#237 = ORIENTED_EDGE ('', *, *, #236, .F.);
#238 = ORIENTED_EDGE ('', *, *, #201, .T.);
#239 = ORIENTED_EDGE ('', *, *, #236, .T.);
#240 = EDGE_LOOP ('', (#237, #238, #239));
#241 = FACE_OUTER_BOUND ('', #240, .T.);
#242 = CARTESIAN_POINT ('', (75., -5.00500000000011, 1.22587144594653E-15));
#243 = CARTESIAN_POINT ('', (75., -4.59242549680257E-15, 4.59242549680257E-15));
#244 = CARTESIAN_POINT ('', (75., -5.0050000000001, -20.0200000000004));
#245 = CARTESIAN_POINT ('', (75., -4.59242549680257E-15, 4.59242549680257E-15));
#246 = CARTESIAN_POINT ('', (75., 15.0150000000003, -10.0100000000002));
#247 = CARTESIAN_POINT ('', (75., -4.59242549680257E-15, 4.59242549680257E-15));
#248 = CARTESIAN_POINT ('', (75., 15.0150000000003, 10.0100000000002));
#249 = CARTESIAN_POINT ('', (75., -4.59242549680257E-15, 4.59242549680257E-15));
#250 = CARTESIAN_POINT ('', (75., -5.00500000000012, 20.0200000000004));
#251 = CARTESIAN_POINT ('', (75., -4.59242549680257E-15, 4.59242549680257E-15));
#252 = CARTESIAN_POINT ('', (75., -5.00500000000011, 1.22587144594653E-15));
#253 = CARTESIAN_POINT ('', (75., -4.59242549680257E-15, 4.59242549680257E-15));
#254 = (
   BOUNDED_SURFACE ()
   B_SPLINE_SURFACE (5, 1, ((#242, #243), (#244, #245), (#246, #247), (#248, #249), (#250, #251), (#252, #253)), .UNSPECIFIED., .T., .F., .U.)
   B_SPLINE_SURFACE_WITH_KNOTS ((6, 6), (2, 2), (0., 1.), (0., 1.), .UNSPECIFIED.)
   SURFACE ()
   GEOMETRIC_REPRESENTATION_ITEM ()
   RATIONAL_B_SPLINE_SURFACE (((5., 5.), (1., 1.), (1., 1.), (1., 1.), (1., 1.), (5., 5.)))
   REPRESENTATION_ITEM ('')
);
#255 = ADVANCED_FACE ('', (#241), #254, .T.);
#256 = CLOSED_SHELL ('', (#74, #122, #182, #230, #255));
#257 = MANIFOLD_SOLID_BREP ('', #256);
#258 = (
   LENGTH_UNIT ()
   NAMED_UNIT (*)
   SI_UNIT (.MILLI., .METRE.)
);
#259 = (
   NAMED_UNIT (*)
   SI_UNIT ($, .STERADIAN.)
   SOLID_ANGLE_UNIT ()
);
#260 = (
   NAMED_UNIT (*)
   SI_UNIT ($, .RADIAN.)
   PLANE_ANGLE_UNIT ()
);
#261 = UNCERTAINTY_MEASURE_WITH_UNIT (LENGTH_MEASURE(0.001), #258, 'DISTANCE_ACCURACY_VALUE', '');
#262 = (
   GEOMETRIC_REPRESENTATION_CONTEXT (3)
   GLOBAL_UNCERTAINTY_ASSIGNED_CONTEXT ((#261))
   GLOBAL_UNIT_ASSIGNED_CONTEXT ((#258, #259, #260))
   REPRESENTATION_CONTEXT ('', '3D')
);
#263 = SHAPE_REPRESENTATION ('', (), #262);
#264 = APPLICATION_CONTEXT ('configuration controlled 3D designs of mechanical parts and assemblies');
#265 = APPLICATION_PROTOCOL_DEFINITION ('International Standard', 'config_control_design', 1997, #264);
#266 = MECHANICAL_CONTEXT ('', #264, 'mechanical');
#267 = PRODUCT ('', '', '', (#266));
#268 = PERSON_AND_ORGANIZATION_ROLE ('design_owner');
#269 = PERSON ('', '', $, $, $, $);
#270 = ORGANIZATION ($, '', '');
#271 = PERSON_AND_ORGANIZATION (#269, #270);
#272 = CC_DESIGN_PERSON_AND_ORGANIZATION_ASSIGNMENT (#271, #268, (#267));
#273 = PRODUCT_RELATED_PRODUCT_CATEGORY ('detail', $, (#267));
#274 = PRODUCT_DEFINITION_FORMATION_WITH_SPECIFIED_SOURCE ('', '', #267, .NOT_KNOWN.);
#275 = APPROVAL_STATUS ('approved');
#276 = APPROVAL (#275, '');
#277 = CALENDAR_DATE (2022, 25, 7);
#278 = COORDINATED_UNIVERSAL_TIME_OFFSET (0, $, .AHEAD.);
#279 = LOCAL_TIME (15, 51, 49., #278);
#280 = DATE_AND_TIME (#277, #279);
#281 = APPROVAL_DATE_TIME (#280, #276);
#282 = APPROVAL_ROLE ('');
#283 = PERSON ('', '', $, $, $, $);
#284 = ORGANIZATION ($, '', '');
#285 = PERSON_AND_ORGANIZATION (#283, #284);
#286 = APPROVAL_PERSON_ORGANIZATION (#285, #276, #282);
#287 = CC_DESIGN_APPROVAL (#276, (#274));
#288 = PERSON_AND_ORGANIZATION_ROLE ('creator');
#289 = PERSON ('', '', $, $, $, $);
#290 = ORGANIZATION ($, '', '');
#291 = PERSON_AND_ORGANIZATION (#289, #290);
#292 = CC_DESIGN_PERSON_AND_ORGANIZATION_ASSIGNMENT (#291, #288, (#274));
#293 = PERSON_AND_ORGANIZATION_ROLE ('part_supplier');
#294 = PERSON ('', '', $, $, $, $);
#295 = ORGANIZATION ($, '', '');
#296 = PERSON_AND_ORGANIZATION (#294, #295);
#297 = CC_DESIGN_PERSON_AND_ORGANIZATION_ASSIGNMENT (#296, #293, (#274));
#298 = SECURITY_CLASSIFICATION_LEVEL ('unclassified');
#299 = SECURITY_CLASSIFICATION ('', '', #298);
#300 = APPROVAL_STATUS ('approved');
#301 = APPROVAL (#300, '');
#302 = CALENDAR_DATE (2022, 25, 7);
#303 = COORDINATED_UNIVERSAL_TIME_OFFSET (0, $, .AHEAD.);
#304 = LOCAL_TIME (15, 51, 49., #303);
#305 = DATE_AND_TIME (#302, #304);
#306 = APPROVAL_DATE_TIME (#305, #301);
#307 = APPROVAL_ROLE ('');
#308 = PERSON ('', '', $, $, $, $);
#309 = ORGANIZATION ($, '', '');
#310 = PERSON_AND_ORGANIZATION (#308, #309);
#311 = APPROVAL_PERSON_ORGANIZATION (#310, #301, #307);
#312 = CC_DESIGN_APPROVAL (#301, (#299));
#313 = DATE_TIME_ROLE ('classification_date');
#314 = CALENDAR_DATE (2022, 25, 7);
#315 = COORDINATED_UNIVERSAL_TIME_OFFSET (0, $, .AHEAD.);
#316 = LOCAL_TIME (15, 51, 49., #315);
#317 = DATE_AND_TIME (#314, #316);
#318 = CC_DESIGN_DATE_AND_TIME_ASSIGNMENT (#317, #313, (#299));
#319 = PERSON_AND_ORGANIZATION_ROLE ('classification_officer');
#320 = PERSON ('', '', $, $, $, $);
#321 = ORGANIZATION ($, '', '');
#322 = PERSON_AND_ORGANIZATION (#320, #321);
#323 = CC_DESIGN_PERSON_AND_ORGANIZATION_ASSIGNMENT (#322, #319, (#299));
#324 = CC_DESIGN_SECURITY_CLASSIFICATION (#299, (#274));
#325 = DESIGN_CONTEXT ('', #264, 'design');
#326 = PRODUCT_DEFINITION ('', '', #274, #325);
#327 = APPROVAL_STATUS ('approved');
#328 = APPROVAL (#327, '');
#329 = CALENDAR_DATE (2022, 25, 7);
#330 = COORDINATED_UNIVERSAL_TIME_OFFSET (0, $, .AHEAD.);
#331 = LOCAL_TIME (15, 51, 49., #330);
#332 = DATE_AND_TIME (#329, #331);
#333 = APPROVAL_DATE_TIME (#332, #328);
#334 = APPROVAL_ROLE ('');
#335 = PERSON ('', '', $, $, $, $);
#336 = ORGANIZATION ($, '', '');
#337 = PERSON_AND_ORGANIZATION (#335, #336);
#338 = APPROVAL_PERSON_ORGANIZATION (#337, #328, #334);
#339 = CC_DESIGN_APPROVAL (#328, (#326));
#340 = DATE_TIME_ROLE ('creation_date');
#341 = CALENDAR_DATE (2022, 25, 7);
#342 = COORDINATED_UNIVERSAL_TIME_OFFSET (0, $, .AHEAD.);
#343 = LOCAL_TIME (15, 51, 49., #342);
#344 = DATE_AND_TIME (#341, #343);
#345 = CC_DESIGN_DATE_AND_TIME_ASSIGNMENT (#344, #340, (#326));
#346 = PERSON_AND_ORGANIZATION_ROLE ('creator');
#347 = PERSON ('', '', $, $, $, $);
#348 = ORGANIZATION ($, '', '');
#349 = PERSON_AND_ORGANIZATION (#347, #348);
#350 = CC_DESIGN_PERSON_AND_ORGANIZATION_ASSIGNMENT (#349, #346, (#326));
#351 = PRODUCT_DEFINITION_SHAPE ('', '', #326);
#352 = SHAPE_DEFINITION_REPRESENTATION (#351, #263);
#353 = SHAPE_REPRESENTATION_RELATIONSHIP ('', '', #263, #354);
#354 = GEOMETRICALLY_BOUNDED_WIREFRAME_SHAPE_REPRESENTATION ('', (#5), #262);
#355 = SHAPE_REPRESENTATION_RELATIONSHIP ('', '', #263, #356);
#356 = ADVANCED_BREP_SHAPE_REPRESENTATION ('', (#257), #262);
ENDSEC;
END-ISO-10303-21;
