ISO-10303-21;
HEADER;
FILE_DESCRIPTION ((), '1');
FILE_NAME ('C:\\Users\\Paul\\Documents\\5AXFA081090-AX.STP', '2022-07-25T16:47:28', ('Unknown'), ('M.A. Ford Europe'), 'OneCNC-XR8 Mill 3D Expert', 'OneCNC-XR8 Mill 3D Expert', '');
FILE_SCHEMA (('CONFIG_CONTROL_DESIGN'));
ENDSEC;

DATA;
#1 = CARTESIAN_POINT ('', (17.7434575354634, -3.99999999999869, 9.79717439317562E-16));
#2 = VERTEX_POINT ('', #1);
#3 = CARTESIAN_POINT ('', (25.0000000000033, -4.00000000000023, 9.79717439317938E-16));
#4 = VERTEX_POINT ('', #3);
#5 = CARTESIAN_POINT ('', (17.7434575354634, -3.99999999999869, 9.79717439317562E-16));
#6 = CARTESIAN_POINT ('', (20.1623050236433, -3.9999999999992, 9.79717439317687E-16));
#7 = CARTESIAN_POINT ('', (22.5811525118233, -3.99999999999971, 9.79717439317812E-16));
#8 = CARTESIAN_POINT ('', (25.0000000000033, -4.00000000000023, 9.79717439317938E-16));
#9 = B_SPLINE_CURVE_WITH_KNOTS ('', 3, (#5, #6, #7, #8), .UNSPECIFIED., .F., .U., (4, 4), (0., 1.), .UNSPECIFIED.);
#10 = EDGE_CURVE ('', #2, #4, #9, .T.);
#11 = ORIENTED_EDGE ('', *, *, #10, .F.);
#12 = CARTESIAN_POINT ('', (17.7434575354638, -3.99999999999882, 9.79717439317593E-16));
#13 = CARTESIAN_POINT ('', (17.7434575354638, -3.99999999999882, -15.9999999999953));
#14 = CARTESIAN_POINT ('', (17.7434575354638, 11.9999999999965, -7.99999999999764));
#15 = CARTESIAN_POINT ('', (17.7434575354638, 11.9999999999965, 7.99999999999764));
#16 = CARTESIAN_POINT ('', (17.7434575354638, -3.99999999999882, 15.9999999999953));
#17 = CARTESIAN_POINT ('', (17.7434575354638, -3.99999999999882, 9.79717439317593E-16));
#18 = (
   BOUNDED_CURVE ()
   B_SPLINE_CURVE (5, (#12, #13, #14, #15, #16, #17), .UNSPECIFIED., .T., .U.)
   B_SPLINE_CURVE_WITH_KNOTS ((6, 6), (0., 1.), .UNSPECIFIED.)
   CURVE ()
   GEOMETRIC_REPRESENTATION_ITEM ()
   RATIONAL_B_SPLINE_CURVE ((5., 1., 1., 1., 1., 5.))
   REPRESENTATION_ITEM ('')
);
#19 = EDGE_CURVE ('', #2, #2, #18, .T.);
#20 = ORIENTED_EDGE ('', *, *, #19, .T.);
#21 = ORIENTED_EDGE ('', *, *, #10, .T.);
#22 = CARTESIAN_POINT ('', (25.0000000000033, -4.00000000000023, 9.79717439317938E-16));
#23 = CARTESIAN_POINT ('', (25.0000000000033, -4.00000000000023, -16.0000000000009));
#24 = CARTESIAN_POINT ('', (25.0000000000033, 12.0000000000007, -8.00000000000045));
#25 = CARTESIAN_POINT ('', (25.0000000000033, 12.0000000000007, 8.00000000000045));
#26 = CARTESIAN_POINT ('', (25.0000000000033, -4.00000000000023, 16.0000000000009));
#27 = CARTESIAN_POINT ('', (25.0000000000033, -4.00000000000023, 9.79717439317938E-16));
#28 = (
   BOUNDED_CURVE ()
   B_SPLINE_CURVE (5, (#22, #23, #24, #25, #26, #27), .UNSPECIFIED., .T., .U.)
   B_SPLINE_CURVE_WITH_KNOTS ((6, 6), (0., 1.), .UNSPECIFIED.)
   CURVE ()
   GEOMETRIC_REPRESENTATION_ITEM ()
   RATIONAL_B_SPLINE_CURVE ((5., 1., 1., 1., 1., 5.))
   REPRESENTATION_ITEM ('')
);
#29 = EDGE_CURVE ('', #4, #4, #28, .T.);
#30 = ORIENTED_EDGE ('', *, *, #29, .F.);
#31 = EDGE_LOOP ('', (#11, #20, #21, #30));
#32 = FACE_OUTER_BOUND ('', #31, .T.);
#33 = CARTESIAN_POINT ('', (17.7434575354634, -3.99999999999869, 9.79717439317562E-16));
#34 = CARTESIAN_POINT ('', (20.1623050236433, -3.9999999999992, 9.79717439317687E-16));
#35 = CARTESIAN_POINT ('', (22.5811525118233, -3.99999999999971, 9.79717439317812E-16));
#36 = CARTESIAN_POINT ('', (25.0000000000033, -4.00000000000023, 9.79717439317938E-16));
#37 = CARTESIAN_POINT ('', (17.7434575354634, -3.99999999999869, -15.9999999999948));
#38 = CARTESIAN_POINT ('', (20.1623050236433, -3.9999999999992, -15.9999999999968));
#39 = CARTESIAN_POINT ('', (22.5811525118233, -3.99999999999971, -15.9999999999989));
#40 = CARTESIAN_POINT ('', (25.0000000000033, -4.00000000000023, -16.0000000000009));
#41 = CARTESIAN_POINT ('', (17.7434575354634, 11.9999999999961, -7.99999999999738));
#42 = CARTESIAN_POINT ('', (20.1623050236433, 11.9999999999976, -7.9999999999984));
#43 = CARTESIAN_POINT ('', (22.5811525118233, 11.9999999999991, -7.99999999999942));
#44 = CARTESIAN_POINT ('', (25.0000000000033, 12.0000000000007, -8.00000000000045));
#45 = CARTESIAN_POINT ('', (17.7434575354634, 11.9999999999961, 7.99999999999738));
#46 = CARTESIAN_POINT ('', (20.1623050236433, 11.9999999999976, 7.99999999999841));
#47 = CARTESIAN_POINT ('', (22.5811525118233, 11.9999999999991, 7.99999999999943));
#48 = CARTESIAN_POINT ('', (25.0000000000033, 12.0000000000007, 8.00000000000045));
#49 = CARTESIAN_POINT ('', (17.7434575354634, -3.99999999999869, 15.9999999999948));
#50 = CARTESIAN_POINT ('', (20.1623050236433, -3.99999999999921, 15.9999999999968));
#51 = CARTESIAN_POINT ('', (22.5811525118233, -3.99999999999972, 15.9999999999989));
#52 = CARTESIAN_POINT ('', (25.0000000000033, -4.00000000000023, 16.0000000000009));
#53 = CARTESIAN_POINT ('', (17.7434575354634, -3.99999999999869, 9.79717439317562E-16));
#54 = CARTESIAN_POINT ('', (20.1623050236433, -3.9999999999992, 9.79717439317687E-16));
#55 = CARTESIAN_POINT ('', (22.5811525118233, -3.99999999999971, 9.79717439317812E-16));
#56 = CARTESIAN_POINT ('', (25.0000000000033, -4.00000000000023, 9.79717439317938E-16));
#57 = (
   BOUNDED_SURFACE ()
   B_SPLINE_SURFACE (5, 3, ((#33, #34, #35, #36), (#37, #38, #39, #40), (#41, #42, #43, #44), (#45, #46, #47, #48), (#49, #50, #51, #52), (#53, #54, #55, #56)), .UNSPECIFIED., .T., .F., .U.)
   B_SPLINE_SURFACE_WITH_KNOTS ((6, 6), (4, 4), (0., 1.), (0., 1.), .UNSPECIFIED.)
   SURFACE ()
   GEOMETRIC_REPRESENTATION_ITEM ()
   RATIONAL_B_SPLINE_SURFACE (((5., 5., 5., 5.), (1., 1., 1., 1.), (1., 1., 1., 1.), (1., 1., 1., 1.), (1., 1., 1., 1.), (5., 5., 5., 5.)))
   REPRESENTATION_ITEM ('')
);
#58 = ADVANCED_FACE ('', (#32), #57, .T.);
#59 = CARTESIAN_POINT ('', (0.786969069156471, -0.977045455699958, 2.39307117988884E-16));
#60 = VERTEX_POINT ('', #59);
#61 = CARTESIAN_POINT ('', (0.786969069156861, -0.977045455699951, 2.39307117988882E-16));
#62 = CARTESIAN_POINT ('', (6.32524968474786, -2.5232832335321, 6.18026147057455E-16));
#63 = CARTESIAN_POINT ('', (12.0120410741828, -3.53710823080857, 8.66341654619493E-16));
#64 = CARTESIAN_POINT ('', (17.7434575354638, -3.99999999999882, 9.79717439317593E-16));
#65 = B_SPLINE_CURVE_WITH_KNOTS ('', 3, (#61, #62, #63, #64), .UNSPECIFIED., .F., .U., (4, 4), (0., 1.), .UNSPECIFIED.);
#66 = EDGE_CURVE ('', #60, #2, #65, .T.);
#67 = ORIENTED_EDGE ('', *, *, #66, .F.);
#68 = CARTESIAN_POINT ('', (0.786969069156471, -0.977045455699958, 2.39307117988884E-16));
#69 = CARTESIAN_POINT ('', (0.786969069156472, -0.977045455699959, -3.90818182279983));
#70 = CARTESIAN_POINT ('', (0.786969069156472, 2.93113636709988, -1.95409091139992));
#71 = CARTESIAN_POINT ('', (0.786969069156472, 2.93113636709988, 1.95409091139992));
#72 = CARTESIAN_POINT ('', (0.786969069156471, -0.977045455699958, 3.90818182279983));
#73 = CARTESIAN_POINT ('', (0.786969069156471, -0.977045455699958, 2.39307117988884E-16));
#74 = (
   BOUNDED_CURVE ()
   B_SPLINE_CURVE (5, (#68, #69, #70, #71, #72, #73), .UNSPECIFIED., .T., .U.)
   B_SPLINE_CURVE_WITH_KNOTS ((6, 6), (0., 1.), .UNSPECIFIED.)
   CURVE ()
   GEOMETRIC_REPRESENTATION_ITEM ()
   RATIONAL_B_SPLINE_CURVE ((5., 1., 1., 1., 1., 5.))
   REPRESENTATION_ITEM ('')
);
#75 = EDGE_CURVE ('', #60, #60, #74, .T.);
#76 = ORIENTED_EDGE ('', *, *, #75, .T.);
#77 = ORIENTED_EDGE ('', *, *, #66, .T.);
#78 = ORIENTED_EDGE ('', *, *, #19, .F.);
#79 = EDGE_LOOP ('', (#67, #76, #77, #78));
#80 = FACE_OUTER_BOUND ('', #79, .T.);
#81 = CARTESIAN_POINT ('', (0.786969069156861, -0.977045455699951, 2.39307117988882E-16));
#82 = CARTESIAN_POINT ('', (6.32524968474786, -2.5232832335321, 6.18026147057455E-16));
#83 = CARTESIAN_POINT ('', (12.0120410741828, -3.53710823080857, 8.66341654619493E-16));
#84 = CARTESIAN_POINT ('', (17.7434575354638, -3.99999999999882, 9.79717439317593E-16));
#85 = CARTESIAN_POINT ('', (0.786969069156861, -0.977045455699952, -3.9081818227998));
#86 = CARTESIAN_POINT ('', (6.32524968474786, -2.52328323353211, -10.0931329341284));
#87 = CARTESIAN_POINT ('', (12.0120410741828, -3.53710823080857, -14.1484329232343));
#88 = CARTESIAN_POINT ('', (17.7434575354638, -3.99999999999882, -15.9999999999953));
#89 = CARTESIAN_POINT ('', (0.786969069156861, 2.93113636709985, -1.9540909113999));
#90 = CARTESIAN_POINT ('', (6.32524968474786, 7.56984970059631, -5.04656646706421));
#91 = CARTESIAN_POINT ('', (12.0120410741828, 10.6113246924257, -7.07421646161713));
#92 = CARTESIAN_POINT ('', (17.7434575354638, 11.9999999999965, -7.99999999999764));
#93 = CARTESIAN_POINT ('', (0.786969069156861, 2.93113636709985, 1.9540909113999));
#94 = CARTESIAN_POINT ('', (6.32524968474786, 7.56984970059631, 5.04656646706421));
#95 = CARTESIAN_POINT ('', (12.0120410741828, 10.6113246924257, 7.07421646161713));
#96 = CARTESIAN_POINT ('', (17.7434575354638, 11.9999999999965, 7.99999999999764));
#97 = CARTESIAN_POINT ('', (0.78696906915686, -0.97704545569995, 3.9081818227998));
#98 = CARTESIAN_POINT ('', (6.32524968474786, -2.5232832335321, 10.0931329341284));
#99 = CARTESIAN_POINT ('', (12.0120410741828, -3.53710823080857, 14.1484329232343));
#100 = CARTESIAN_POINT ('', (17.7434575354638, -3.99999999999882, 15.9999999999953));
#101 = CARTESIAN_POINT ('', (0.786969069156861, -0.977045455699951, 2.39307117988882E-16));
#102 = CARTESIAN_POINT ('', (6.32524968474786, -2.5232832335321, 6.18026147057455E-16));
#103 = CARTESIAN_POINT ('', (12.0120410741828, -3.53710823080857, 8.66341654619493E-16));
#104 = CARTESIAN_POINT ('', (17.7434575354638, -3.99999999999882, 9.79717439317593E-16));
#105 = (
   BOUNDED_SURFACE ()
   B_SPLINE_SURFACE (5, 3, ((#81, #82, #83, #84), (#85, #86, #87, #88), (#89, #90, #91, #92), (#93, #94, #95, #96), (#97, #98, #99, #100), (#101, #102, #103, #104)), .UNSPECIFIED., .T., .F., .U.)
   B_SPLINE_SURFACE_WITH_KNOTS ((6, 6), (4, 4), (0., 1.), (0., 1.), .UNSPECIFIED.)
   SURFACE ()
   GEOMETRIC_REPRESENTATION_ITEM ()
   RATIONAL_B_SPLINE_SURFACE (((5., 5., 5., 5.), (1., 1., 1., 1.), (1., 1., 1., 1.), (1., 1., 1., 1.), (1., 1., 1., 1.), (5., 5., 5., 5.)))
   REPRESENTATION_ITEM ('')
);
#106 = ADVANCED_FACE ('', (#80), #105, .T.);
#107 = CARTESIAN_POINT ('', (-7.49879891330929E-33, 4.59169004331693E-49, -4.59169004331693E-49));
#108 = VERTEX_POINT ('', #107);
#109 = CARTESIAN_POINT ('', (-7.49879891330929E-33, 4.59169004331693E-49, -4.59169004331693E-49));
#110 = CARTESIAN_POINT ('', (-7.59292256591008E-18, -0.124001835814156, 3.03716902636403E-17));
#111 = CARTESIAN_POINT ('', (0.0454137666665323, -0.364604122271647, 8.93022542591806E-17));
#112 = CARTESIAN_POINT ('', (0.284155838945145, -0.756615960911485, 1.8531746294281E-16));
#113 = CARTESIAN_POINT ('', (0.580486458430369, -0.93202484533903, 2.2828024871405E-16));
#114 = CARTESIAN_POINT ('', (0.786969069156471, -0.977045455699958, 2.39307117988884E-16));
#115 = B_SPLINE_CURVE_WITH_KNOTS ('', 3, (#109, #110, #111, #112, #113, #114), .UNSPECIFIED., .F., .U., (4, 1, 1, 4), (0., 0.274316014056965, 0.53248907901203, 1.), .UNSPECIFIED.);
#116 = EDGE_CURVE ('', #108, #60, #115, .T.);
#117 = ORIENTED_EDGE ('', *, *, #116, .F.);
#118 = ORIENTED_EDGE ('', *, *, #116, .T.);
#119 = ORIENTED_EDGE ('', *, *, #75, .F.);
#120 = EDGE_LOOP ('', (#117, #118, #119));
#121 = FACE_OUTER_BOUND ('', #120, .T.);
#122 = CARTESIAN_POINT ('', (-7.49879891330929E-33, 4.59169004331693E-49, -4.59169004331693E-49));
#123 = CARTESIAN_POINT ('', (-7.59292256591008E-18, -0.124001835814156, 3.03716902636403E-17));
#124 = CARTESIAN_POINT ('', (0.0454137666665323, -0.364604122271647, 8.93022542591806E-17));
#125 = CARTESIAN_POINT ('', (0.284155838945145, -0.756615960911485, 1.8531746294281E-16));
#126 = CARTESIAN_POINT ('', (0.580486458430369, -0.93202484533903, 2.2828024871405E-16));
#127 = CARTESIAN_POINT ('', (0.786969069156471, -0.977045455699958, 2.39307117988884E-16));
#128 = CARTESIAN_POINT ('', (-7.49879891330929E-33, 4.59169004331693E-49, -4.59169004331693E-49));
#129 = CARTESIAN_POINT ('', (2.27787676977302E-17, -0.124001835814156, -0.496007343256623));
#130 = CARTESIAN_POINT ('', (0.0454137666665323, -0.364604122271647, -1.45841648908659));
#131 = CARTESIAN_POINT ('', (0.284155838945145, -0.756615960911486, -3.02646384364594));
#132 = CARTESIAN_POINT ('', (0.58048645843037, -0.932024845339031, -3.72809938135612));
#133 = CARTESIAN_POINT ('', (0.786969069156472, -0.977045455699959, -3.90818182279983));
#134 = CARTESIAN_POINT ('', (-7.49879891330929E-33, 4.59169004331693E-49, -4.59169004331693E-49));
#135 = CARTESIAN_POINT ('', (3.79646128295503E-17, 0.372005507442467, -0.248003671628311));
#136 = CARTESIAN_POINT ('', (0.0454137666665324, 1.09381236681494, -0.729208244543294));
#137 = CARTESIAN_POINT ('', (0.284155838945145, 2.26984788273445, -1.51323192182297));
#138 = CARTESIAN_POINT ('', (0.58048645843037, 2.79607453601709, -1.86404969067806));
#139 = CARTESIAN_POINT ('', (0.786969069156472, 2.93113636709988, -1.95409091139992));
#140 = CARTESIAN_POINT ('', (-7.49879891330929E-33, 4.59169004331693E-49, -4.59169004331693E-49));
#141 = CARTESIAN_POINT ('', (7.59292256591007E-18, 0.372005507442467, 0.248003671628311));
#142 = CARTESIAN_POINT ('', (0.0454137666665323, 1.09381236681494, 0.729208244543294));
#143 = CARTESIAN_POINT ('', (0.284155838945145, 2.26984788273446, 1.51323192182297));
#144 = CARTESIAN_POINT ('', (0.58048645843037, 2.79607453601709, 1.86404969067806));
#145 = CARTESIAN_POINT ('', (0.786969069156472, 2.93113636709988, 1.95409091139992));
#146 = CARTESIAN_POINT ('', (-7.49879891330929E-33, 4.59169004331693E-49, -4.59169004331693E-49));
#147 = CARTESIAN_POINT ('', (-3.79646128295503E-17, -0.124001835814156, 0.496007343256623));
#148 = CARTESIAN_POINT ('', (0.0454137666665322, -0.364604122271647, 1.45841648908659));
#149 = CARTESIAN_POINT ('', (0.284155838945145, -0.756615960911484, 3.02646384364594));
#150 = CARTESIAN_POINT ('', (0.580486458430369, -0.93202484533903, 3.72809938135612));
#151 = CARTESIAN_POINT ('', (0.786969069156471, -0.977045455699958, 3.90818182279983));
#152 = CARTESIAN_POINT ('', (-7.49879891330929E-33, 4.59169004331693E-49, -4.59169004331693E-49));
#153 = CARTESIAN_POINT ('', (-7.59292256591008E-18, -0.124001835814156, 3.03716902636403E-17));
#154 = CARTESIAN_POINT ('', (0.0454137666665323, -0.364604122271647, 8.93022542591806E-17));
#155 = CARTESIAN_POINT ('', (0.284155838945145, -0.756615960911485, 1.8531746294281E-16));
#156 = CARTESIAN_POINT ('', (0.580486458430369, -0.93202484533903, 2.2828024871405E-16));
#157 = CARTESIAN_POINT ('', (0.786969069156471, -0.977045455699958, 2.39307117988884E-16));
#158 = (
   BOUNDED_SURFACE ()
   B_SPLINE_SURFACE (5, 3, ((#122, #123, #124, #125, #126, #127), (#128, #129, #130, #131, #132, #133), (#134, #135, #136, #137, #138, #139), (#140, #141, #142, #143, #144, #145), (#146, #147, #148, #149, #150, #151), (#152, #153, #154, #155, #156, #157)), .UNSPECIFIED., .T., .F., .U.)
   B_SPLINE_SURFACE_WITH_KNOTS ((6, 6), (4, 1, 1, 4), (0., 1.), (0., 0.274316014056965, 0.53248907901203, 1.), .UNSPECIFIED.)
   SURFACE ()
   GEOMETRIC_REPRESENTATION_ITEM ()
   RATIONAL_B_SPLINE_SURFACE (((5., 5., 5., 5., 5., 5.), (1., 1., 1., 1., 1., 1.), (1., 1., 1., 1., 1., 1.), (1., 1., 1., 1., 1., 1.), (1., 1., 1., 1., 1., 1.), (5., 5., 5., 5., 5., 5.)))
   REPRESENTATION_ITEM ('')
);
#159 = ADVANCED_FACE ('', (#121), #158, .T.);
#160 = CARTESIAN_POINT ('', (75., -4.00000000000023, 9.79717439317937E-16));
#161 = VERTEX_POINT ('', #160);
#162 = CARTESIAN_POINT ('', (25.0000000000033, -4.00000000000023, 9.79717439317938E-16));
#163 = CARTESIAN_POINT ('', (41.6666666666689, -4.00000000000023, 9.79717439317938E-16));
#164 = CARTESIAN_POINT ('', (58.3333333333345, -4.00000000000022, 9.79717439317937E-16));
#165 = CARTESIAN_POINT ('', (75., -4.00000000000023, 9.79717439317937E-16));
#166 = B_SPLINE_CURVE_WITH_KNOTS ('', 3, (#162, #163, #164, #165), .UNSPECIFIED., .F., .U., (4, 4), (0., 1.), .UNSPECIFIED.);
#167 = EDGE_CURVE ('', #4, #161, #166, .T.);
#168 = ORIENTED_EDGE ('', *, *, #167, .F.);
#169 = ORIENTED_EDGE ('', *, *, #29, .T.);
#170 = ORIENTED_EDGE ('', *, *, #167, .T.);
#171 = CARTESIAN_POINT ('', (75., -4.00000000000023, 9.79717439317937E-16));
#172 = CARTESIAN_POINT ('', (75., -4.00000000000021, -16.0000000000009));
#173 = CARTESIAN_POINT ('', (75., 12.0000000000007, -8.00000000000043));
#174 = CARTESIAN_POINT ('', (75., 12.0000000000007, 8.00000000000046));
#175 = CARTESIAN_POINT ('', (75., -4.00000000000024, 16.0000000000009));
#176 = CARTESIAN_POINT ('', (75., -4.00000000000023, 9.79717439317937E-16));
#177 = (
   BOUNDED_CURVE ()
   B_SPLINE_CURVE (5, (#171, #172, #173, #174, #175, #176), .UNSPECIFIED., .T., .U.)
   B_SPLINE_CURVE_WITH_KNOTS ((6, 6), (0., 1.), .UNSPECIFIED.)
   CURVE ()
   GEOMETRIC_REPRESENTATION_ITEM ()
   RATIONAL_B_SPLINE_CURVE ((5., 1., 1., 1., 1., 5.))
   REPRESENTATION_ITEM ('')
);
#178 = EDGE_CURVE ('', #161, #161, #177, .T.);
#179 = ORIENTED_EDGE ('', *, *, #178, .F.);
#180 = EDGE_LOOP ('', (#168, #169, #170, #179));
#181 = FACE_OUTER_BOUND ('', #180, .T.);
#182 = CARTESIAN_POINT ('', (25.0000000000033, -4.00000000000023, 9.79717439317938E-16));
#183 = CARTESIAN_POINT ('', (41.6666666666689, -4.00000000000023, 9.79717439317938E-16));
#184 = CARTESIAN_POINT ('', (58.3333333333345, -4.00000000000022, 9.79717439317937E-16));
#185 = CARTESIAN_POINT ('', (75., -4.00000000000023, 9.79717439317937E-16));
#186 = CARTESIAN_POINT ('', (25.0000000000033, -4.00000000000023, -16.0000000000009));
#187 = CARTESIAN_POINT ('', (41.6666666666689, -4.00000000000022, -16.0000000000009));
#188 = CARTESIAN_POINT ('', (58.3333333333345, -4.00000000000021, -16.0000000000009));
#189 = CARTESIAN_POINT ('', (75., -4.00000000000021, -16.0000000000009));
#190 = CARTESIAN_POINT ('', (25.0000000000033, 12.0000000000007, -8.00000000000045));
#191 = CARTESIAN_POINT ('', (41.6666666666689, 12.0000000000007, -8.00000000000044));
#192 = CARTESIAN_POINT ('', (58.3333333333345, 12.0000000000007, -8.00000000000043));
#193 = CARTESIAN_POINT ('', (75., 12.0000000000007, -8.00000000000043));
#194 = CARTESIAN_POINT ('', (25.0000000000033, 12.0000000000007, 8.00000000000045));
#195 = CARTESIAN_POINT ('', (41.6666666666689, 12.0000000000007, 8.00000000000046));
#196 = CARTESIAN_POINT ('', (58.3333333333345, 12.0000000000007, 8.00000000000045));
#197 = CARTESIAN_POINT ('', (75., 12.0000000000007, 8.00000000000046));
#198 = CARTESIAN_POINT ('', (25.0000000000033, -4.00000000000023, 16.0000000000009));
#199 = CARTESIAN_POINT ('', (41.6666666666689, -4.00000000000023, 16.0000000000009));
#200 = CARTESIAN_POINT ('', (58.3333333333345, -4.00000000000024, 16.0000000000009));
#201 = CARTESIAN_POINT ('', (75., -4.00000000000024, 16.0000000000009));
#202 = CARTESIAN_POINT ('', (25.0000000000033, -4.00000000000023, 9.79717439317938E-16));
#203 = CARTESIAN_POINT ('', (41.6666666666689, -4.00000000000023, 9.79717439317938E-16));
#204 = CARTESIAN_POINT ('', (58.3333333333345, -4.00000000000022, 9.79717439317937E-16));
#205 = CARTESIAN_POINT ('', (75., -4.00000000000023, 9.79717439317937E-16));
#206 = (
   BOUNDED_SURFACE ()
   B_SPLINE_SURFACE (5, 3, ((#182, #183, #184, #185), (#186, #187, #188, #189), (#190, #191, #192, #193), (#194, #195, #196, #197), (#198, #199, #200, #201), (#202, #203, #204, #205)), .UNSPECIFIED., .T., .F., .U.)
   B_SPLINE_SURFACE_WITH_KNOTS ((6, 6), (4, 4), (0., 1.), (0., 1.), .UNSPECIFIED.)
   SURFACE ()
   GEOMETRIC_REPRESENTATION_ITEM ()
   RATIONAL_B_SPLINE_SURFACE (((5., 5., 5., 5.), (1., 1., 1., 1.), (1., 1., 1., 1.), (1., 1., 1., 1.), (1., 1., 1., 1.), (5., 5., 5., 5.)))
   REPRESENTATION_ITEM ('')
);
#207 = ADVANCED_FACE ('', (#181), #206, .T.);
#208 = CARTESIAN_POINT ('', (75., -4.59242549680257E-15, 4.59242549680257E-15));
#209 = VERTEX_POINT ('', #208);
#210 = CARTESIAN_POINT ('', (75., -4.00000000000023, 9.79717439317937E-16));
#211 = CARTESIAN_POINT ('', (75., -4.59242549680257E-15, 4.59242549680257E-15));
#212 = B_SPLINE_CURVE_WITH_KNOTS ('', 1, (#210, #211), .UNSPECIFIED., .F., .U., (2, 2), (0., 1.), .UNSPECIFIED.);
#213 = EDGE_CURVE ('', #161, #209, #212, .T.);
#214 = ORIENTED_EDGE ('', *, *, #213, .F.);
#215 = ORIENTED_EDGE ('', *, *, #178, .T.);
#216 = ORIENTED_EDGE ('', *, *, #213, .T.);
#217 = EDGE_LOOP ('', (#214, #215, #216));
#218 = FACE_OUTER_BOUND ('', #217, .T.);
#219 = CARTESIAN_POINT ('', (75., -4.00000000000023, 9.79717439317937E-16));
#220 = CARTESIAN_POINT ('', (75., -4.59242549680257E-15, 4.59242549680257E-15));
#221 = CARTESIAN_POINT ('', (75., -4.00000000000021, -16.0000000000009));
#222 = CARTESIAN_POINT ('', (75., -4.59242549680257E-15, 4.59242549680257E-15));
#223 = CARTESIAN_POINT ('', (75., 12.0000000000007, -8.00000000000043));
#224 = CARTESIAN_POINT ('', (75., -4.59242549680257E-15, 4.59242549680257E-15));
#225 = CARTESIAN_POINT ('', (75., 12.0000000000007, 8.00000000000046));
#226 = CARTESIAN_POINT ('', (75., -4.59242549680257E-15, 4.59242549680257E-15));
#227 = CARTESIAN_POINT ('', (75., -4.00000000000024, 16.0000000000009));
#228 = CARTESIAN_POINT ('', (75., -4.59242549680257E-15, 4.59242549680257E-15));
#229 = CARTESIAN_POINT ('', (75., -4.00000000000023, 9.79717439317937E-16));
#230 = CARTESIAN_POINT ('', (75., -4.59242549680257E-15, 4.59242549680257E-15));
#231 = (
   BOUNDED_SURFACE ()
   B_SPLINE_SURFACE (5, 1, ((#219, #220), (#221, #222), (#223, #224), (#225, #226), (#227, #228), (#229, #230)), .UNSPECIFIED., .T., .F., .U.)
   B_SPLINE_SURFACE_WITH_KNOTS ((6, 6), (2, 2), (0., 1.), (0., 1.), .UNSPECIFIED.)
   SURFACE ()
   GEOMETRIC_REPRESENTATION_ITEM ()
   RATIONAL_B_SPLINE_SURFACE (((5., 5.), (1., 1.), (1., 1.), (1., 1.), (1., 1.), (5., 5.)))
   REPRESENTATION_ITEM ('')
);
#232 = ADVANCED_FACE ('', (#218), #231, .T.);
#233 = CLOSED_SHELL ('', (#58, #106, #159, #207, #232));
#234 = MANIFOLD_SOLID_BREP ('', #233);
#235 = (
   LENGTH_UNIT ()
   NAMED_UNIT (*)
   SI_UNIT (.MILLI., .METRE.)
);
#236 = (
   NAMED_UNIT (*)
   SI_UNIT ($, .STERADIAN.)
   SOLID_ANGLE_UNIT ()
);
#237 = (
   NAMED_UNIT (*)
   SI_UNIT ($, .RADIAN.)
   PLANE_ANGLE_UNIT ()
);
#238 = UNCERTAINTY_MEASURE_WITH_UNIT (LENGTH_MEASURE(0.001), #235, 'DISTANCE_ACCURACY_VALUE', '');
#239 = (
   GEOMETRIC_REPRESENTATION_CONTEXT (3)
   GLOBAL_UNCERTAINTY_ASSIGNED_CONTEXT ((#238))
   GLOBAL_UNIT_ASSIGNED_CONTEXT ((#235, #236, #237))
   REPRESENTATION_CONTEXT ('', '3D')
);
#240 = SHAPE_REPRESENTATION ('', (), #239);
#241 = APPLICATION_CONTEXT ('configuration controlled 3D designs of mechanical parts and assemblies');
#242 = APPLICATION_PROTOCOL_DEFINITION ('International Standard', 'config_control_design', 1997, #241);
#243 = MECHANICAL_CONTEXT ('', #241, 'mechanical');
#244 = PRODUCT ('', '', '', (#243));
#245 = PERSON_AND_ORGANIZATION_ROLE ('design_owner');
#246 = PERSON ('', '', $, $, $, $);
#247 = ORGANIZATION ($, '', '');
#248 = PERSON_AND_ORGANIZATION (#246, #247);
#249 = CC_DESIGN_PERSON_AND_ORGANIZATION_ASSIGNMENT (#248, #245, (#244));
#250 = PRODUCT_RELATED_PRODUCT_CATEGORY ('detail', $, (#244));
#251 = PRODUCT_DEFINITION_FORMATION_WITH_SPECIFIED_SOURCE ('', '', #244, .NOT_KNOWN.);
#252 = APPROVAL_STATUS ('approved');
#253 = APPROVAL (#252, '');
#254 = CALENDAR_DATE (2022, 25, 7);
#255 = COORDINATED_UNIVERSAL_TIME_OFFSET (0, $, .AHEAD.);
#256 = LOCAL_TIME (16, 47, 28., #255);
#257 = DATE_AND_TIME (#254, #256);
#258 = APPROVAL_DATE_TIME (#257, #253);
#259 = APPROVAL_ROLE ('');
#260 = PERSON ('', '', $, $, $, $);
#261 = ORGANIZATION ($, '', '');
#262 = PERSON_AND_ORGANIZATION (#260, #261);
#263 = APPROVAL_PERSON_ORGANIZATION (#262, #253, #259);
#264 = CC_DESIGN_APPROVAL (#253, (#251));
#265 = PERSON_AND_ORGANIZATION_ROLE ('creator');
#266 = PERSON ('', '', $, $, $, $);
#267 = ORGANIZATION ($, '', '');
#268 = PERSON_AND_ORGANIZATION (#266, #267);
#269 = CC_DESIGN_PERSON_AND_ORGANIZATION_ASSIGNMENT (#268, #265, (#251));
#270 = PERSON_AND_ORGANIZATION_ROLE ('part_supplier');
#271 = PERSON ('', '', $, $, $, $);
#272 = ORGANIZATION ($, '', '');
#273 = PERSON_AND_ORGANIZATION (#271, #272);
#274 = CC_DESIGN_PERSON_AND_ORGANIZATION_ASSIGNMENT (#273, #270, (#251));
#275 = SECURITY_CLASSIFICATION_LEVEL ('unclassified');
#276 = SECURITY_CLASSIFICATION ('', '', #275);
#277 = APPROVAL_STATUS ('approved');
#278 = APPROVAL (#277, '');
#279 = CALENDAR_DATE (2022, 25, 7);
#280 = COORDINATED_UNIVERSAL_TIME_OFFSET (0, $, .AHEAD.);
#281 = LOCAL_TIME (16, 47, 28., #280);
#282 = DATE_AND_TIME (#279, #281);
#283 = APPROVAL_DATE_TIME (#282, #278);
#284 = APPROVAL_ROLE ('');
#285 = PERSON ('', '', $, $, $, $);
#286 = ORGANIZATION ($, '', '');
#287 = PERSON_AND_ORGANIZATION (#285, #286);
#288 = APPROVAL_PERSON_ORGANIZATION (#287, #278, #284);
#289 = CC_DESIGN_APPROVAL (#278, (#276));
#290 = DATE_TIME_ROLE ('classification_date');
#291 = CALENDAR_DATE (2022, 25, 7);
#292 = COORDINATED_UNIVERSAL_TIME_OFFSET (0, $, .AHEAD.);
#293 = LOCAL_TIME (16, 47, 28., #292);
#294 = DATE_AND_TIME (#291, #293);
#295 = CC_DESIGN_DATE_AND_TIME_ASSIGNMENT (#294, #290, (#276));
#296 = PERSON_AND_ORGANIZATION_ROLE ('classification_officer');
#297 = PERSON ('', '', $, $, $, $);
#298 = ORGANIZATION ($, '', '');
#299 = PERSON_AND_ORGANIZATION (#297, #298);
#300 = CC_DESIGN_PERSON_AND_ORGANIZATION_ASSIGNMENT (#299, #296, (#276));
#301 = CC_DESIGN_SECURITY_CLASSIFICATION (#276, (#251));
#302 = DESIGN_CONTEXT ('', #241, 'design');
#303 = PRODUCT_DEFINITION ('', '', #251, #302);
#304 = APPROVAL_STATUS ('approved');
#305 = APPROVAL (#304, '');
#306 = CALENDAR_DATE (2022, 25, 7);
#307 = COORDINATED_UNIVERSAL_TIME_OFFSET (0, $, .AHEAD.);
#308 = LOCAL_TIME (16, 47, 28., #307);
#309 = DATE_AND_TIME (#306, #308);
#310 = APPROVAL_DATE_TIME (#309, #305);
#311 = APPROVAL_ROLE ('');
#312 = PERSON ('', '', $, $, $, $);
#313 = ORGANIZATION ($, '', '');
#314 = PERSON_AND_ORGANIZATION (#312, #313);
#315 = APPROVAL_PERSON_ORGANIZATION (#314, #305, #311);
#316 = CC_DESIGN_APPROVAL (#305, (#303));
#317 = DATE_TIME_ROLE ('creation_date');
#318 = CALENDAR_DATE (2022, 25, 7);
#319 = COORDINATED_UNIVERSAL_TIME_OFFSET (0, $, .AHEAD.);
#320 = LOCAL_TIME (16, 47, 28., #319);
#321 = DATE_AND_TIME (#318, #320);
#322 = CC_DESIGN_DATE_AND_TIME_ASSIGNMENT (#321, #317, (#303));
#323 = PERSON_AND_ORGANIZATION_ROLE ('creator');
#324 = PERSON ('', '', $, $, $, $);
#325 = ORGANIZATION ($, '', '');
#326 = PERSON_AND_ORGANIZATION (#324, #325);
#327 = CC_DESIGN_PERSON_AND_ORGANIZATION_ASSIGNMENT (#326, #323, (#303));
#328 = PRODUCT_DEFINITION_SHAPE ('', '', #303);
#329 = SHAPE_DEFINITION_REPRESENTATION (#328, #240);
#330 = SHAPE_REPRESENTATION_RELATIONSHIP ('', '', #240, #331);
#331 = ADVANCED_BREP_SHAPE_REPRESENTATION ('', (#234), #239);
ENDSEC;
END-ISO-10303-21;
