ISO-10303-21;
HEADER;
FILE_DESCRIPTION ((), '1');
FILE_NAME ('C:\\Users\\Paul\\Documents\\5AXF102085-AX.STP', '2022-07-25T16:43:49', ('Unknown'), ('M.A. Ford Europe'), 'OneCNC-XR8 Mill 3D Expert', 'OneCNC-XR8 Mill 3D Expert', '');
FILE_SCHEMA (('CONFIG_CONTROL_DESIGN'));
ENDSEC;

DATA;
#1 = CARTESIAN_POINT ('', (75., -5.00000000000011, 1.22464679914738E-15));
#2 = VERTEX_POINT ('', #1);
#3 = CARTESIAN_POINT ('', (75., -4.59242549680257E-15, 4.59242549680257E-15));
#4 = VERTEX_POINT ('', #3);
#5 = CARTESIAN_POINT ('', (75., -5.00000000000011, 1.22464679914738E-15));
#6 = CARTESIAN_POINT ('', (75., -4.59242549680257E-15, 4.59242549680257E-15));
#7 = B_SPLINE_CURVE_WITH_KNOTS ('', 1, (#5, #6), .UNSPECIFIED., .F., .U., (2, 2), (0., 1.), .UNSPECIFIED.);
#8 = EDGE_CURVE ('', #2, #4, #7, .T.);
#9 = ORIENTED_EDGE ('', *, *, #8, .F.);
#10 = CARTESIAN_POINT ('', (75., -5.00000000000011, 1.22464679914738E-15));
#11 = CARTESIAN_POINT ('', (75., -5.0000000000001, -20.0000000000004));
#12 = CARTESIAN_POINT ('', (75., 15.0000000000003, -10.0000000000002));
#13 = CARTESIAN_POINT ('', (75., 15.0000000000003, 10.0000000000002));
#14 = CARTESIAN_POINT ('', (75., -5.00000000000013, 20.0000000000004));
#15 = CARTESIAN_POINT ('', (75., -5.00000000000011, 1.22464679914738E-15));
#16 = (
   BOUNDED_CURVE ()
   B_SPLINE_CURVE (5, (#10, #11, #12, #13, #14, #15), .UNSPECIFIED., .T., .U.)
   B_SPLINE_CURVE_WITH_KNOTS ((6, 6), (0., 1.), .UNSPECIFIED.)
   CURVE ()
   GEOMETRIC_REPRESENTATION_ITEM ()
   RATIONAL_B_SPLINE_CURVE ((5., 1., 1., 1., 1., 5.))
   REPRESENTATION_ITEM ('')
);
#17 = EDGE_CURVE ('', #2, #2, #16, .T.);
#18 = ORIENTED_EDGE ('', *, *, #17, .T.);
#19 = ORIENTED_EDGE ('', *, *, #8, .T.);
#20 = EDGE_LOOP ('', (#9, #18, #19));
#21 = FACE_OUTER_BOUND ('', #20, .T.);
#22 = CARTESIAN_POINT ('', (75., -5.00000000000011, 1.22464679914738E-15));
#23 = CARTESIAN_POINT ('', (75., -4.59242549680257E-15, 4.59242549680257E-15));
#24 = CARTESIAN_POINT ('', (75., -5.0000000000001, -20.0000000000004));
#25 = CARTESIAN_POINT ('', (75., -4.59242549680257E-15, 4.59242549680257E-15));
#26 = CARTESIAN_POINT ('', (75., 15.0000000000003, -10.0000000000002));
#27 = CARTESIAN_POINT ('', (75., -4.59242549680257E-15, 4.59242549680257E-15));
#28 = CARTESIAN_POINT ('', (75., 15.0000000000003, 10.0000000000002));
#29 = CARTESIAN_POINT ('', (75., -4.59242549680257E-15, 4.59242549680257E-15));
#30 = CARTESIAN_POINT ('', (75., -5.00000000000013, 20.0000000000004));
#31 = CARTESIAN_POINT ('', (75., -4.59242549680257E-15, 4.59242549680257E-15));
#32 = CARTESIAN_POINT ('', (75., -5.00000000000011, 1.22464679914738E-15));
#33 = CARTESIAN_POINT ('', (75., -4.59242549680257E-15, 4.59242549680257E-15));
#34 = (
   BOUNDED_SURFACE ()
   B_SPLINE_SURFACE (5, 1, ((#22, #23), (#24, #25), (#26, #27), (#28, #29), (#30, #31), (#32, #33)), .UNSPECIFIED., .T., .F., .U.)
   B_SPLINE_SURFACE_WITH_KNOTS ((6, 6), (2, 2), (0., 1.), (0., 1.), .UNSPECIFIED.)
   SURFACE ()
   GEOMETRIC_REPRESENTATION_ITEM ()
   RATIONAL_B_SPLINE_SURFACE (((5., 5.), (1., 1.), (1., 1.), (1., 1.), (1., 1.), (5., 5.)))
   REPRESENTATION_ITEM ('')
);
#35 = ADVANCED_FACE ('', (#21), #34, .T.);
#36 = CARTESIAN_POINT ('', (26.5000000000039, -5.00000000000011, 1.22464679914738E-15));
#37 = VERTEX_POINT ('', #36);
#38 = CARTESIAN_POINT ('', (26.5000000000039, -5.00000000000011, 1.22464679914738E-15));
#39 = CARTESIAN_POINT ('', (42.6666666666694, -5.00000000000009, 1.22464679914738E-15));
#40 = CARTESIAN_POINT ('', (58.8333333333349, -5.00000000000011, 1.22464679914738E-15));
#41 = CARTESIAN_POINT ('', (75., -5.00000000000011, 1.22464679914738E-15));
#42 = B_SPLINE_CURVE_WITH_KNOTS ('', 3, (#38, #39, #40, #41), .UNSPECIFIED., .F., .U., (4, 4), (0., 1.), .UNSPECIFIED.);
#43 = EDGE_CURVE ('', #37, #2, #42, .T.);
#44 = ORIENTED_EDGE ('', *, *, #43, .F.);
#45 = CARTESIAN_POINT ('', (26.5000000000039, -5.00000000000011, 1.22464679914738E-15));
#46 = CARTESIAN_POINT ('', (26.5000000000039, -5.00000000000011, -20.0000000000004));
#47 = CARTESIAN_POINT ('', (26.5000000000039, 15.0000000000003, -10.0000000000002));
#48 = CARTESIAN_POINT ('', (26.5000000000039, 15.0000000000003, 10.0000000000002));
#49 = CARTESIAN_POINT ('', (26.5000000000039, -5.00000000000012, 20.0000000000004));
#50 = CARTESIAN_POINT ('', (26.5000000000039, -5.00000000000011, 1.22464679914738E-15));
#51 = (
   BOUNDED_CURVE ()
   B_SPLINE_CURVE (5, (#45, #46, #47, #48, #49, #50), .UNSPECIFIED., .T., .U.)
   B_SPLINE_CURVE_WITH_KNOTS ((6, 6), (0., 1.), .UNSPECIFIED.)
   CURVE ()
   GEOMETRIC_REPRESENTATION_ITEM ()
   RATIONAL_B_SPLINE_CURVE ((5., 1., 1., 1., 1., 5.))
   REPRESENTATION_ITEM ('')
);
#52 = EDGE_CURVE ('', #37, #37, #51, .T.);
#53 = ORIENTED_EDGE ('', *, *, #52, .T.);
#54 = ORIENTED_EDGE ('', *, *, #43, .T.);
#55 = ORIENTED_EDGE ('', *, *, #17, .F.);
#56 = EDGE_LOOP ('', (#44, #53, #54, #55));
#57 = FACE_OUTER_BOUND ('', #56, .T.);
#58 = CARTESIAN_POINT ('', (26.5000000000039, -5.00000000000011, 1.22464679914738E-15));
#59 = CARTESIAN_POINT ('', (42.6666666666694, -5.00000000000009, 1.22464679914738E-15));
#60 = CARTESIAN_POINT ('', (58.8333333333349, -5.00000000000011, 1.22464679914738E-15));
#61 = CARTESIAN_POINT ('', (75., -5.00000000000011, 1.22464679914738E-15));
#62 = CARTESIAN_POINT ('', (26.5000000000039, -5.00000000000011, -20.0000000000004));
#63 = CARTESIAN_POINT ('', (42.6666666666694, -5.00000000000009, -20.0000000000004));
#64 = CARTESIAN_POINT ('', (58.8333333333349, -5.0000000000001, -20.0000000000004));
#65 = CARTESIAN_POINT ('', (75., -5.0000000000001, -20.0000000000004));
#66 = CARTESIAN_POINT ('', (26.5000000000039, 15.0000000000003, -10.0000000000002));
#67 = CARTESIAN_POINT ('', (42.6666666666694, 15.0000000000003, -10.0000000000002));
#68 = CARTESIAN_POINT ('', (58.8333333333349, 15.0000000000003, -10.0000000000002));
#69 = CARTESIAN_POINT ('', (75., 15.0000000000003, -10.0000000000002));
#70 = CARTESIAN_POINT ('', (26.5000000000039, 15.0000000000003, 10.0000000000002));
#71 = CARTESIAN_POINT ('', (42.6666666666694, 15.0000000000003, 10.0000000000002));
#72 = CARTESIAN_POINT ('', (58.8333333333349, 15.0000000000003, 10.0000000000002));
#73 = CARTESIAN_POINT ('', (75., 15.0000000000003, 10.0000000000002));
#74 = CARTESIAN_POINT ('', (26.5000000000039, -5.00000000000012, 20.0000000000004));
#75 = CARTESIAN_POINT ('', (42.6666666666694, -5.0000000000001, 20.0000000000004));
#76 = CARTESIAN_POINT ('', (58.8333333333349, -5.00000000000012, 20.0000000000004));
#77 = CARTESIAN_POINT ('', (75., -5.00000000000013, 20.0000000000004));
#78 = CARTESIAN_POINT ('', (26.5000000000039, -5.00000000000011, 1.22464679914738E-15));
#79 = CARTESIAN_POINT ('', (42.6666666666694, -5.00000000000009, 1.22464679914738E-15));
#80 = CARTESIAN_POINT ('', (58.8333333333349, -5.00000000000011, 1.22464679914738E-15));
#81 = CARTESIAN_POINT ('', (75., -5.00000000000011, 1.22464679914738E-15));
#82 = (
   BOUNDED_SURFACE ()
   B_SPLINE_SURFACE (5, 3, ((#58, #59, #60, #61), (#62, #63, #64, #65), (#66, #67, #68, #69), (#70, #71, #72, #73), (#74, #75, #76, #77), (#78, #79, #80, #81)), .UNSPECIFIED., .T., .F., .U.)
   B_SPLINE_SURFACE_WITH_KNOTS ((6, 6), (4, 4), (0., 1.), (0., 1.), .UNSPECIFIED.)
   SURFACE ()
   GEOMETRIC_REPRESENTATION_ITEM ()
   RATIONAL_B_SPLINE_SURFACE (((5., 5., 5., 5.), (1., 1., 1., 1.), (1., 1., 1., 1.), (1., 1., 1., 1.), (1., 1., 1., 1.), (5., 5., 5., 5.)))
   REPRESENTATION_ITEM ('')
);
#83 = ADVANCED_FACE ('', (#57), #82, .T.);
#84 = CARTESIAN_POINT ('', (24.1184727547939, -5.00000000000011, 1.22464679914738E-15));
#85 = VERTEX_POINT ('', #84);
#86 = CARTESIAN_POINT ('', (24.1184727547939, -5.00000000000011, 1.22464679914738E-15));
#87 = CARTESIAN_POINT ('', (24.9123151698639, -5.00000000000012, 1.22464679914738E-15));
#88 = CARTESIAN_POINT ('', (25.7061575849338, -5.00000000000012, 1.22464679914738E-15));
#89 = CARTESIAN_POINT ('', (26.5000000000039, -5.00000000000011, 1.22464679914738E-15));
#90 = B_SPLINE_CURVE_WITH_KNOTS ('', 3, (#86, #87, #88, #89), .UNSPECIFIED., .F., .U., (4, 4), (0., 1.), .UNSPECIFIED.);
#91 = EDGE_CURVE ('', #85, #37, #90, .T.);
#92 = ORIENTED_EDGE ('', *, *, #91, .F.);
#93 = CARTESIAN_POINT ('', (24.1184727547939, -4.99999999999994, 1.22464679914734E-15));
#94 = CARTESIAN_POINT ('', (24.1184727547939, -4.99999999999994, -19.9999999999998));
#95 = CARTESIAN_POINT ('', (24.1184727547939, 14.9999999999998, -9.99999999999988));
#96 = CARTESIAN_POINT ('', (24.1184727547939, 14.9999999999998, 9.99999999999988));
#97 = CARTESIAN_POINT ('', (24.1184727547939, -4.99999999999994, 19.9999999999998));
#98 = CARTESIAN_POINT ('', (24.1184727547939, -4.99999999999994, 1.22464679914734E-15));
#99 = (
   BOUNDED_CURVE ()
   B_SPLINE_CURVE (5, (#93, #94, #95, #96, #97, #98), .UNSPECIFIED., .T., .U.)
   B_SPLINE_CURVE_WITH_KNOTS ((6, 6), (0., 1.), .UNSPECIFIED.)
   CURVE ()
   GEOMETRIC_REPRESENTATION_ITEM ()
   RATIONAL_B_SPLINE_CURVE ((5., 1., 1., 1., 1., 5.))
   REPRESENTATION_ITEM ('')
);
#100 = EDGE_CURVE ('', #85, #85, #99, .T.);
#101 = ORIENTED_EDGE ('', *, *, #100, .T.);
#102 = ORIENTED_EDGE ('', *, *, #91, .T.);
#103 = ORIENTED_EDGE ('', *, *, #52, .F.);
#104 = EDGE_LOOP ('', (#92, #101, #102, #103));
#105 = FACE_OUTER_BOUND ('', #104, .T.);
#106 = CARTESIAN_POINT ('', (24.1184727547939, -5.00000000000011, 1.22464679914738E-15));
#107 = CARTESIAN_POINT ('', (24.9123151698639, -5.00000000000012, 1.22464679914738E-15));
#108 = CARTESIAN_POINT ('', (25.7061575849338, -5.00000000000012, 1.22464679914738E-15));
#109 = CARTESIAN_POINT ('', (26.5000000000039, -5.00000000000011, 1.22464679914738E-15));
#110 = CARTESIAN_POINT ('', (24.1184727547939, -5.00000000000011, -20.0000000000004));
#111 = CARTESIAN_POINT ('', (24.9123151698639, -5.00000000000011, -20.0000000000005));
#112 = CARTESIAN_POINT ('', (25.7061575849338, -5.00000000000012, -20.0000000000005));
#113 = CARTESIAN_POINT ('', (26.5000000000039, -5.00000000000011, -20.0000000000004));
#114 = CARTESIAN_POINT ('', (24.1184727547939, 15.0000000000003, -10.0000000000002));
#115 = CARTESIAN_POINT ('', (24.9123151698639, 15.0000000000003, -10.0000000000002));
#116 = CARTESIAN_POINT ('', (25.7061575849338, 15.0000000000003, -10.0000000000002));
#117 = CARTESIAN_POINT ('', (26.5000000000039, 15.0000000000003, -10.0000000000002));
#118 = CARTESIAN_POINT ('', (24.1184727547939, 15.0000000000003, 10.0000000000002));
#119 = CARTESIAN_POINT ('', (24.9123151698639, 15.0000000000003, 10.0000000000002));
#120 = CARTESIAN_POINT ('', (25.7061575849338, 15.0000000000003, 10.0000000000002));
#121 = CARTESIAN_POINT ('', (26.5000000000039, 15.0000000000003, 10.0000000000002));
#122 = CARTESIAN_POINT ('', (24.1184727547939, -5.00000000000011, 20.0000000000004));
#123 = CARTESIAN_POINT ('', (24.9123151698639, -5.00000000000012, 20.0000000000005));
#124 = CARTESIAN_POINT ('', (25.7061575849338, -5.00000000000012, 20.0000000000005));
#125 = CARTESIAN_POINT ('', (26.5000000000039, -5.00000000000012, 20.0000000000004));
#126 = CARTESIAN_POINT ('', (24.1184727547939, -5.00000000000011, 1.22464679914738E-15));
#127 = CARTESIAN_POINT ('', (24.9123151698639, -5.00000000000012, 1.22464679914738E-15));
#128 = CARTESIAN_POINT ('', (25.7061575849338, -5.00000000000012, 1.22464679914738E-15));
#129 = CARTESIAN_POINT ('', (26.5000000000039, -5.00000000000011, 1.22464679914738E-15));
#130 = (
   BOUNDED_SURFACE ()
   B_SPLINE_SURFACE (5, 3, ((#106, #107, #108, #109), (#110, #111, #112, #113), (#114, #115, #116, #117), (#118, #119, #120, #121), (#122, #123, #124, #125), (#126, #127, #128, #129)), .UNSPECIFIED., .T., .F., .U.)
   B_SPLINE_SURFACE_WITH_KNOTS ((6, 6), (4, 4), (0., 1.), (0., 1.), .UNSPECIFIED.)
   SURFACE ()
   GEOMETRIC_REPRESENTATION_ITEM ()
   RATIONAL_B_SPLINE_SURFACE (((5., 5., 5., 5.), (1., 1., 1., 1.), (1., 1., 1., 1.), (1., 1., 1., 1.), (1., 1., 1., 1.), (5., 5., 5., 5.)))
   REPRESENTATION_ITEM ('')
);
#131 = ADVANCED_FACE ('', (#105), #130, .T.);
#132 = CARTESIAN_POINT ('', (-1.49975978266186E-32, 9.18338008663387E-49, -9.18338008663387E-49));
#133 = VERTEX_POINT ('', #132);
#134 = CARTESIAN_POINT ('', (1.39530757066589, -1.90639635593074, 4.66932439039352E-16));
#135 = VERTEX_POINT ('', #134);
#136 = CARTESIAN_POINT ('', (-1.49975978266186E-32, 9.18338008663387E-49, -9.18338008663387E-49));
#137 = CARTESIAN_POINT ('', (-1.4198749714943E-17, -0.231883180110848, 5.67949988597719E-17));
#138 = CARTESIAN_POINT ('', (0.0789681077390516, -0.68017588194192, 1.6659504333548E-16));
#139 = CARTESIAN_POINT ('', (0.381081646785379, -1.22001032538006, 2.98816347980681E-16));
#140 = CARTESIAN_POINT ('', (0.819822574563396, -1.65105983683164, 4.04393028875323E-16));
#141 = CARTESIAN_POINT ('', (1.17427694588341, -1.83628735417927, 4.4976068612208E-16));
#142 = CARTESIAN_POINT ('', (1.39530757066589, -1.90639635593074, 4.66932439039352E-16));
#143 = B_SPLINE_CURVE_WITH_KNOTS ('', 3, (#136, #137, #138, #139, #140, #141, #142), .UNSPECIFIED., .F., .U., (4, 1, 1, 1, 4), (0., 0.275255519481367, 0.532319204979209, 0.724744480518633, 1.), .UNSPECIFIED.);
#144 = EDGE_CURVE ('', #133, #135, #143, .T.);
#145 = ORIENTED_EDGE ('', *, *, #144, .F.);
#146 = ORIENTED_EDGE ('', *, *, #144, .T.);
#147 = CARTESIAN_POINT ('', (1.39530757066589, -1.90639635593074, 4.66932439039352E-16));
#148 = CARTESIAN_POINT ('', (1.39530757066589, -1.90639635593074, -7.62558542372296));
#149 = CARTESIAN_POINT ('', (1.39530757066589, 5.71918906779222, -3.81279271186148));
#150 = CARTESIAN_POINT ('', (1.39530757066589, 5.71918906779222, 3.81279271186148));
#151 = CARTESIAN_POINT ('', (1.39530757066589, -1.90639635593074, 7.62558542372296));
#152 = CARTESIAN_POINT ('', (1.39530757066589, -1.90639635593074, 4.66932439039352E-16));
#153 = (
   BOUNDED_CURVE ()
   B_SPLINE_CURVE (5, (#147, #148, #149, #150, #151, #152), .UNSPECIFIED., .T., .U.)
   B_SPLINE_CURVE_WITH_KNOTS ((6, 6), (0., 1.), .UNSPECIFIED.)
   CURVE ()
   GEOMETRIC_REPRESENTATION_ITEM ()
   RATIONAL_B_SPLINE_CURVE ((5., 1., 1., 1., 1., 5.))
   REPRESENTATION_ITEM ('')
);
#154 = EDGE_CURVE ('', #135, #135, #153, .T.);
#155 = ORIENTED_EDGE ('', *, *, #154, .F.);
#156 = EDGE_LOOP ('', (#145, #146, #155));
#157 = FACE_OUTER_BOUND ('', #156, .T.);
#158 = CARTESIAN_POINT ('', (-1.49975978266186E-32, 9.18338008663387E-49, -9.18338008663387E-49));
#159 = CARTESIAN_POINT ('', (-1.4198749714943E-17, -0.231883180110848, 5.67949988597719E-17));
#160 = CARTESIAN_POINT ('', (0.0789681077390516, -0.68017588194192, 1.6659504333548E-16));
#161 = CARTESIAN_POINT ('', (0.381081646785379, -1.22001032538006, 2.98816347980681E-16));
#162 = CARTESIAN_POINT ('', (0.819822574563396, -1.65105983683164, 4.04393028875323E-16));
#163 = CARTESIAN_POINT ('', (1.17427694588341, -1.83628735417927, 4.4976068612208E-16));
#164 = CARTESIAN_POINT ('', (1.39530757066589, -1.90639635593074, 4.66932439039352E-16));
#165 = CARTESIAN_POINT ('', (-1.49975978266186E-32, 9.18338008663387E-49, -9.18338008663387E-49));
#166 = CARTESIAN_POINT ('', (4.25962491448289E-17, -0.231883180110849, -0.927532720443393));
#167 = CARTESIAN_POINT ('', (0.0789681077390518, -0.68017588194192, -2.72070352776768));
#168 = CARTESIAN_POINT ('', (0.381081646785379, -1.22001032538006, -4.88004130152022));
#169 = CARTESIAN_POINT ('', (0.819822574563396, -1.65105983683164, -6.60423934732654));
#170 = CARTESIAN_POINT ('', (1.17427694588341, -1.83628735417927, -7.34514941671707));
#171 = CARTESIAN_POINT ('', (1.39530757066589, -1.90639635593074, -7.62558542372296));
#172 = CARTESIAN_POINT ('', (-1.49975978266186E-32, 9.18338008663387E-49, -9.18338008663387E-49));
#173 = CARTESIAN_POINT ('', (7.09937485747149E-17, 0.695649540332545, -0.463766360221697));
#174 = CARTESIAN_POINT ('', (0.0789681077390519, 2.04052764582576, -1.36035176388384));
#175 = CARTESIAN_POINT ('', (0.38108164678538, 3.66003097614017, -2.44002065076011));
#176 = CARTESIAN_POINT ('', (0.819822574563397, 4.95317951049491, -3.30211967366327));
#177 = CARTESIAN_POINT ('', (1.17427694588341, 5.5088620625378, -3.67257470835853));
#178 = CARTESIAN_POINT ('', (1.39530757066589, 5.71918906779222, -3.81279271186148));
#179 = CARTESIAN_POINT ('', (-1.49975978266186E-32, 9.18338008663387E-49, -9.18338008663387E-49));
#180 = CARTESIAN_POINT ('', (1.4198749714943E-17, 0.695649540332545, 0.463766360221696));
#181 = CARTESIAN_POINT ('', (0.0789681077390517, 2.04052764582576, 1.36035176388384));
#182 = CARTESIAN_POINT ('', (0.381081646785379, 3.66003097614017, 2.44002065076011));
#183 = CARTESIAN_POINT ('', (0.819822574563396, 4.95317951049491, 3.30211967366327));
#184 = CARTESIAN_POINT ('', (1.17427694588341, 5.5088620625378, 3.67257470835853));
#185 = CARTESIAN_POINT ('', (1.39530757066589, 5.71918906779222, 3.81279271186148));
#186 = CARTESIAN_POINT ('', (-1.49975978266186E-32, 9.18338008663387E-49, -9.18338008663387E-49));
#187 = CARTESIAN_POINT ('', (-7.09937485747149E-17, -0.231883180110848, 0.927532720443393));
#188 = CARTESIAN_POINT ('', (0.0789681077390515, -0.680175881941919, 2.72070352776768));
#189 = CARTESIAN_POINT ('', (0.381081646785379, -1.22001032538005, 4.88004130152022));
#190 = CARTESIAN_POINT ('', (0.819822574563396, -1.65105983683163, 6.60423934732654));
#191 = CARTESIAN_POINT ('', (1.17427694588341, -1.83628735417926, 7.34514941671707));
#192 = CARTESIAN_POINT ('', (1.39530757066589, -1.90639635593074, 7.62558542372296));
#193 = CARTESIAN_POINT ('', (-1.49975978266186E-32, 9.18338008663387E-49, -9.18338008663387E-49));
#194 = CARTESIAN_POINT ('', (-1.4198749714943E-17, -0.231883180110848, 5.67949988597719E-17));
#195 = CARTESIAN_POINT ('', (0.0789681077390516, -0.68017588194192, 1.6659504333548E-16));
#196 = CARTESIAN_POINT ('', (0.381081646785379, -1.22001032538006, 2.98816347980681E-16));
#197 = CARTESIAN_POINT ('', (0.819822574563396, -1.65105983683164, 4.04393028875323E-16));
#198 = CARTESIAN_POINT ('', (1.17427694588341, -1.83628735417927, 4.4976068612208E-16));
#199 = CARTESIAN_POINT ('', (1.39530757066589, -1.90639635593074, 4.66932439039352E-16));
#200 = (
   BOUNDED_SURFACE ()
   B_SPLINE_SURFACE (5, 3, ((#158, #159, #160, #161, #162, #163, #164), (#165, #166, #167, #168, #169, #170, #171), (#172, #173, #174, #175, #176, #177, #178), (#179, #180, #181, #182, #183, #184, #185), (#186, #187, #188, #189, #190, #191, #192), (#193, #194, #195, #196, #197, #198, #199)), .UNSPECIFIED., .T., .F., .U.)
   B_SPLINE_SURFACE_WITH_KNOTS ((6, 6), (4, 1, 1, 1, 4), (0., 1.), (0., 0.275255519481367, 0.532319204979209, 0.724744480518633, 1.), .UNSPECIFIED.)
   SURFACE ()
   GEOMETRIC_REPRESENTATION_ITEM ()
   RATIONAL_B_SPLINE_SURFACE (((5., 5., 5., 5., 5., 5., 5.), (1., 1., 1., 1., 1., 1., 1.), (1., 1., 1., 1., 1., 1., 1.), (1., 1., 1., 1., 1., 1., 1.), (1., 1., 1., 1., 1., 1., 1.), (5., 5., 5., 5., 5., 5., 5.)))
   REPRESENTATION_ITEM ('')
);
#201 = ADVANCED_FACE ('', (#157), #200, .T.);
#202 = CARTESIAN_POINT ('', (1.39530757066598, -1.90639635593075, 4.66932439039355E-16));
#203 = CARTESIAN_POINT ('', (5.3208351737516, -2.99544942294814, 7.33673509564245E-16));
#204 = CARTESIAN_POINT ('', (12.8570348783834, -4.51288354265264, 1.10533767708686E-15));
#205 = CARTESIAN_POINT ('', (20.5246293210375, -4.99999999999994, 1.22464679914734E-15));
#206 = CARTESIAN_POINT ('', (24.1184727547939, -4.99999999999994, 1.22464679914734E-15));
#207 = B_SPLINE_CURVE_WITH_KNOTS ('', 3, (#202, #203, #204, #205, #206), .UNSPECIFIED., .F., .U., (4, 1, 4), (0., 0.531297205929822, 1.), .UNSPECIFIED.);
#208 = EDGE_CURVE ('', #135, #85, #207, .T.);
#209 = ORIENTED_EDGE ('', *, *, #208, .F.);
#210 = ORIENTED_EDGE ('', *, *, #154, .T.);
#211 = ORIENTED_EDGE ('', *, *, #208, .T.);
#212 = ORIENTED_EDGE ('', *, *, #100, .F.);
#213 = EDGE_LOOP ('', (#209, #210, #211, #212));
#214 = FACE_OUTER_BOUND ('', #213, .T.);
#215 = CARTESIAN_POINT ('', (1.39530757066598, -1.90639635593075, 4.66932439039355E-16));
#216 = CARTESIAN_POINT ('', (5.3208351737516, -2.99544942294814, 7.33673509564245E-16));
#217 = CARTESIAN_POINT ('', (12.8570348783834, -4.51288354265264, 1.10533767708686E-15));
#218 = CARTESIAN_POINT ('', (20.5246293210375, -4.99999999999994, 1.22464679914734E-15));
#219 = CARTESIAN_POINT ('', (24.1184727547939, -4.99999999999994, 1.22464679914734E-15));
#220 = CARTESIAN_POINT ('', (1.39530757066598, -1.90639635593075, -7.62558542372301));
#221 = CARTESIAN_POINT ('', (5.3208351737516, -2.99544942294814, -11.9817976917926));
#222 = CARTESIAN_POINT ('', (12.8570348783834, -4.51288354265264, -18.0515341706106));
#223 = CARTESIAN_POINT ('', (20.5246293210375, -4.99999999999994, -19.9999999999998));
#224 = CARTESIAN_POINT ('', (24.1184727547939, -4.99999999999994, -19.9999999999998));
#225 = CARTESIAN_POINT ('', (1.39530757066598, 5.71918906779226, -3.81279271186151));
#226 = CARTESIAN_POINT ('', (5.3208351737516, 8.98634826884442, -5.99089884589628));
#227 = CARTESIAN_POINT ('', (12.8570348783834, 13.5386506279579, -9.02576708530528));
#228 = CARTESIAN_POINT ('', (20.5246293210375, 14.9999999999998, -9.99999999999988));
#229 = CARTESIAN_POINT ('', (24.1184727547939, 14.9999999999998, -9.99999999999988));
#230 = CARTESIAN_POINT ('', (1.39530757066598, 5.71918906779226, 3.8127927118615));
#231 = CARTESIAN_POINT ('', (5.3208351737516, 8.98634826884442, 5.99089884589628));
#232 = CARTESIAN_POINT ('', (12.8570348783834, 13.5386506279579, 9.02576708530528));
#233 = CARTESIAN_POINT ('', (20.5246293210375, 14.9999999999998, 9.99999999999988));
#234 = CARTESIAN_POINT ('', (24.1184727547939, 14.9999999999998, 9.99999999999988));
#235 = CARTESIAN_POINT ('', (1.39530757066598, -1.90639635593075, 7.62558542372301));
#236 = CARTESIAN_POINT ('', (5.3208351737516, -2.99544942294814, 11.9817976917926));
#237 = CARTESIAN_POINT ('', (12.8570348783834, -4.51288354265264, 18.0515341706106));
#238 = CARTESIAN_POINT ('', (20.5246293210375, -4.99999999999994, 19.9999999999998));
#239 = CARTESIAN_POINT ('', (24.1184727547939, -4.99999999999994, 19.9999999999998));
#240 = CARTESIAN_POINT ('', (1.39530757066598, -1.90639635593075, 4.66932439039355E-16));
#241 = CARTESIAN_POINT ('', (5.3208351737516, -2.99544942294814, 7.33673509564245E-16));
#242 = CARTESIAN_POINT ('', (12.8570348783834, -4.51288354265264, 1.10533767708686E-15));
#243 = CARTESIAN_POINT ('', (20.5246293210375, -4.99999999999994, 1.22464679914734E-15));
#244 = CARTESIAN_POINT ('', (24.1184727547939, -4.99999999999994, 1.22464679914734E-15));
#245 = (
   BOUNDED_SURFACE ()
   B_SPLINE_SURFACE (5, 3, ((#215, #216, #217, #218, #219), (#220, #221, #222, #223, #224), (#225, #226, #227, #228, #229), (#230, #231, #232, #233, #234), (#235, #236, #237, #238, #239), (#240, #241, #242, #243, #244)), .UNSPECIFIED., .T., .F., .U.)
   B_SPLINE_SURFACE_WITH_KNOTS ((6, 6), (4, 1, 4), (0., 1.), (0., 0.531297205929822, 1.), .UNSPECIFIED.)
   SURFACE ()
   GEOMETRIC_REPRESENTATION_ITEM ()
   RATIONAL_B_SPLINE_SURFACE (((5., 5., 5., 5., 5.), (1., 1., 1., 1., 1.), (1., 1., 1., 1., 1.), (1., 1., 1., 1., 1.), (1., 1., 1., 1., 1.), (5., 5., 5., 5., 5.)))
   REPRESENTATION_ITEM ('')
);
#246 = ADVANCED_FACE ('', (#214), #245, .T.);
#247 = CLOSED_SHELL ('', (#35, #83, #131, #201, #246));
#248 = MANIFOLD_SOLID_BREP ('', #247);
#249 = (
   LENGTH_UNIT ()
   NAMED_UNIT (*)
   SI_UNIT (.MILLI., .METRE.)
);
#250 = (
   NAMED_UNIT (*)
   SI_UNIT ($, .STERADIAN.)
   SOLID_ANGLE_UNIT ()
);
#251 = (
   NAMED_UNIT (*)
   SI_UNIT ($, .RADIAN.)
   PLANE_ANGLE_UNIT ()
);
#252 = UNCERTAINTY_MEASURE_WITH_UNIT (LENGTH_MEASURE(0.001), #249, 'DISTANCE_ACCURACY_VALUE', '');
#253 = (
   GEOMETRIC_REPRESENTATION_CONTEXT (3)
   GLOBAL_UNCERTAINTY_ASSIGNED_CONTEXT ((#252))
   GLOBAL_UNIT_ASSIGNED_CONTEXT ((#249, #250, #251))
   REPRESENTATION_CONTEXT ('', '3D')
);
#254 = SHAPE_REPRESENTATION ('', (), #253);
#255 = APPLICATION_CONTEXT ('configuration controlled 3D designs of mechanical parts and assemblies');
#256 = APPLICATION_PROTOCOL_DEFINITION ('International Standard', 'config_control_design', 1997, #255);
#257 = MECHANICAL_CONTEXT ('', #255, 'mechanical');
#258 = PRODUCT ('', '', '', (#257));
#259 = PERSON_AND_ORGANIZATION_ROLE ('design_owner');
#260 = PERSON ('', '', $, $, $, $);
#261 = ORGANIZATION ($, '', '');
#262 = PERSON_AND_ORGANIZATION (#260, #261);
#263 = CC_DESIGN_PERSON_AND_ORGANIZATION_ASSIGNMENT (#262, #259, (#258));
#264 = PRODUCT_RELATED_PRODUCT_CATEGORY ('detail', $, (#258));
#265 = PRODUCT_DEFINITION_FORMATION_WITH_SPECIFIED_SOURCE ('', '', #258, .NOT_KNOWN.);
#266 = APPROVAL_STATUS ('approved');
#267 = APPROVAL (#266, '');
#268 = CALENDAR_DATE (2022, 25, 7);
#269 = COORDINATED_UNIVERSAL_TIME_OFFSET (0, $, .AHEAD.);
#270 = LOCAL_TIME (16, 43, 49., #269);
#271 = DATE_AND_TIME (#268, #270);
#272 = APPROVAL_DATE_TIME (#271, #267);
#273 = APPROVAL_ROLE ('');
#274 = PERSON ('', '', $, $, $, $);
#275 = ORGANIZATION ($, '', '');
#276 = PERSON_AND_ORGANIZATION (#274, #275);
#277 = APPROVAL_PERSON_ORGANIZATION (#276, #267, #273);
#278 = CC_DESIGN_APPROVAL (#267, (#265));
#279 = PERSON_AND_ORGANIZATION_ROLE ('creator');
#280 = PERSON ('', '', $, $, $, $);
#281 = ORGANIZATION ($, '', '');
#282 = PERSON_AND_ORGANIZATION (#280, #281);
#283 = CC_DESIGN_PERSON_AND_ORGANIZATION_ASSIGNMENT (#282, #279, (#265));
#284 = PERSON_AND_ORGANIZATION_ROLE ('part_supplier');
#285 = PERSON ('', '', $, $, $, $);
#286 = ORGANIZATION ($, '', '');
#287 = PERSON_AND_ORGANIZATION (#285, #286);
#288 = CC_DESIGN_PERSON_AND_ORGANIZATION_ASSIGNMENT (#287, #284, (#265));
#289 = SECURITY_CLASSIFICATION_LEVEL ('unclassified');
#290 = SECURITY_CLASSIFICATION ('', '', #289);
#291 = APPROVAL_STATUS ('approved');
#292 = APPROVAL (#291, '');
#293 = CALENDAR_DATE (2022, 25, 7);
#294 = COORDINATED_UNIVERSAL_TIME_OFFSET (0, $, .AHEAD.);
#295 = LOCAL_TIME (16, 43, 49., #294);
#296 = DATE_AND_TIME (#293, #295);
#297 = APPROVAL_DATE_TIME (#296, #292);
#298 = APPROVAL_ROLE ('');
#299 = PERSON ('', '', $, $, $, $);
#300 = ORGANIZATION ($, '', '');
#301 = PERSON_AND_ORGANIZATION (#299, #300);
#302 = APPROVAL_PERSON_ORGANIZATION (#301, #292, #298);
#303 = CC_DESIGN_APPROVAL (#292, (#290));
#304 = DATE_TIME_ROLE ('classification_date');
#305 = CALENDAR_DATE (2022, 25, 7);
#306 = COORDINATED_UNIVERSAL_TIME_OFFSET (0, $, .AHEAD.);
#307 = LOCAL_TIME (16, 43, 49., #306);
#308 = DATE_AND_TIME (#305, #307);
#309 = CC_DESIGN_DATE_AND_TIME_ASSIGNMENT (#308, #304, (#290));
#310 = PERSON_AND_ORGANIZATION_ROLE ('classification_officer');
#311 = PERSON ('', '', $, $, $, $);
#312 = ORGANIZATION ($, '', '');
#313 = PERSON_AND_ORGANIZATION (#311, #312);
#314 = CC_DESIGN_PERSON_AND_ORGANIZATION_ASSIGNMENT (#313, #310, (#290));
#315 = CC_DESIGN_SECURITY_CLASSIFICATION (#290, (#265));
#316 = DESIGN_CONTEXT ('', #255, 'design');
#317 = PRODUCT_DEFINITION ('', '', #265, #316);
#318 = APPROVAL_STATUS ('approved');
#319 = APPROVAL (#318, '');
#320 = CALENDAR_DATE (2022, 25, 7);
#321 = COORDINATED_UNIVERSAL_TIME_OFFSET (0, $, .AHEAD.);
#322 = LOCAL_TIME (16, 43, 49., #321);
#323 = DATE_AND_TIME (#320, #322);
#324 = APPROVAL_DATE_TIME (#323, #319);
#325 = APPROVAL_ROLE ('');
#326 = PERSON ('', '', $, $, $, $);
#327 = ORGANIZATION ($, '', '');
#328 = PERSON_AND_ORGANIZATION (#326, #327);
#329 = APPROVAL_PERSON_ORGANIZATION (#328, #319, #325);
#330 = CC_DESIGN_APPROVAL (#319, (#317));
#331 = DATE_TIME_ROLE ('creation_date');
#332 = CALENDAR_DATE (2022, 25, 7);
#333 = COORDINATED_UNIVERSAL_TIME_OFFSET (0, $, .AHEAD.);
#334 = LOCAL_TIME (16, 43, 49., #333);
#335 = DATE_AND_TIME (#332, #334);
#336 = CC_DESIGN_DATE_AND_TIME_ASSIGNMENT (#335, #331, (#317));
#337 = PERSON_AND_ORGANIZATION_ROLE ('creator');
#338 = PERSON ('', '', $, $, $, $);
#339 = ORGANIZATION ($, '', '');
#340 = PERSON_AND_ORGANIZATION (#338, #339);
#341 = CC_DESIGN_PERSON_AND_ORGANIZATION_ASSIGNMENT (#340, #337, (#317));
#342 = PRODUCT_DEFINITION_SHAPE ('', '', #317);
#343 = SHAPE_DEFINITION_REPRESENTATION (#342, #254);
#344 = SHAPE_REPRESENTATION_RELATIONSHIP ('', '', #254, #345);
#345 = ADVANCED_BREP_SHAPE_REPRESENTATION ('', (#248), #253);
ENDSEC;
END-ISO-10303-21;
