ISO-10303-21;
HEADER;
FILE_DESCRIPTION ((), '1');
FILE_NAME ('C:\\Users\\Paul\\MAFord Europe\\MAFEU Sales Team - Documents\\STEP Files\\5AXF\\5AXFD060605-AX.STP', '2022-07-25T17:58:07', ('Unknown'), ('M.A. Ford Europe'), 'OneCNC-XR8 Mill 3D Expert', 'OneCNC-XR8 Mill 3D Expert', '');
FILE_SCHEMA (('CONFIG_CONTROL_DESIGN'));
ENDSEC;

DATA;
#1 = CARTESIAN_POINT ('', (60., -2.63637011567499, 6.45724444705822E-16));
#2 = VERTEX_POINT ('', #1);
#3 = CARTESIAN_POINT ('', (60., -3.67394039744206E-15, 3.67394039744206E-15));
#4 = VERTEX_POINT ('', #3);
#5 = CARTESIAN_POINT ('', (60., -2.63637011567499, 6.45724444705822E-16));
#6 = CARTESIAN_POINT ('', (60., -3.67394039744206E-15, 3.67394039744206E-15));
#7 = B_SPLINE_CURVE_WITH_KNOTS ('', 1, (#5, #6), .UNSPECIFIED., .F., .U., (2, 2), (0., 1.), .UNSPECIFIED.);
#8 = EDGE_CURVE ('', #2, #4, #7, .T.);
#9 = ORIENTED_EDGE ('', *, *, #8, .F.);
#10 = CARTESIAN_POINT ('', (60., -2.63637011567499, 6.45724444705822E-16));
#11 = CARTESIAN_POINT ('', (60., -2.63637011567498, -10.5454804627));
#12 = CARTESIAN_POINT ('', (60., 7.90911034702497, -5.27274023134997));
#13 = CARTESIAN_POINT ('', (60., 7.90911034702496, 5.27274023134999));
#14 = CARTESIAN_POINT ('', (60., -2.636370115675, 10.5454804627));
#15 = CARTESIAN_POINT ('', (60., -2.63637011567499, 6.45724444705822E-16));
#16 = (
   BOUNDED_CURVE ()
   B_SPLINE_CURVE (5, (#10, #11, #12, #13, #14, #15), .UNSPECIFIED., .T., .U.)
   B_SPLINE_CURVE_WITH_KNOTS ((6, 6), (0., 1.), .UNSPECIFIED.)
   CURVE ()
   GEOMETRIC_REPRESENTATION_ITEM ()
   RATIONAL_B_SPLINE_CURVE ((5., 1., 1., 1., 1., 5.))
   REPRESENTATION_ITEM ('')
);
#17 = EDGE_CURVE ('', #2, #2, #16, .T.);
#18 = ORIENTED_EDGE ('', *, *, #17, .T.);
#19 = ORIENTED_EDGE ('', *, *, #8, .T.);
#20 = EDGE_LOOP ('', (#9, #18, #19));
#21 = FACE_OUTER_BOUND ('', #20, .T.);
#22 = CARTESIAN_POINT ('', (60., -2.63637011567499, 6.45724444705822E-16));
#23 = CARTESIAN_POINT ('', (60., -3.67394039744206E-15, 3.67394039744206E-15));
#24 = CARTESIAN_POINT ('', (60., -2.63637011567498, -10.5454804627));
#25 = CARTESIAN_POINT ('', (60., -3.67394039744206E-15, 3.67394039744206E-15));
#26 = CARTESIAN_POINT ('', (60., 7.90911034702497, -5.27274023134997));
#27 = CARTESIAN_POINT ('', (60., -3.67394039744206E-15, 3.67394039744206E-15));
#28 = CARTESIAN_POINT ('', (60., 7.90911034702496, 5.27274023134999));
#29 = CARTESIAN_POINT ('', (60., -3.67394039744206E-15, 3.67394039744206E-15));
#30 = CARTESIAN_POINT ('', (60., -2.636370115675, 10.5454804627));
#31 = CARTESIAN_POINT ('', (60., -3.67394039744206E-15, 3.67394039744206E-15));
#32 = CARTESIAN_POINT ('', (60., -2.63637011567499, 6.45724444705822E-16));
#33 = CARTESIAN_POINT ('', (60., -3.67394039744206E-15, 3.67394039744206E-15));
#34 = (
   BOUNDED_SURFACE ()
   B_SPLINE_SURFACE (5, 1, ((#22, #23), (#24, #25), (#26, #27), (#28, #29), (#30, #31), (#32, #33)), .UNSPECIFIED., .T., .F., .U.)
   B_SPLINE_SURFACE_WITH_KNOTS ((6, 6), (2, 2), (0., 1.), (0., 1.), .UNSPECIFIED.)
   SURFACE ()
   GEOMETRIC_REPRESENTATION_ITEM ()
   RATIONAL_B_SPLINE_SURFACE (((5., 5.), (1., 1.), (1., 1.), (1., 1.), (1., 1.), (5., 5.)))
   REPRESENTATION_ITEM ('')
);
#35 = ADVANCED_FACE ('', (#21), #34, .T.);
#36 = CARTESIAN_POINT ('', (20.8, -2.63637011567499, 6.45724444705823E-16));
#37 = VERTEX_POINT ('', #36);
#38 = CARTESIAN_POINT ('', (20.8, -2.63637011567499, 6.45724444705823E-16));
#39 = CARTESIAN_POINT ('', (33.8666666666667, -2.63637011567499, 6.45724444705823E-16));
#40 = CARTESIAN_POINT ('', (46.9333333333334, -2.63637011567501, 6.45724444705826E-16));
#41 = CARTESIAN_POINT ('', (60., -2.63637011567499, 6.45724444705822E-16));
#42 = B_SPLINE_CURVE_WITH_KNOTS ('', 3, (#38, #39, #40, #41), .UNSPECIFIED., .F., .U., (4, 4), (0., 1.), .UNSPECIFIED.);
#43 = EDGE_CURVE ('', #37, #2, #42, .T.);
#44 = ORIENTED_EDGE ('', *, *, #43, .F.);
#45 = CARTESIAN_POINT ('', (20.8, -2.63637011567499, 6.45724444705823E-16));
#46 = CARTESIAN_POINT ('', (20.8, -2.63637011567499, -10.5454804627));
#47 = CARTESIAN_POINT ('', (20.8, 7.90911034702497, -5.27274023134998));
#48 = CARTESIAN_POINT ('', (20.8, 7.90911034702497, 5.27274023134999));
#49 = CARTESIAN_POINT ('', (20.8, -2.636370115675, 10.5454804627));
#50 = CARTESIAN_POINT ('', (20.8, -2.63637011567499, 6.45724444705823E-16));
#51 = (
   BOUNDED_CURVE ()
   B_SPLINE_CURVE (5, (#45, #46, #47, #48, #49, #50), .UNSPECIFIED., .T., .U.)
   B_SPLINE_CURVE_WITH_KNOTS ((6, 6), (0., 1.), .UNSPECIFIED.)
   CURVE ()
   GEOMETRIC_REPRESENTATION_ITEM ()
   RATIONAL_B_SPLINE_CURVE ((5., 1., 1., 1., 1., 5.))
   REPRESENTATION_ITEM ('')
);
#52 = EDGE_CURVE ('', #37, #37, #51, .T.);
#53 = ORIENTED_EDGE ('', *, *, #52, .T.);
#54 = ORIENTED_EDGE ('', *, *, #43, .T.);
#55 = ORIENTED_EDGE ('', *, *, #17, .F.);
#56 = EDGE_LOOP ('', (#44, #53, #54, #55));
#57 = FACE_OUTER_BOUND ('', #56, .T.);
#58 = CARTESIAN_POINT ('', (20.8, -2.63637011567499, 6.45724444705823E-16));
#59 = CARTESIAN_POINT ('', (33.8666666666667, -2.63637011567499, 6.45724444705823E-16));
#60 = CARTESIAN_POINT ('', (46.9333333333334, -2.63637011567501, 6.45724444705826E-16));
#61 = CARTESIAN_POINT ('', (60., -2.63637011567499, 6.45724444705822E-16));
#62 = CARTESIAN_POINT ('', (20.8, -2.63637011567499, -10.5454804627));
#63 = CARTESIAN_POINT ('', (33.8666666666667, -2.63637011567499, -10.5454804627));
#64 = CARTESIAN_POINT ('', (46.9333333333334, -2.636370115675, -10.5454804627));
#65 = CARTESIAN_POINT ('', (60., -2.63637011567498, -10.5454804627));
#66 = CARTESIAN_POINT ('', (20.8, 7.90911034702497, -5.27274023134998));
#67 = CARTESIAN_POINT ('', (33.8666666666667, 7.90911034702497, -5.27274023134997));
#68 = CARTESIAN_POINT ('', (46.9333333333334, 7.90911034702501, -5.27274023135));
#69 = CARTESIAN_POINT ('', (60., 7.90911034702497, -5.27274023134997));
#70 = CARTESIAN_POINT ('', (20.8, 7.90911034702497, 5.27274023134999));
#71 = CARTESIAN_POINT ('', (33.8666666666667, 7.90911034702496, 5.27274023134999));
#72 = CARTESIAN_POINT ('', (46.9333333333334, 7.909110347025, 5.27274023135002));
#73 = CARTESIAN_POINT ('', (60., 7.90911034702496, 5.27274023134999));
#74 = CARTESIAN_POINT ('', (20.8, -2.636370115675, 10.5454804627));
#75 = CARTESIAN_POINT ('', (33.8666666666667, -2.636370115675, 10.5454804627));
#76 = CARTESIAN_POINT ('', (46.9333333333334, -2.63637011567501, 10.5454804627));
#77 = CARTESIAN_POINT ('', (60., -2.636370115675, 10.5454804627));
#78 = CARTESIAN_POINT ('', (20.8, -2.63637011567499, 6.45724444705823E-16));
#79 = CARTESIAN_POINT ('', (33.8666666666667, -2.63637011567499, 6.45724444705823E-16));
#80 = CARTESIAN_POINT ('', (46.9333333333334, -2.63637011567501, 6.45724444705826E-16));
#81 = CARTESIAN_POINT ('', (60., -2.63637011567499, 6.45724444705822E-16));
#82 = (
   BOUNDED_SURFACE ()
   B_SPLINE_SURFACE (5, 3, ((#58, #59, #60, #61), (#62, #63, #64, #65), (#66, #67, #68, #69), (#70, #71, #72, #73), (#74, #75, #76, #77), (#78, #79, #80, #81)), .UNSPECIFIED., .T., .F., .U.)
   B_SPLINE_SURFACE_WITH_KNOTS ((6, 6), (4, 4), (0., 1.), (0., 1.), .UNSPECIFIED.)
   SURFACE ()
   GEOMETRIC_REPRESENTATION_ITEM ()
   RATIONAL_B_SPLINE_SURFACE (((5., 5., 5., 5.), (1., 1., 1., 1.), (1., 1., 1., 1.), (1., 1., 1., 1.), (1., 1., 1., 1.), (5., 5., 5., 5.)))
   REPRESENTATION_ITEM ('')
);
#83 = ADVANCED_FACE ('', (#57), #82, .T.);
#84 = CARTESIAN_POINT ('', (-3.74939945665464E-33, 2.29584502165847E-49, -2.29584502165847E-49));
#85 = VERTEX_POINT ('', #84);
#86 = CARTESIAN_POINT ('', (0.447735768366172, -0.497260947684136, 1.21793805584471E-16));
#87 = VERTEX_POINT ('', #86);
#88 = CARTESIAN_POINT ('', (-3.74939945665464E-33, 2.29584502165847E-49, -2.29584502165847E-49));
#89 = CARTESIAN_POINT ('', (-5.04508875497979E-18, -0.0823925520156892, 2.01803550199191E-17));
#90 = CARTESIAN_POINT ('', (0.0329911621905385, -0.212391142315105, 5.20208265206886E-17));
#91 = CARTESIAN_POINT ('', (0.179951413748679, -0.410735720807307, 1.0060123715643E-16));
#92 = CARTESIAN_POINT ('', (0.334180720398669, -0.485325831206954, 1.18870545146225E-16));
#93 = CARTESIAN_POINT ('', (0.447735768366172, -0.497260947684136, 1.21793805584471E-16));
#94 = B_SPLINE_CURVE_WITH_KNOTS ('', 3, (#88, #89, #90, #91, #92, #93), .UNSPECIFIED., .F., .U., (4, 1, 1, 4), (0., 0.337196106700793, 0.532709778778801, 1.), .UNSPECIFIED.);
#95 = EDGE_CURVE ('', #85, #87, #94, .T.);
#96 = ORIENTED_EDGE ('', *, *, #95, .F.);
#97 = ORIENTED_EDGE ('', *, *, #95, .T.);
#98 = CARTESIAN_POINT ('', (0.447735768366172, -0.497260947684136, 1.21793805584471E-16));
#99 = CARTESIAN_POINT ('', (0.447735768366172, -0.497260947684137, -1.98904379073655));
#100 = CARTESIAN_POINT ('', (0.447735768366172, 1.49178284305241, -0.994521895368273));
#101 = CARTESIAN_POINT ('', (0.447735768366172, 1.49178284305241, 0.994521895368273));
#102 = CARTESIAN_POINT ('', (0.447735768366172, -0.497260947684136, 1.98904379073655));
#103 = CARTESIAN_POINT ('', (0.447735768366172, -0.497260947684136, 1.21793805584471E-16));
#104 = (
   BOUNDED_CURVE ()
   B_SPLINE_CURVE (5, (#98, #99, #100, #101, #102, #103), .UNSPECIFIED., .T., .U.)
   B_SPLINE_CURVE_WITH_KNOTS ((6, 6), (0., 1.), .UNSPECIFIED.)
   CURVE ()
   GEOMETRIC_REPRESENTATION_ITEM ()
   RATIONAL_B_SPLINE_CURVE ((5., 1., 1., 1., 1., 5.))
   REPRESENTATION_ITEM ('')
);
#105 = EDGE_CURVE ('', #87, #87, #104, .T.);
#106 = ORIENTED_EDGE ('', *, *, #105, .F.);
#107 = EDGE_LOOP ('', (#96, #97, #106));
#108 = FACE_OUTER_BOUND ('', #107, .T.);
#109 = CARTESIAN_POINT ('', (-3.74939945665464E-33, 2.29584502165847E-49, -2.29584502165847E-49));
#110 = CARTESIAN_POINT ('', (-5.04508875497979E-18, -0.0823925520156892, 2.01803550199191E-17));
#111 = CARTESIAN_POINT ('', (0.0329911621905385, -0.212391142315105, 5.20208265206886E-17));
#112 = CARTESIAN_POINT ('', (0.179951413748679, -0.410735720807307, 1.0060123715643E-16));
#113 = CARTESIAN_POINT ('', (0.334180720398669, -0.485325831206954, 1.18870545146225E-16));
#114 = CARTESIAN_POINT ('', (0.447735768366172, -0.497260947684136, 1.21793805584471E-16));
#115 = CARTESIAN_POINT ('', (-3.74939945665464E-33, 2.29584502165847E-49, -2.29584502165847E-49));
#116 = CARTESIAN_POINT ('', (1.51352662649393E-17, -0.0823925520156893, -0.329570208062757));
#117 = CARTESIAN_POINT ('', (0.0329911621905386, -0.212391142315105, -0.849564569260419));
#118 = CARTESIAN_POINT ('', (0.17995141374868, -0.410735720807307, -1.64294288322923));
#119 = CARTESIAN_POINT ('', (0.334180720398669, -0.485325831206954, -1.94130332482781));
#120 = CARTESIAN_POINT ('', (0.447735768366172, -0.497260947684137, -1.98904379073655));
#121 = CARTESIAN_POINT ('', (-3.74939945665464E-33, 2.29584502165847E-49, -2.29584502165847E-49));
#122 = CARTESIAN_POINT ('', (2.52254437748989E-17, 0.247177656047068, -0.164785104031379));
#123 = CARTESIAN_POINT ('', (0.0329911621905386, 0.637173426945314, -0.42478228463021));
#124 = CARTESIAN_POINT ('', (0.17995141374868, 1.23220716242192, -0.821471441614614));
#125 = CARTESIAN_POINT ('', (0.33418072039867, 1.45597749362086, -0.970651662413908));
#126 = CARTESIAN_POINT ('', (0.447735768366172, 1.49178284305241, -0.994521895368273));
#127 = CARTESIAN_POINT ('', (-3.74939945665464E-33, 2.29584502165847E-49, -2.29584502165847E-49));
#128 = CARTESIAN_POINT ('', (5.04508875497978E-18, 0.247177656047068, 0.164785104031378));
#129 = CARTESIAN_POINT ('', (0.0329911621905386, 0.637173426945314, 0.424782284630209));
#130 = CARTESIAN_POINT ('', (0.17995141374868, 1.23220716242192, 0.821471441614613));
#131 = CARTESIAN_POINT ('', (0.334180720398669, 1.45597749362086, 0.970651662413907));
#132 = CARTESIAN_POINT ('', (0.447735768366172, 1.49178284305241, 0.994521895368273));
#133 = CARTESIAN_POINT ('', (-3.74939945665464E-33, 2.29584502165847E-49, -2.29584502165847E-49));
#134 = CARTESIAN_POINT ('', (-2.52254437748989E-17, -0.0823925520156892, 0.329570208062757));
#135 = CARTESIAN_POINT ('', (0.0329911621905385, -0.212391142315105, 0.849564569260419));
#136 = CARTESIAN_POINT ('', (0.179951413748679, -0.410735720807306, 1.64294288322923));
#137 = CARTESIAN_POINT ('', (0.334180720398669, -0.485325831206953, 1.94130332482781));
#138 = CARTESIAN_POINT ('', (0.447735768366172, -0.497260947684136, 1.98904379073655));
#139 = CARTESIAN_POINT ('', (-3.74939945665464E-33, 2.29584502165847E-49, -2.29584502165847E-49));
#140 = CARTESIAN_POINT ('', (-5.04508875497979E-18, -0.0823925520156892, 2.01803550199191E-17));
#141 = CARTESIAN_POINT ('', (0.0329911621905385, -0.212391142315105, 5.20208265206886E-17));
#142 = CARTESIAN_POINT ('', (0.179951413748679, -0.410735720807307, 1.0060123715643E-16));
#143 = CARTESIAN_POINT ('', (0.334180720398669, -0.485325831206954, 1.18870545146225E-16));
#144 = CARTESIAN_POINT ('', (0.447735768366172, -0.497260947684136, 1.21793805584471E-16));
#145 = (
   BOUNDED_SURFACE ()
   B_SPLINE_SURFACE (5, 3, ((#109, #110, #111, #112, #113, #114), (#115, #116, #117, #118, #119, #120), (#121, #122, #123, #124, #125, #126), (#127, #128, #129, #130, #131, #132), (#133, #134, #135, #136, #137, #138), (#139, #140, #141, #142, #143, #144)), .UNSPECIFIED., .T., .F., .U.)
   B_SPLINE_SURFACE_WITH_KNOTS ((6, 6), (4, 1, 1, 4), (0., 1.), (0., 0.337196106700793, 0.532709778778801, 1.), .UNSPECIFIED.)
   SURFACE ()
   GEOMETRIC_REPRESENTATION_ITEM ()
   RATIONAL_B_SPLINE_SURFACE (((5., 5., 5., 5., 5., 5.), (1., 1., 1., 1., 1., 1.), (1., 1., 1., 1., 1., 1.), (1., 1., 1., 1., 1., 1.), (1., 1., 1., 1., 1., 1.), (5., 5., 5., 5., 5., 5.)))
   REPRESENTATION_ITEM ('')
);
#146 = ADVANCED_FACE ('', (#108), #145, .T.);
#147 = CARTESIAN_POINT ('', (0.4477357683663, -0.49726094768431, 1.21793805584514E-16));
#148 = CARTESIAN_POINT ('', (7.23182384557754, -1.21029733701454, 2.96437351958284E-16));
#149 = CARTESIAN_POINT ('', (14.0159119227889, -1.92333372634478, 4.71080898332056E-16));
#150 = CARTESIAN_POINT ('', (20.8, -2.63637011567499, 6.45724444705823E-16));
#151 = B_SPLINE_CURVE_WITH_KNOTS ('', 3, (#147, #148, #149, #150), .UNSPECIFIED., .F., .U., (4, 4), (0., 1.), .UNSPECIFIED.);
#152 = EDGE_CURVE ('', #87, #37, #151, .T.);
#153 = ORIENTED_EDGE ('', *, *, #152, .F.);
#154 = ORIENTED_EDGE ('', *, *, #105, .T.);
#155 = ORIENTED_EDGE ('', *, *, #152, .T.);
#156 = ORIENTED_EDGE ('', *, *, #52, .F.);
#157 = EDGE_LOOP ('', (#153, #154, #155, #156));
#158 = FACE_OUTER_BOUND ('', #157, .T.);
#159 = CARTESIAN_POINT ('', (0.4477357683663, -0.49726094768431, 1.21793805584514E-16));
#160 = CARTESIAN_POINT ('', (7.23182384557754, -1.21029733701454, 2.96437351958284E-16));
#161 = CARTESIAN_POINT ('', (14.0159119227889, -1.92333372634478, 4.71080898332056E-16));
#162 = CARTESIAN_POINT ('', (20.8, -2.63637011567499, 6.45724444705823E-16));
#163 = CARTESIAN_POINT ('', (0.4477357683663, -0.497260947684311, -1.98904379073724));
#164 = CARTESIAN_POINT ('', (7.23182384557754, -1.21029733701454, -4.84118934805815));
#165 = CARTESIAN_POINT ('', (14.0159119227889, -1.92333372634477, -7.6933349053791));
#166 = CARTESIAN_POINT ('', (20.8, -2.63637011567499, -10.5454804627));
#167 = CARTESIAN_POINT ('', (0.4477357683663, 1.49178284305293, -0.994521895368621));
#168 = CARTESIAN_POINT ('', (7.23182384557754, 3.63089201104361, -2.42059467402907));
#169 = CARTESIAN_POINT ('', (14.0159119227889, 5.77000117903432, -3.84666745268955));
#170 = CARTESIAN_POINT ('', (20.8, 7.90911034702497, -5.27274023134998));
#171 = CARTESIAN_POINT ('', (0.4477357683663, 1.49178284305293, 0.99452189536862));
#172 = CARTESIAN_POINT ('', (7.23182384557754, 3.63089201104361, 2.42059467402907));
#173 = CARTESIAN_POINT ('', (14.0159119227889, 5.77000117903432, 3.84666745268955));
#174 = CARTESIAN_POINT ('', (20.8, 7.90911034702497, 5.27274023134999));
#175 = CARTESIAN_POINT ('', (0.4477357683663, -0.49726094768431, 1.98904379073724));
#176 = CARTESIAN_POINT ('', (7.23182384557754, -1.21029733701454, 4.84118934805815));
#177 = CARTESIAN_POINT ('', (14.0159119227889, -1.92333372634478, 7.6933349053791));
#178 = CARTESIAN_POINT ('', (20.8, -2.636370115675, 10.5454804627));
#179 = CARTESIAN_POINT ('', (0.4477357683663, -0.49726094768431, 1.21793805584514E-16));
#180 = CARTESIAN_POINT ('', (7.23182384557754, -1.21029733701454, 2.96437351958284E-16));
#181 = CARTESIAN_POINT ('', (14.0159119227889, -1.92333372634478, 4.71080898332056E-16));
#182 = CARTESIAN_POINT ('', (20.8, -2.63637011567499, 6.45724444705823E-16));
#183 = (
   BOUNDED_SURFACE ()
   B_SPLINE_SURFACE (5, 3, ((#159, #160, #161, #162), (#163, #164, #165, #166), (#167, #168, #169, #170), (#171, #172, #173, #174), (#175, #176, #177, #178), (#179, #180, #181, #182)), .UNSPECIFIED., .T., .F., .U.)
   B_SPLINE_SURFACE_WITH_KNOTS ((6, 6), (4, 4), (0., 1.), (0., 1.), .UNSPECIFIED.)
   SURFACE ()
   GEOMETRIC_REPRESENTATION_ITEM ()
   RATIONAL_B_SPLINE_SURFACE (((5., 5., 5., 5.), (1., 1., 1., 1.), (1., 1., 1., 1.), (1., 1., 1., 1.), (1., 1., 1., 1.), (5., 5., 5., 5.)))
   REPRESENTATION_ITEM ('')
);
#184 = ADVANCED_FACE ('', (#158), #183, .T.);
#185 = CLOSED_SHELL ('', (#35, #83, #146, #184));
#186 = MANIFOLD_SOLID_BREP ('', #185);
#187 = (
   LENGTH_UNIT ()
   NAMED_UNIT (*)
   SI_UNIT (.MILLI., .METRE.)
);
#188 = (
   NAMED_UNIT (*)
   SI_UNIT ($, .STERADIAN.)
   SOLID_ANGLE_UNIT ()
);
#189 = (
   NAMED_UNIT (*)
   SI_UNIT ($, .RADIAN.)
   PLANE_ANGLE_UNIT ()
);
#190 = UNCERTAINTY_MEASURE_WITH_UNIT (LENGTH_MEASURE(0.001), #187, 'DISTANCE_ACCURACY_VALUE', '');
#191 = (
   GEOMETRIC_REPRESENTATION_CONTEXT (3)
   GLOBAL_UNCERTAINTY_ASSIGNED_CONTEXT ((#190))
   GLOBAL_UNIT_ASSIGNED_CONTEXT ((#187, #188, #189))
   REPRESENTATION_CONTEXT ('', '3D')
);
#192 = SHAPE_REPRESENTATION ('', (), #191);
#193 = APPLICATION_CONTEXT ('configuration controlled 3D designs of mechanical parts and assemblies');
#194 = APPLICATION_PROTOCOL_DEFINITION ('International Standard', 'config_control_design', 1997, #193);
#195 = MECHANICAL_CONTEXT ('', #193, 'mechanical');
#196 = PRODUCT ('', '', '', (#195));
#197 = PERSON_AND_ORGANIZATION_ROLE ('design_owner');
#198 = PERSON ('', '', $, $, $, $);
#199 = ORGANIZATION ($, '', '');
#200 = PERSON_AND_ORGANIZATION (#198, #199);
#201 = CC_DESIGN_PERSON_AND_ORGANIZATION_ASSIGNMENT (#200, #197, (#196));
#202 = PRODUCT_RELATED_PRODUCT_CATEGORY ('detail', $, (#196));
#203 = PRODUCT_DEFINITION_FORMATION_WITH_SPECIFIED_SOURCE ('', '', #196, .NOT_KNOWN.);
#204 = APPROVAL_STATUS ('approved');
#205 = APPROVAL (#204, '');
#206 = CALENDAR_DATE (2022, 25, 7);
#207 = COORDINATED_UNIVERSAL_TIME_OFFSET (0, $, .AHEAD.);
#208 = LOCAL_TIME (17, 58, 7., #207);
#209 = DATE_AND_TIME (#206, #208);
#210 = APPROVAL_DATE_TIME (#209, #205);
#211 = APPROVAL_ROLE ('');
#212 = PERSON ('', '', $, $, $, $);
#213 = ORGANIZATION ($, '', '');
#214 = PERSON_AND_ORGANIZATION (#212, #213);
#215 = APPROVAL_PERSON_ORGANIZATION (#214, #205, #211);
#216 = CC_DESIGN_APPROVAL (#205, (#203));
#217 = PERSON_AND_ORGANIZATION_ROLE ('creator');
#218 = PERSON ('', '', $, $, $, $);
#219 = ORGANIZATION ($, '', '');
#220 = PERSON_AND_ORGANIZATION (#218, #219);
#221 = CC_DESIGN_PERSON_AND_ORGANIZATION_ASSIGNMENT (#220, #217, (#203));
#222 = PERSON_AND_ORGANIZATION_ROLE ('part_supplier');
#223 = PERSON ('', '', $, $, $, $);
#224 = ORGANIZATION ($, '', '');
#225 = PERSON_AND_ORGANIZATION (#223, #224);
#226 = CC_DESIGN_PERSON_AND_ORGANIZATION_ASSIGNMENT (#225, #222, (#203));
#227 = SECURITY_CLASSIFICATION_LEVEL ('unclassified');
#228 = SECURITY_CLASSIFICATION ('', '', #227);
#229 = APPROVAL_STATUS ('approved');
#230 = APPROVAL (#229, '');
#231 = CALENDAR_DATE (2022, 25, 7);
#232 = COORDINATED_UNIVERSAL_TIME_OFFSET (0, $, .AHEAD.);
#233 = LOCAL_TIME (17, 58, 7., #232);
#234 = DATE_AND_TIME (#231, #233);
#235 = APPROVAL_DATE_TIME (#234, #230);
#236 = APPROVAL_ROLE ('');
#237 = PERSON ('', '', $, $, $, $);
#238 = ORGANIZATION ($, '', '');
#239 = PERSON_AND_ORGANIZATION (#237, #238);
#240 = APPROVAL_PERSON_ORGANIZATION (#239, #230, #236);
#241 = CC_DESIGN_APPROVAL (#230, (#228));
#242 = DATE_TIME_ROLE ('classification_date');
#243 = CALENDAR_DATE (2022, 25, 7);
#244 = COORDINATED_UNIVERSAL_TIME_OFFSET (0, $, .AHEAD.);
#245 = LOCAL_TIME (17, 58, 7., #244);
#246 = DATE_AND_TIME (#243, #245);
#247 = CC_DESIGN_DATE_AND_TIME_ASSIGNMENT (#246, #242, (#228));
#248 = PERSON_AND_ORGANIZATION_ROLE ('classification_officer');
#249 = PERSON ('', '', $, $, $, $);
#250 = ORGANIZATION ($, '', '');
#251 = PERSON_AND_ORGANIZATION (#249, #250);
#252 = CC_DESIGN_PERSON_AND_ORGANIZATION_ASSIGNMENT (#251, #248, (#228));
#253 = CC_DESIGN_SECURITY_CLASSIFICATION (#228, (#203));
#254 = DESIGN_CONTEXT ('', #193, 'design');
#255 = PRODUCT_DEFINITION ('', '', #203, #254);
#256 = APPROVAL_STATUS ('approved');
#257 = APPROVAL (#256, '');
#258 = CALENDAR_DATE (2022, 25, 7);
#259 = COORDINATED_UNIVERSAL_TIME_OFFSET (0, $, .AHEAD.);
#260 = LOCAL_TIME (17, 58, 7., #259);
#261 = DATE_AND_TIME (#258, #260);
#262 = APPROVAL_DATE_TIME (#261, #257);
#263 = APPROVAL_ROLE ('');
#264 = PERSON ('', '', $, $, $, $);
#265 = ORGANIZATION ($, '', '');
#266 = PERSON_AND_ORGANIZATION (#264, #265);
#267 = APPROVAL_PERSON_ORGANIZATION (#266, #257, #263);
#268 = CC_DESIGN_APPROVAL (#257, (#255));
#269 = DATE_TIME_ROLE ('creation_date');
#270 = CALENDAR_DATE (2022, 25, 7);
#271 = COORDINATED_UNIVERSAL_TIME_OFFSET (0, $, .AHEAD.);
#272 = LOCAL_TIME (17, 58, 7., #271);
#273 = DATE_AND_TIME (#270, #272);
#274 = CC_DESIGN_DATE_AND_TIME_ASSIGNMENT (#273, #269, (#255));
#275 = PERSON_AND_ORGANIZATION_ROLE ('creator');
#276 = PERSON ('', '', $, $, $, $);
#277 = ORGANIZATION ($, '', '');
#278 = PERSON_AND_ORGANIZATION (#276, #277);
#279 = CC_DESIGN_PERSON_AND_ORGANIZATION_ASSIGNMENT (#278, #275, (#255));
#280 = PRODUCT_DEFINITION_SHAPE ('', '', #255);
#281 = SHAPE_DEFINITION_REPRESENTATION (#280, #192);
#282 = SHAPE_REPRESENTATION_RELATIONSHIP ('', '', #192, #283);
#283 = ADVANCED_BREP_SHAPE_REPRESENTATION ('', (#186), #191);
ENDSEC;
END-ISO-10303-21;
