ISO-10303-21;
HEADER;
FILE_DESCRIPTION ((), '1');
FILE_NAME ('C:\\Users\\Paul\\MAFord Europe\\MAFEU Sales Team - Documents\\STEP Files\\5AXF\\5AXFD060610-AX.STP', '2022-07-25T17:51:56', ('Unknown'), ('M.A. Ford Europe'), 'OneCNC-XR8 Mill 3D Expert', 'OneCNC-XR8 Mill 3D Expert', '');
FILE_SCHEMA (('CONFIG_CONTROL_DESIGN'));
ENDSEC;

DATA;
#1 = CARTESIAN_POINT ('', (60., -2.98146790255817, 7.30249024725685E-16));
#2 = VERTEX_POINT ('', #1);
#3 = CARTESIAN_POINT ('', (60., -3.67394039744206E-15, 3.67394039744206E-15));
#4 = VERTEX_POINT ('', #3);
#5 = CARTESIAN_POINT ('', (60., -2.98146790255817, 7.30249024725685E-16));
#6 = CARTESIAN_POINT ('', (60., -3.67394039744206E-15, 3.67394039744206E-15));
#7 = B_SPLINE_CURVE_WITH_KNOTS ('', 1, (#5, #6), .UNSPECIFIED., .F., .U., (2, 2), (0., 1.), .UNSPECIFIED.);
#8 = EDGE_CURVE ('', #2, #4, #7, .T.);
#9 = ORIENTED_EDGE ('', *, *, #8, .F.);
#10 = CARTESIAN_POINT ('', (60., -2.98146790255817, 7.30249024725685E-16));
#11 = CARTESIAN_POINT ('', (60., -2.98146790255815, -11.9258716102326));
#12 = CARTESIAN_POINT ('', (60., 8.94440370767449, -5.96293580511631));
#13 = CARTESIAN_POINT ('', (60., 8.94440370767448, 5.96293580511634));
#14 = CARTESIAN_POINT ('', (60., -2.98146790255818, 11.9258716102326));
#15 = CARTESIAN_POINT ('', (60., -2.98146790255817, 7.30249024725685E-16));
#16 = (
   BOUNDED_CURVE ()
   B_SPLINE_CURVE (5, (#10, #11, #12, #13, #14, #15), .UNSPECIFIED., .T., .U.)
   B_SPLINE_CURVE_WITH_KNOTS ((6, 6), (0., 1.), .UNSPECIFIED.)
   CURVE ()
   GEOMETRIC_REPRESENTATION_ITEM ()
   RATIONAL_B_SPLINE_CURVE ((5., 1., 1., 1., 1., 5.))
   REPRESENTATION_ITEM ('')
);
#17 = EDGE_CURVE ('', #2, #2, #16, .T.);
#18 = ORIENTED_EDGE ('', *, *, #17, .T.);
#19 = ORIENTED_EDGE ('', *, *, #8, .T.);
#20 = EDGE_LOOP ('', (#9, #18, #19));
#21 = FACE_OUTER_BOUND ('', #20, .T.);
#22 = CARTESIAN_POINT ('', (60., -2.98146790255817, 7.30249024725685E-16));
#23 = CARTESIAN_POINT ('', (60., -3.67394039744206E-15, 3.67394039744206E-15));
#24 = CARTESIAN_POINT ('', (60., -2.98146790255815, -11.9258716102326));
#25 = CARTESIAN_POINT ('', (60., -3.67394039744206E-15, 3.67394039744206E-15));
#26 = CARTESIAN_POINT ('', (60., 8.94440370767449, -5.96293580511631));
#27 = CARTESIAN_POINT ('', (60., -3.67394039744206E-15, 3.67394039744206E-15));
#28 = CARTESIAN_POINT ('', (60., 8.94440370767448, 5.96293580511634));
#29 = CARTESIAN_POINT ('', (60., -3.67394039744206E-15, 3.67394039744206E-15));
#30 = CARTESIAN_POINT ('', (60., -2.98146790255818, 11.9258716102326));
#31 = CARTESIAN_POINT ('', (60., -3.67394039744206E-15, 3.67394039744206E-15));
#32 = CARTESIAN_POINT ('', (60., -2.98146790255817, 7.30249024725685E-16));
#33 = CARTESIAN_POINT ('', (60., -3.67394039744206E-15, 3.67394039744206E-15));
#34 = (
   BOUNDED_SURFACE ()
   B_SPLINE_SURFACE (5, 1, ((#22, #23), (#24, #25), (#26, #27), (#28, #29), (#30, #31), (#32, #33)), .UNSPECIFIED., .T., .F., .U.)
   B_SPLINE_SURFACE_WITH_KNOTS ((6, 6), (2, 2), (0., 1.), (0., 1.), .UNSPECIFIED.)
   SURFACE ()
   GEOMETRIC_REPRESENTATION_ITEM ()
   RATIONAL_B_SPLINE_SURFACE (((5., 5.), (1., 1.), (1., 1.), (1., 1.), (1., 1.), (5., 5.)))
   REPRESENTATION_ITEM ('')
);
#35 = ADVANCED_FACE ('', (#21), #34, .T.);
#36 = CARTESIAN_POINT ('', (32.5, -2.98146790255816, 7.30249024725686E-16));
#37 = VERTEX_POINT ('', #36);
#38 = CARTESIAN_POINT ('', (32.5, -2.98146790255816, 7.30249024725686E-16));
#39 = CARTESIAN_POINT ('', (41.6666666666667, -2.98146790255816, 7.30249024725685E-16));
#40 = CARTESIAN_POINT ('', (50.8333333333333, -2.98146790255817, 7.30249024725685E-16));
#41 = CARTESIAN_POINT ('', (60., -2.98146790255817, 7.30249024725685E-16));
#42 = B_SPLINE_CURVE_WITH_KNOTS ('', 3, (#38, #39, #40, #41), .UNSPECIFIED., .F., .U., (4, 4), (0., 1.), .UNSPECIFIED.);
#43 = EDGE_CURVE ('', #37, #2, #42, .T.);
#44 = ORIENTED_EDGE ('', *, *, #43, .F.);
#45 = CARTESIAN_POINT ('', (32.5, -2.98146790255816, 7.30249024725686E-16));
#46 = CARTESIAN_POINT ('', (32.5, -2.98146790255816, -11.9258716102327));
#47 = CARTESIAN_POINT ('', (32.5, 8.94440370767449, -5.96293580511632));
#48 = CARTESIAN_POINT ('', (32.5, 8.94440370767449, 5.96293580511633));
#49 = CARTESIAN_POINT ('', (32.5, -2.98146790255817, 11.9258716102327));
#50 = CARTESIAN_POINT ('', (32.5, -2.98146790255816, 7.30249024725686E-16));
#51 = (
   BOUNDED_CURVE ()
   B_SPLINE_CURVE (5, (#45, #46, #47, #48, #49, #50), .UNSPECIFIED., .T., .U.)
   B_SPLINE_CURVE_WITH_KNOTS ((6, 6), (0., 1.), .UNSPECIFIED.)
   CURVE ()
   GEOMETRIC_REPRESENTATION_ITEM ()
   RATIONAL_B_SPLINE_CURVE ((5., 1., 1., 1., 1., 5.))
   REPRESENTATION_ITEM ('')
);
#52 = EDGE_CURVE ('', #37, #37, #51, .T.);
#53 = ORIENTED_EDGE ('', *, *, #52, .T.);
#54 = ORIENTED_EDGE ('', *, *, #43, .T.);
#55 = ORIENTED_EDGE ('', *, *, #17, .F.);
#56 = EDGE_LOOP ('', (#44, #53, #54, #55));
#57 = FACE_OUTER_BOUND ('', #56, .T.);
#58 = CARTESIAN_POINT ('', (32.5, -2.98146790255816, 7.30249024725686E-16));
#59 = CARTESIAN_POINT ('', (41.6666666666667, -2.98146790255816, 7.30249024725685E-16));
#60 = CARTESIAN_POINT ('', (50.8333333333333, -2.98146790255817, 7.30249024725685E-16));
#61 = CARTESIAN_POINT ('', (60., -2.98146790255817, 7.30249024725685E-16));
#62 = CARTESIAN_POINT ('', (32.5, -2.98146790255816, -11.9258716102327));
#63 = CARTESIAN_POINT ('', (41.6666666666667, -2.98146790255816, -11.9258716102326));
#64 = CARTESIAN_POINT ('', (50.8333333333333, -2.98146790255816, -11.9258716102326));
#65 = CARTESIAN_POINT ('', (60., -2.98146790255815, -11.9258716102326));
#66 = CARTESIAN_POINT ('', (32.5, 8.94440370767449, -5.96293580511632));
#67 = CARTESIAN_POINT ('', (41.6666666666667, 8.94440370767449, -5.96293580511632));
#68 = CARTESIAN_POINT ('', (50.8333333333333, 8.94440370767449, -5.96293580511631));
#69 = CARTESIAN_POINT ('', (60., 8.94440370767449, -5.96293580511631));
#70 = CARTESIAN_POINT ('', (32.5, 8.94440370767449, 5.96293580511633));
#71 = CARTESIAN_POINT ('', (41.6666666666667, 8.94440370767448, 5.96293580511633));
#72 = CARTESIAN_POINT ('', (50.8333333333333, 8.94440370767448, 5.96293580511634));
#73 = CARTESIAN_POINT ('', (60., 8.94440370767448, 5.96293580511634));
#74 = CARTESIAN_POINT ('', (32.5, -2.98146790255817, 11.9258716102327));
#75 = CARTESIAN_POINT ('', (41.6666666666667, -2.98146790255817, 11.9258716102326));
#76 = CARTESIAN_POINT ('', (50.8333333333333, -2.98146790255817, 11.9258716102327));
#77 = CARTESIAN_POINT ('', (60., -2.98146790255818, 11.9258716102326));
#78 = CARTESIAN_POINT ('', (32.5, -2.98146790255816, 7.30249024725686E-16));
#79 = CARTESIAN_POINT ('', (41.6666666666667, -2.98146790255816, 7.30249024725685E-16));
#80 = CARTESIAN_POINT ('', (50.8333333333333, -2.98146790255817, 7.30249024725685E-16));
#81 = CARTESIAN_POINT ('', (60., -2.98146790255817, 7.30249024725685E-16));
#82 = (
   BOUNDED_SURFACE ()
   B_SPLINE_SURFACE (5, 3, ((#58, #59, #60, #61), (#62, #63, #64, #65), (#66, #67, #68, #69), (#70, #71, #72, #73), (#74, #75, #76, #77), (#78, #79, #80, #81)), .UNSPECIFIED., .T., .F., .U.)
   B_SPLINE_SURFACE_WITH_KNOTS ((6, 6), (4, 4), (0., 1.), (0., 1.), .UNSPECIFIED.)
   SURFACE ()
   GEOMETRIC_REPRESENTATION_ITEM ()
   RATIONAL_B_SPLINE_SURFACE (((5., 5., 5., 5.), (1., 1., 1., 1.), (1., 1., 1., 1.), (1., 1., 1., 1.), (1., 1., 1., 1.), (5., 5., 5., 5.)))
   REPRESENTATION_ITEM ('')
);
#83 = ADVANCED_FACE ('', (#57), #82, .T.);
#84 = CARTESIAN_POINT ('', (19.8, -2.98146790255816, 7.30249024725686E-16));
#85 = VERTEX_POINT ('', #84);
#86 = CARTESIAN_POINT ('', (19.8, -2.98146790255816, 7.30249024725686E-16));
#87 = CARTESIAN_POINT ('', (24.0333333333332, -2.98146790255817, 7.30249024725688E-16));
#88 = CARTESIAN_POINT ('', (28.2666666666666, -2.98146790255816, 7.30249024725686E-16));
#89 = CARTESIAN_POINT ('', (32.5, -2.98146790255816, 7.30249024725686E-16));
#90 = B_SPLINE_CURVE_WITH_KNOTS ('', 3, (#86, #87, #88, #89), .UNSPECIFIED., .F., .U., (4, 4), (0., 1.), .UNSPECIFIED.);
#91 = EDGE_CURVE ('', #85, #37, #90, .T.);
#92 = ORIENTED_EDGE ('', *, *, #91, .F.);
#93 = CARTESIAN_POINT ('', (19.8, -2.98146790255816, 7.30249024725686E-16));
#94 = CARTESIAN_POINT ('', (19.8, -2.98146790255816, -11.9258716102327));
#95 = CARTESIAN_POINT ('', (19.8, 8.94440370767449, -5.96293580511633));
#96 = CARTESIAN_POINT ('', (19.8, 8.94440370767449, 5.96293580511633));
#97 = CARTESIAN_POINT ('', (19.8, -2.98146790255817, 11.9258716102327));
#98 = CARTESIAN_POINT ('', (19.8, -2.98146790255816, 7.30249024725686E-16));
#99 = (
   BOUNDED_CURVE ()
   B_SPLINE_CURVE (5, (#93, #94, #95, #96, #97, #98), .UNSPECIFIED., .T., .U.)
   B_SPLINE_CURVE_WITH_KNOTS ((6, 6), (0., 1.), .UNSPECIFIED.)
   CURVE ()
   GEOMETRIC_REPRESENTATION_ITEM ()
   RATIONAL_B_SPLINE_CURVE ((5., 1., 1., 1., 1., 5.))
   REPRESENTATION_ITEM ('')
);
#100 = EDGE_CURVE ('', #85, #85, #99, .T.);
#101 = ORIENTED_EDGE ('', *, *, #100, .T.);
#102 = ORIENTED_EDGE ('', *, *, #91, .T.);
#103 = ORIENTED_EDGE ('', *, *, #52, .F.);
#104 = EDGE_LOOP ('', (#92, #101, #102, #103));
#105 = FACE_OUTER_BOUND ('', #104, .T.);
#106 = CARTESIAN_POINT ('', (19.8, -2.98146790255816, 7.30249024725686E-16));
#107 = CARTESIAN_POINT ('', (24.0333333333332, -2.98146790255817, 7.30249024725688E-16));
#108 = CARTESIAN_POINT ('', (28.2666666666666, -2.98146790255816, 7.30249024725686E-16));
#109 = CARTESIAN_POINT ('', (32.5, -2.98146790255816, 7.30249024725686E-16));
#110 = CARTESIAN_POINT ('', (19.8, -2.98146790255816, -11.9258716102327));
#111 = CARTESIAN_POINT ('', (24.0333333333332, -2.98146790255817, -11.9258716102327));
#112 = CARTESIAN_POINT ('', (28.2666666666666, -2.98146790255816, -11.9258716102327));
#113 = CARTESIAN_POINT ('', (32.5, -2.98146790255816, -11.9258716102327));
#114 = CARTESIAN_POINT ('', (19.8, 8.94440370767449, -5.96293580511633));
#115 = CARTESIAN_POINT ('', (24.0333333333332, 8.94440370767452, -5.96293580511634));
#116 = CARTESIAN_POINT ('', (28.2666666666666, 8.94440370767449, -5.96293580511632));
#117 = CARTESIAN_POINT ('', (32.5, 8.94440370767449, -5.96293580511632));
#118 = CARTESIAN_POINT ('', (19.8, 8.94440370767449, 5.96293580511633));
#119 = CARTESIAN_POINT ('', (24.0333333333332, 8.94440370767452, 5.96293580511635));
#120 = CARTESIAN_POINT ('', (28.2666666666666, 8.94440370767449, 5.96293580511633));
#121 = CARTESIAN_POINT ('', (32.5, 8.94440370767449, 5.96293580511633));
#122 = CARTESIAN_POINT ('', (19.8, -2.98146790255817, 11.9258716102327));
#123 = CARTESIAN_POINT ('', (24.0333333333332, -2.98146790255818, 11.9258716102327));
#124 = CARTESIAN_POINT ('', (28.2666666666666, -2.98146790255817, 11.9258716102327));
#125 = CARTESIAN_POINT ('', (32.5, -2.98146790255817, 11.9258716102327));
#126 = CARTESIAN_POINT ('', (19.8, -2.98146790255816, 7.30249024725686E-16));
#127 = CARTESIAN_POINT ('', (24.0333333333332, -2.98146790255817, 7.30249024725688E-16));
#128 = CARTESIAN_POINT ('', (28.2666666666666, -2.98146790255816, 7.30249024725686E-16));
#129 = CARTESIAN_POINT ('', (32.5, -2.98146790255816, 7.30249024725686E-16));
#130 = (
   BOUNDED_SURFACE ()
   B_SPLINE_SURFACE (5, 3, ((#106, #107, #108, #109), (#110, #111, #112, #113), (#114, #115, #116, #117), (#118, #119, #120, #121), (#122, #123, #124, #125), (#126, #127, #128, #129)), .UNSPECIFIED., .T., .F., .U.)
   B_SPLINE_SURFACE_WITH_KNOTS ((6, 6), (4, 4), (0., 1.), (0., 1.), .UNSPECIFIED.)
   SURFACE ()
   GEOMETRIC_REPRESENTATION_ITEM ()
   RATIONAL_B_SPLINE_SURFACE (((5., 5., 5., 5.), (1., 1., 1., 1.), (1., 1., 1., 1.), (1., 1., 1., 1.), (1., 1., 1., 1.), (5., 5., 5., 5.)))
   REPRESENTATION_ITEM ('')
);
#131 = ADVANCED_FACE ('', (#105), #130, .T.);
#132 = CARTESIAN_POINT ('', (-7.49879891330929E-33, 4.59169004331693E-49, -4.59169004331693E-49));
#133 = VERTEX_POINT ('', #132);
#134 = CARTESIAN_POINT ('', (0.895471536732344, -0.994521895368273, 2.43587611168943E-16));
#135 = VERTEX_POINT ('', #134);
#136 = CARTESIAN_POINT ('', (-7.49879891330929E-33, 4.59169004331693E-49, -4.59169004331693E-49));
#137 = CARTESIAN_POINT ('', (-1.00901775099596E-17, -0.164785104031378, 4.03607100398383E-17));
#138 = CARTESIAN_POINT ('', (0.0659823243810771, -0.424782284630209, 1.04041653041377E-16));
#139 = CARTESIAN_POINT ('', (0.359902827497359, -0.821471441614613, 2.0120247431286E-16));
#140 = CARTESIAN_POINT ('', (0.668361440797339, -0.970651662413907, 2.3774109029245E-16));
#141 = CARTESIAN_POINT ('', (0.895471536732344, -0.994521895368273, 2.43587611168943E-16));
#142 = B_SPLINE_CURVE_WITH_KNOTS ('', 3, (#136, #137, #138, #139, #140, #141), .UNSPECIFIED., .F., .U., (4, 1, 1, 4), (0., 0.337196106700793, 0.532709778778801, 1.), .UNSPECIFIED.);
#143 = EDGE_CURVE ('', #133, #135, #142, .T.);
#144 = ORIENTED_EDGE ('', *, *, #143, .F.);
#145 = ORIENTED_EDGE ('', *, *, #143, .T.);
#146 = CARTESIAN_POINT ('', (0.895471536732344, -0.994521895368273, 2.43587611168943E-16));
#147 = CARTESIAN_POINT ('', (0.895471536732344, -0.994521895368274, -3.97808758147309));
#148 = CARTESIAN_POINT ('', (0.895471536732344, 2.98356568610482, -1.98904379073655));
#149 = CARTESIAN_POINT ('', (0.895471536732344, 2.98356568610482, 1.98904379073655));
#150 = CARTESIAN_POINT ('', (0.895471536732344, -0.994521895368272, 3.97808758147309));
#151 = CARTESIAN_POINT ('', (0.895471536732344, -0.994521895368273, 2.43587611168943E-16));
#152 = (
   BOUNDED_CURVE ()
   B_SPLINE_CURVE (5, (#146, #147, #148, #149, #150, #151), .UNSPECIFIED., .T., .U.)
   B_SPLINE_CURVE_WITH_KNOTS ((6, 6), (0., 1.), .UNSPECIFIED.)
   CURVE ()
   GEOMETRIC_REPRESENTATION_ITEM ()
   RATIONAL_B_SPLINE_CURVE ((5., 1., 1., 1., 1., 5.))
   REPRESENTATION_ITEM ('')
);
#153 = EDGE_CURVE ('', #135, #135, #152, .T.);
#154 = ORIENTED_EDGE ('', *, *, #153, .F.);
#155 = EDGE_LOOP ('', (#144, #145, #154));
#156 = FACE_OUTER_BOUND ('', #155, .T.);
#157 = CARTESIAN_POINT ('', (-7.49879891330929E-33, 4.59169004331693E-49, -4.59169004331693E-49));
#158 = CARTESIAN_POINT ('', (-1.00901775099596E-17, -0.164785104031378, 4.03607100398383E-17));
#159 = CARTESIAN_POINT ('', (0.0659823243810771, -0.424782284630209, 1.04041653041377E-16));
#160 = CARTESIAN_POINT ('', (0.359902827497359, -0.821471441614613, 2.0120247431286E-16));
#161 = CARTESIAN_POINT ('', (0.668361440797339, -0.970651662413907, 2.3774109029245E-16));
#162 = CARTESIAN_POINT ('', (0.895471536732344, -0.994521895368273, 2.43587611168943E-16));
#163 = CARTESIAN_POINT ('', (-7.49879891330929E-33, 4.59169004331693E-49, -4.59169004331693E-49));
#164 = CARTESIAN_POINT ('', (3.02705325298787E-17, -0.164785104031379, -0.659140416125514));
#165 = CARTESIAN_POINT ('', (0.0659823243810772, -0.42478228463021, -1.69912913852084));
#166 = CARTESIAN_POINT ('', (0.359902827497359, -0.821471441614614, -3.28588576645845));
#167 = CARTESIAN_POINT ('', (0.668361440797339, -0.970651662413908, -3.88260664965563));
#168 = CARTESIAN_POINT ('', (0.895471536732344, -0.994521895368274, -3.97808758147309));
#169 = CARTESIAN_POINT ('', (-7.49879891330929E-33, 4.59169004331693E-49, -4.59169004331693E-49));
#170 = CARTESIAN_POINT ('', (5.04508875497978E-17, 0.494355312094135, -0.329570208062757));
#171 = CARTESIAN_POINT ('', (0.0659823243810772, 1.27434685389063, -0.849564569260419));
#172 = CARTESIAN_POINT ('', (0.359902827497359, 2.46441432484384, -1.64294288322923));
#173 = CARTESIAN_POINT ('', (0.668361440797339, 2.91195498724172, -1.94130332482782));
#174 = CARTESIAN_POINT ('', (0.895471536732344, 2.98356568610482, -1.98904379073655));
#175 = CARTESIAN_POINT ('', (-7.49879891330929E-33, 4.59169004331693E-49, -4.59169004331693E-49));
#176 = CARTESIAN_POINT ('', (1.00901775099596E-17, 0.494355312094135, 0.329570208062757));
#177 = CARTESIAN_POINT ('', (0.0659823243810771, 1.27434685389063, 0.849564569260418));
#178 = CARTESIAN_POINT ('', (0.359902827497359, 2.46441432484384, 1.64294288322923));
#179 = CARTESIAN_POINT ('', (0.668361440797339, 2.91195498724172, 1.94130332482781));
#180 = CARTESIAN_POINT ('', (0.895471536732344, 2.98356568610482, 1.98904379073655));
#181 = CARTESIAN_POINT ('', (-7.49879891330929E-33, 4.59169004331693E-49, -4.59169004331693E-49));
#182 = CARTESIAN_POINT ('', (-5.04508875497978E-17, -0.164785104031378, 0.659140416125514));
#183 = CARTESIAN_POINT ('', (0.065982324381077, -0.424782284630209, 1.69912913852084));
#184 = CARTESIAN_POINT ('', (0.359902827497359, -0.821471441614613, 3.28588576645845));
#185 = CARTESIAN_POINT ('', (0.668361440797338, -0.970651662413906, 3.88260664965563));
#186 = CARTESIAN_POINT ('', (0.895471536732344, -0.994521895368272, 3.97808758147309));
#187 = CARTESIAN_POINT ('', (-7.49879891330929E-33, 4.59169004331693E-49, -4.59169004331693E-49));
#188 = CARTESIAN_POINT ('', (-1.00901775099596E-17, -0.164785104031378, 4.03607100398383E-17));
#189 = CARTESIAN_POINT ('', (0.0659823243810771, -0.424782284630209, 1.04041653041377E-16));
#190 = CARTESIAN_POINT ('', (0.359902827497359, -0.821471441614613, 2.0120247431286E-16));
#191 = CARTESIAN_POINT ('', (0.668361440797339, -0.970651662413907, 2.3774109029245E-16));
#192 = CARTESIAN_POINT ('', (0.895471536732344, -0.994521895368273, 2.43587611168943E-16));
#193 = (
   BOUNDED_SURFACE ()
   B_SPLINE_SURFACE (5, 3, ((#157, #158, #159, #160, #161, #162), (#163, #164, #165, #166, #167, #168), (#169, #170, #171, #172, #173, #174), (#175, #176, #177, #178, #179, #180), (#181, #182, #183, #184, #185, #186), (#187, #188, #189, #190, #191, #192)), .UNSPECIFIED., .T., .F., .U.)
   B_SPLINE_SURFACE_WITH_KNOTS ((6, 6), (4, 1, 1, 4), (0., 1.), (0., 0.337196106700793, 0.532709778778801, 1.), .UNSPECIFIED.)
   SURFACE ()
   GEOMETRIC_REPRESENTATION_ITEM ()
   RATIONAL_B_SPLINE_SURFACE (((5., 5., 5., 5., 5., 5.), (1., 1., 1., 1., 1., 1.), (1., 1., 1., 1., 1., 1.), (1., 1., 1., 1., 1., 1.), (1., 1., 1., 1., 1., 1.), (5., 5., 5., 5., 5., 5.)))
   REPRESENTATION_ITEM ('')
);
#194 = ADVANCED_FACE ('', (#156), #193, .T.);
#195 = CARTESIAN_POINT ('', (0.895471536732302, -0.99452189536828, 2.43587611168945E-16));
#196 = CARTESIAN_POINT ('', (7.1969810244882, -1.65683723109824, 4.05808082354526E-16));
#197 = CARTESIAN_POINT ('', (13.498490512244, -2.31915256682819, 5.68028553540103E-16));
#198 = CARTESIAN_POINT ('', (19.8, -2.98146790255816, 7.30249024725686E-16));
#199 = B_SPLINE_CURVE_WITH_KNOTS ('', 3, (#195, #196, #197, #198), .UNSPECIFIED., .F., .U., (4, 4), (0., 1.), .UNSPECIFIED.);
#200 = EDGE_CURVE ('', #135, #85, #199, .T.);
#201 = ORIENTED_EDGE ('', *, *, #200, .F.);
#202 = ORIENTED_EDGE ('', *, *, #153, .T.);
#203 = ORIENTED_EDGE ('', *, *, #200, .T.);
#204 = ORIENTED_EDGE ('', *, *, #100, .F.);
#205 = EDGE_LOOP ('', (#201, #202, #203, #204));
#206 = FACE_OUTER_BOUND ('', #205, .T.);
#207 = CARTESIAN_POINT ('', (0.895471536732302, -0.99452189536828, 2.43587611168945E-16));
#208 = CARTESIAN_POINT ('', (7.1969810244882, -1.65683723109824, 4.05808082354526E-16));
#209 = CARTESIAN_POINT ('', (13.498490512244, -2.31915256682819, 5.68028553540103E-16));
#210 = CARTESIAN_POINT ('', (19.8, -2.98146790255816, 7.30249024725686E-16));
#211 = CARTESIAN_POINT ('', (0.895471536732302, -0.994521895368281, -3.97808758147312));
#212 = CARTESIAN_POINT ('', (7.1969810244882, -1.65683723109824, -6.62734892439298));
#213 = CARTESIAN_POINT ('', (13.498490512244, -2.31915256682819, -9.27661026731278));
#214 = CARTESIAN_POINT ('', (19.8, -2.98146790255816, -11.9258716102327));
#215 = CARTESIAN_POINT ('', (0.895471536732302, 2.98356568610484, -1.98904379073656));
#216 = CARTESIAN_POINT ('', (7.1969810244882, 4.97051169329473, -3.31367446219649));
#217 = CARTESIAN_POINT ('', (13.498490512244, 6.95745770048458, -4.63830513365639));
#218 = CARTESIAN_POINT ('', (19.8, 8.94440370767449, -5.96293580511633));
#219 = CARTESIAN_POINT ('', (0.895471536732302, 2.98356568610484, 1.98904379073656));
#220 = CARTESIAN_POINT ('', (7.1969810244882, 4.97051169329473, 3.31367446219649));
#221 = CARTESIAN_POINT ('', (13.498490512244, 6.95745770048458, 4.63830513365639));
#222 = CARTESIAN_POINT ('', (19.8, 8.94440370767449, 5.96293580511633));
#223 = CARTESIAN_POINT ('', (0.895471536732302, -0.994521895368279, 3.97808758147312));
#224 = CARTESIAN_POINT ('', (7.1969810244882, -1.65683723109824, 6.62734892439298));
#225 = CARTESIAN_POINT ('', (13.498490512244, -2.3191525668282, 9.27661026731278));
#226 = CARTESIAN_POINT ('', (19.8, -2.98146790255817, 11.9258716102327));
#227 = CARTESIAN_POINT ('', (0.895471536732302, -0.99452189536828, 2.43587611168945E-16));
#228 = CARTESIAN_POINT ('', (7.1969810244882, -1.65683723109824, 4.05808082354526E-16));
#229 = CARTESIAN_POINT ('', (13.498490512244, -2.31915256682819, 5.68028553540103E-16));
#230 = CARTESIAN_POINT ('', (19.8, -2.98146790255816, 7.30249024725686E-16));
#231 = (
   BOUNDED_SURFACE ()
   B_SPLINE_SURFACE (5, 3, ((#207, #208, #209, #210), (#211, #212, #213, #214), (#215, #216, #217, #218), (#219, #220, #221, #222), (#223, #224, #225, #226), (#227, #228, #229, #230)), .UNSPECIFIED., .T., .F., .U.)
   B_SPLINE_SURFACE_WITH_KNOTS ((6, 6), (4, 4), (0., 1.), (0., 1.), .UNSPECIFIED.)
   SURFACE ()
   GEOMETRIC_REPRESENTATION_ITEM ()
   RATIONAL_B_SPLINE_SURFACE (((5., 5., 5., 5.), (1., 1., 1., 1.), (1., 1., 1., 1.), (1., 1., 1., 1.), (1., 1., 1., 1.), (5., 5., 5., 5.)))
   REPRESENTATION_ITEM ('')
);
#232 = ADVANCED_FACE ('', (#206), #231, .T.);
#233 = CLOSED_SHELL ('', (#35, #83, #131, #194, #232));
#234 = MANIFOLD_SOLID_BREP ('', #233);
#235 = (
   LENGTH_UNIT ()
   NAMED_UNIT (*)
   SI_UNIT (.MILLI., .METRE.)
);
#236 = (
   NAMED_UNIT (*)
   SI_UNIT ($, .STERADIAN.)
   SOLID_ANGLE_UNIT ()
);
#237 = (
   NAMED_UNIT (*)
   SI_UNIT ($, .RADIAN.)
   PLANE_ANGLE_UNIT ()
);
#238 = UNCERTAINTY_MEASURE_WITH_UNIT (LENGTH_MEASURE(0.001), #235, 'DISTANCE_ACCURACY_VALUE', '');
#239 = (
   GEOMETRIC_REPRESENTATION_CONTEXT (3)
   GLOBAL_UNCERTAINTY_ASSIGNED_CONTEXT ((#238))
   GLOBAL_UNIT_ASSIGNED_CONTEXT ((#235, #236, #237))
   REPRESENTATION_CONTEXT ('', '3D')
);
#240 = SHAPE_REPRESENTATION ('', (), #239);
#241 = APPLICATION_CONTEXT ('configuration controlled 3D designs of mechanical parts and assemblies');
#242 = APPLICATION_PROTOCOL_DEFINITION ('International Standard', 'config_control_design', 1997, #241);
#243 = MECHANICAL_CONTEXT ('', #241, 'mechanical');
#244 = PRODUCT ('', '', '', (#243));
#245 = PERSON_AND_ORGANIZATION_ROLE ('design_owner');
#246 = PERSON ('', '', $, $, $, $);
#247 = ORGANIZATION ($, '', '');
#248 = PERSON_AND_ORGANIZATION (#246, #247);
#249 = CC_DESIGN_PERSON_AND_ORGANIZATION_ASSIGNMENT (#248, #245, (#244));
#250 = PRODUCT_RELATED_PRODUCT_CATEGORY ('detail', $, (#244));
#251 = PRODUCT_DEFINITION_FORMATION_WITH_SPECIFIED_SOURCE ('', '', #244, .NOT_KNOWN.);
#252 = APPROVAL_STATUS ('approved');
#253 = APPROVAL (#252, '');
#254 = CALENDAR_DATE (2022, 25, 7);
#255 = COORDINATED_UNIVERSAL_TIME_OFFSET (0, $, .AHEAD.);
#256 = LOCAL_TIME (17, 51, 56., #255);
#257 = DATE_AND_TIME (#254, #256);
#258 = APPROVAL_DATE_TIME (#257, #253);
#259 = APPROVAL_ROLE ('');
#260 = PERSON ('', '', $, $, $, $);
#261 = ORGANIZATION ($, '', '');
#262 = PERSON_AND_ORGANIZATION (#260, #261);
#263 = APPROVAL_PERSON_ORGANIZATION (#262, #253, #259);
#264 = CC_DESIGN_APPROVAL (#253, (#251));
#265 = PERSON_AND_ORGANIZATION_ROLE ('creator');
#266 = PERSON ('', '', $, $, $, $);
#267 = ORGANIZATION ($, '', '');
#268 = PERSON_AND_ORGANIZATION (#266, #267);
#269 = CC_DESIGN_PERSON_AND_ORGANIZATION_ASSIGNMENT (#268, #265, (#251));
#270 = PERSON_AND_ORGANIZATION_ROLE ('part_supplier');
#271 = PERSON ('', '', $, $, $, $);
#272 = ORGANIZATION ($, '', '');
#273 = PERSON_AND_ORGANIZATION (#271, #272);
#274 = CC_DESIGN_PERSON_AND_ORGANIZATION_ASSIGNMENT (#273, #270, (#251));
#275 = SECURITY_CLASSIFICATION_LEVEL ('unclassified');
#276 = SECURITY_CLASSIFICATION ('', '', #275);
#277 = APPROVAL_STATUS ('approved');
#278 = APPROVAL (#277, '');
#279 = CALENDAR_DATE (2022, 25, 7);
#280 = COORDINATED_UNIVERSAL_TIME_OFFSET (0, $, .AHEAD.);
#281 = LOCAL_TIME (17, 51, 56., #280);
#282 = DATE_AND_TIME (#279, #281);
#283 = APPROVAL_DATE_TIME (#282, #278);
#284 = APPROVAL_ROLE ('');
#285 = PERSON ('', '', $, $, $, $);
#286 = ORGANIZATION ($, '', '');
#287 = PERSON_AND_ORGANIZATION (#285, #286);
#288 = APPROVAL_PERSON_ORGANIZATION (#287, #278, #284);
#289 = CC_DESIGN_APPROVAL (#278, (#276));
#290 = DATE_TIME_ROLE ('classification_date');
#291 = CALENDAR_DATE (2022, 25, 7);
#292 = COORDINATED_UNIVERSAL_TIME_OFFSET (0, $, .AHEAD.);
#293 = LOCAL_TIME (17, 51, 56., #292);
#294 = DATE_AND_TIME (#291, #293);
#295 = CC_DESIGN_DATE_AND_TIME_ASSIGNMENT (#294, #290, (#276));
#296 = PERSON_AND_ORGANIZATION_ROLE ('classification_officer');
#297 = PERSON ('', '', $, $, $, $);
#298 = ORGANIZATION ($, '', '');
#299 = PERSON_AND_ORGANIZATION (#297, #298);
#300 = CC_DESIGN_PERSON_AND_ORGANIZATION_ASSIGNMENT (#299, #296, (#276));
#301 = CC_DESIGN_SECURITY_CLASSIFICATION (#276, (#251));
#302 = DESIGN_CONTEXT ('', #241, 'design');
#303 = PRODUCT_DEFINITION ('', '', #251, #302);
#304 = APPROVAL_STATUS ('approved');
#305 = APPROVAL (#304, '');
#306 = CALENDAR_DATE (2022, 25, 7);
#307 = COORDINATED_UNIVERSAL_TIME_OFFSET (0, $, .AHEAD.);
#308 = LOCAL_TIME (17, 51, 56., #307);
#309 = DATE_AND_TIME (#306, #308);
#310 = APPROVAL_DATE_TIME (#309, #305);
#311 = APPROVAL_ROLE ('');
#312 = PERSON ('', '', $, $, $, $);
#313 = ORGANIZATION ($, '', '');
#314 = PERSON_AND_ORGANIZATION (#312, #313);
#315 = APPROVAL_PERSON_ORGANIZATION (#314, #305, #311);
#316 = CC_DESIGN_APPROVAL (#305, (#303));
#317 = DATE_TIME_ROLE ('creation_date');
#318 = CALENDAR_DATE (2022, 25, 7);
#319 = COORDINATED_UNIVERSAL_TIME_OFFSET (0, $, .AHEAD.);
#320 = LOCAL_TIME (17, 51, 56., #319);
#321 = DATE_AND_TIME (#318, #320);
#322 = CC_DESIGN_DATE_AND_TIME_ASSIGNMENT (#321, #317, (#303));
#323 = PERSON_AND_ORGANIZATION_ROLE ('creator');
#324 = PERSON ('', '', $, $, $, $);
#325 = ORGANIZATION ($, '', '');
#326 = PERSON_AND_ORGANIZATION (#324, #325);
#327 = CC_DESIGN_PERSON_AND_ORGANIZATION_ASSIGNMENT (#326, #323, (#303));
#328 = PRODUCT_DEFINITION_SHAPE ('', '', #303);
#329 = SHAPE_DEFINITION_REPRESENTATION (#328, #240);
#330 = SHAPE_REPRESENTATION_RELATIONSHIP ('', '', #240, #331);
#331 = ADVANCED_BREP_SHAPE_REPRESENTATION ('', (#234), #239);
ENDSEC;
END-ISO-10303-21;
