ISO-10303-21;
HEADER;
FILE_DESCRIPTION ((), '1');
FILE_NAME ('C:\\Users\\Paul\\Documents\\5AXF060805-AX.STP', '2022-07-25T16:15:15', ('Unknown'), ('M.A. Ford Europe'), 'OneCNC-XR8 Mill 3D Expert', 'OneCNC-XR8 Mill 3D Expert', '');
FILE_SCHEMA (('CONFIG_CONTROL_DESIGN'));
ENDSEC;

DATA;
#1 = CARTESIAN_POINT ('', (60., -3.07681106131309, 7.5360136356365E-16));
#2 = VERTEX_POINT ('', #1);
#3 = CARTESIAN_POINT ('', (60., -3.67394039744206E-15, 3.67394039744206E-15));
#4 = VERTEX_POINT ('', #3);
#5 = CARTESIAN_POINT ('', (60., -3.07681106131309, 7.53601363563649E-16));
#6 = CARTESIAN_POINT ('', (60., -3.67394039744206E-15, 3.67394039744206E-15));
#7 = B_SPLINE_CURVE_WITH_KNOTS ('', 1, (#5, #6), .UNSPECIFIED., .F., .U., (2, 2), (0., 1.), .UNSPECIFIED.);
#8 = EDGE_CURVE ('', #2, #4, #7, .T.);
#9 = ORIENTED_EDGE ('', *, *, #8, .F.);
#10 = CARTESIAN_POINT ('', (60., -3.07681106131309, 7.53601363563649E-16));
#11 = CARTESIAN_POINT ('', (60., -3.07681106131308, -12.3072442452524));
#12 = CARTESIAN_POINT ('', (60., 9.23043318393927, -6.15362212262617));
#13 = CARTESIAN_POINT ('', (60., 9.23043318393926, 6.15362212262619));
#14 = CARTESIAN_POINT ('', (60., -3.07681106131311, 12.3072442452524));
#15 = CARTESIAN_POINT ('', (60., -3.07681106131309, 7.53601363563649E-16));
#16 = (
   BOUNDED_CURVE ()
   B_SPLINE_CURVE (5, (#10, #11, #12, #13, #14, #15), .UNSPECIFIED., .T., .U.)
   B_SPLINE_CURVE_WITH_KNOTS ((6, 6), (0., 1.), .UNSPECIFIED.)
   CURVE ()
   GEOMETRIC_REPRESENTATION_ITEM ()
   RATIONAL_B_SPLINE_CURVE ((5., 1., 1., 1., 1., 5.))
   REPRESENTATION_ITEM ('')
);
#17 = EDGE_CURVE ('', #2, #2, #16, .T.);
#18 = ORIENTED_EDGE ('', *, *, #17, .T.);
#19 = ORIENTED_EDGE ('', *, *, #8, .T.);
#20 = EDGE_LOOP ('', (#9, #18, #19));
#21 = FACE_OUTER_BOUND ('', #20, .T.);
#22 = CARTESIAN_POINT ('', (60., -3.07681106131309, 7.53601363563649E-16));
#23 = CARTESIAN_POINT ('', (60., -3.67394039744206E-15, 3.67394039744206E-15));
#24 = CARTESIAN_POINT ('', (60., -3.07681106131308, -12.3072442452524));
#25 = CARTESIAN_POINT ('', (60., -3.67394039744206E-15, 3.67394039744206E-15));
#26 = CARTESIAN_POINT ('', (60., 9.23043318393927, -6.15362212262617));
#27 = CARTESIAN_POINT ('', (60., -3.67394039744206E-15, 3.67394039744206E-15));
#28 = CARTESIAN_POINT ('', (60., 9.23043318393926, 6.15362212262619));
#29 = CARTESIAN_POINT ('', (60., -3.67394039744206E-15, 3.67394039744206E-15));
#30 = CARTESIAN_POINT ('', (60., -3.07681106131311, 12.3072442452524));
#31 = CARTESIAN_POINT ('', (60., -3.67394039744206E-15, 3.67394039744206E-15));
#32 = CARTESIAN_POINT ('', (60., -3.07681106131309, 7.53601363563649E-16));
#33 = CARTESIAN_POINT ('', (60., -3.67394039744206E-15, 3.67394039744206E-15));
#34 = (
   BOUNDED_SURFACE ()
   B_SPLINE_SURFACE (5, 1, ((#22, #23), (#24, #25), (#26, #27), (#28, #29), (#30, #31), (#32, #33)), .UNSPECIFIED., .T., .F., .U.)
   B_SPLINE_SURFACE_WITH_KNOTS ((6, 6), (2, 2), (0., 1.), (0., 1.), .UNSPECIFIED.)
   SURFACE ()
   GEOMETRIC_REPRESENTATION_ITEM ()
   RATIONAL_B_SPLINE_SURFACE (((5., 5.), (1., 1.), (1., 1.), (1., 1.), (1., 1.), (5., 5.)))
   REPRESENTATION_ITEM ('')
);
#35 = ADVANCED_FACE ('', (#21), #34, .T.);
#36 = CARTESIAN_POINT ('', (18.8, -3.07681106131309, 7.5360136356365E-16));
#37 = VERTEX_POINT ('', #36);
#38 = CARTESIAN_POINT ('', (18.8, -3.07681106131309, 7.5360136356365E-16));
#39 = CARTESIAN_POINT ('', (32.5333333333334, -3.07681106131309, 7.5360136356365E-16));
#40 = CARTESIAN_POINT ('', (46.2666666666668, -3.07681106131309, 7.53601363563649E-16));
#41 = CARTESIAN_POINT ('', (60., -3.07681106131309, 7.53601363563649E-16));
#42 = B_SPLINE_CURVE_WITH_KNOTS ('', 3, (#38, #39, #40, #41), .UNSPECIFIED., .F., .U., (4, 4), (0., 1.), .UNSPECIFIED.);
#43 = EDGE_CURVE ('', #37, #2, #42, .T.);
#44 = ORIENTED_EDGE ('', *, *, #43, .F.);
#45 = CARTESIAN_POINT ('', (18.8, -3.07681106131309, 7.5360136356365E-16));
#46 = CARTESIAN_POINT ('', (18.8, -3.07681106131309, -12.3072442452524));
#47 = CARTESIAN_POINT ('', (18.8, 9.23043318393928, -6.15362212262618));
#48 = CARTESIAN_POINT ('', (18.8, 9.23043318393928, 6.15362212262619));
#49 = CARTESIAN_POINT ('', (18.8, -3.0768110613131, 12.3072442452524));
#50 = CARTESIAN_POINT ('', (18.8, -3.07681106131309, 7.5360136356365E-16));
#51 = (
   BOUNDED_CURVE ()
   B_SPLINE_CURVE (5, (#45, #46, #47, #48, #49, #50), .UNSPECIFIED., .T., .U.)
   B_SPLINE_CURVE_WITH_KNOTS ((6, 6), (0., 1.), .UNSPECIFIED.)
   CURVE ()
   GEOMETRIC_REPRESENTATION_ITEM ()
   RATIONAL_B_SPLINE_CURVE ((5., 1., 1., 1., 1., 5.))
   REPRESENTATION_ITEM ('')
);
#52 = EDGE_CURVE ('', #37, #37, #51, .T.);
#53 = ORIENTED_EDGE ('', *, *, #52, .T.);
#54 = ORIENTED_EDGE ('', *, *, #43, .T.);
#55 = ORIENTED_EDGE ('', *, *, #17, .F.);
#56 = EDGE_LOOP ('', (#44, #53, #54, #55));
#57 = FACE_OUTER_BOUND ('', #56, .T.);
#58 = CARTESIAN_POINT ('', (18.8, -3.07681106131309, 7.5360136356365E-16));
#59 = CARTESIAN_POINT ('', (32.5333333333334, -3.07681106131309, 7.5360136356365E-16));
#60 = CARTESIAN_POINT ('', (46.2666666666668, -3.07681106131309, 7.53601363563649E-16));
#61 = CARTESIAN_POINT ('', (60., -3.07681106131309, 7.53601363563649E-16));
#62 = CARTESIAN_POINT ('', (18.8, -3.07681106131309, -12.3072442452524));
#63 = CARTESIAN_POINT ('', (32.5333333333334, -3.07681106131309, -12.3072442452524));
#64 = CARTESIAN_POINT ('', (46.2666666666668, -3.07681106131309, -12.3072442452524));
#65 = CARTESIAN_POINT ('', (60., -3.07681106131308, -12.3072442452524));
#66 = CARTESIAN_POINT ('', (18.8, 9.23043318393928, -6.15362212262618));
#67 = CARTESIAN_POINT ('', (32.5333333333334, 9.23043318393928, -6.15362212262618));
#68 = CARTESIAN_POINT ('', (46.2666666666668, 9.23043318393928, -6.15362212262617));
#69 = CARTESIAN_POINT ('', (60., 9.23043318393927, -6.15362212262617));
#70 = CARTESIAN_POINT ('', (18.8, 9.23043318393928, 6.15362212262619));
#71 = CARTESIAN_POINT ('', (32.5333333333334, 9.23043318393927, 6.15362212262619));
#72 = CARTESIAN_POINT ('', (46.2666666666668, 9.23043318393927, 6.15362212262619));
#73 = CARTESIAN_POINT ('', (60., 9.23043318393926, 6.15362212262619));
#74 = CARTESIAN_POINT ('', (18.8, -3.0768110613131, 12.3072442452524));
#75 = CARTESIAN_POINT ('', (32.5333333333334, -3.0768110613131, 12.3072442452524));
#76 = CARTESIAN_POINT ('', (46.2666666666668, -3.0768110613131, 12.3072442452524));
#77 = CARTESIAN_POINT ('', (60., -3.07681106131311, 12.3072442452524));
#78 = CARTESIAN_POINT ('', (18.8, -3.07681106131309, 7.5360136356365E-16));
#79 = CARTESIAN_POINT ('', (32.5333333333334, -3.07681106131309, 7.5360136356365E-16));
#80 = CARTESIAN_POINT ('', (46.2666666666668, -3.07681106131309, 7.53601363563649E-16));
#81 = CARTESIAN_POINT ('', (60., -3.07681106131309, 7.53601363563649E-16));
#82 = (
   BOUNDED_SURFACE ()
   B_SPLINE_SURFACE (5, 3, ((#58, #59, #60, #61), (#62, #63, #64, #65), (#66, #67, #68, #69), (#70, #71, #72, #73), (#74, #75, #76, #77), (#78, #79, #80, #81)), .UNSPECIFIED., .T., .F., .U.)
   B_SPLINE_SURFACE_WITH_KNOTS ((6, 6), (4, 4), (0., 1.), (0., 1.), .UNSPECIFIED.)
   SURFACE ()
   GEOMETRIC_REPRESENTATION_ITEM ()
   RATIONAL_B_SPLINE_SURFACE (((5., 5., 5., 5.), (1., 1., 1., 1.), (1., 1., 1., 1.), (1., 1., 1., 1.), (1., 1., 1., 1.), (5., 5., 5., 5.)))
   REPRESENTATION_ITEM ('')
);
#83 = ADVANCED_FACE ('', (#57), #82, .T.);
#84 = CARTESIAN_POINT ('', (-3.74939945665464E-33, 2.29584502165847E-49, -2.29584502165847E-49));
#85 = VERTEX_POINT ('', #84);
#86 = CARTESIAN_POINT ('', (0.430413449519974, -0.495134034370786, 1.2127286206822E-16));
#87 = VERTEX_POINT ('', #86);
#88 = CARTESIAN_POINT ('', (-3.74939945665464E-33, 2.29584502165847E-49, -2.29584502165847E-49));
#89 = CARTESIAN_POINT ('', (-2.10638720766586E-17, -0.111479205646784, 2.73045304733648E-17));
#90 = CARTESIAN_POINT ('', (0.0833230471624104, -0.348972951511743, 8.54737216115722E-17));
#91 = CARTESIAN_POINT ('', (0.304600757416275, -0.47745221360638, 1.16942065027774E-16));
#92 = CARTESIAN_POINT ('', (0.430413449519974, -0.495134034370786, 1.2127286206822E-16));
#93 = B_SPLINE_CURVE_WITH_KNOTS ('', 3, (#88, #89, #90, #91, #92), .UNSPECIFIED., .F., .U., (4, 1, 4), (0., 0.467362535636463, 1.), .UNSPECIFIED.);
#94 = EDGE_CURVE ('', #85, #87, #93, .T.);
#95 = ORIENTED_EDGE ('', *, *, #94, .F.);
#96 = ORIENTED_EDGE ('', *, *, #94, .T.);
#97 = CARTESIAN_POINT ('', (0.430413449519974, -0.495134034370786, 1.2127286206822E-16));
#98 = CARTESIAN_POINT ('', (0.430413449519974, -0.495134034370786, -1.98053613748314));
#99 = CARTESIAN_POINT ('', (0.430413449519974, 1.48540210311236, -0.990268068741572));
#100 = CARTESIAN_POINT ('', (0.430413449519974, 1.48540210311236, 0.990268068741572));
#101 = CARTESIAN_POINT ('', (0.430413449519974, -0.495134034370786, 1.98053613748314));
#102 = CARTESIAN_POINT ('', (0.430413449519974, -0.495134034370786, 1.2127286206822E-16));
#103 = (
   BOUNDED_CURVE ()
   B_SPLINE_CURVE (5, (#97, #98, #99, #100, #101, #102), .UNSPECIFIED., .T., .U.)
   B_SPLINE_CURVE_WITH_KNOTS ((6, 6), (0., 1.), .UNSPECIFIED.)
   CURVE ()
   GEOMETRIC_REPRESENTATION_ITEM ()
   RATIONAL_B_SPLINE_CURVE ((5., 1., 1., 1., 1., 5.))
   REPRESENTATION_ITEM ('')
);
#104 = EDGE_CURVE ('', #87, #87, #103, .T.);
#105 = ORIENTED_EDGE ('', *, *, #104, .F.);
#106 = EDGE_LOOP ('', (#95, #96, #105));
#107 = FACE_OUTER_BOUND ('', #106, .T.);
#108 = CARTESIAN_POINT ('', (-3.74939945665464E-33, 2.29584502165847E-49, -2.29584502165847E-49));
#109 = CARTESIAN_POINT ('', (-2.10638720766586E-17, -0.111479205646784, 2.73045304733648E-17));
#110 = CARTESIAN_POINT ('', (0.0833230471624104, -0.348972951511743, 8.54737216115722E-17));
#111 = CARTESIAN_POINT ('', (0.304600757416275, -0.47745221360638, 1.16942065027774E-16));
#112 = CARTESIAN_POINT ('', (0.430413449519974, -0.495134034370786, 1.2127286206822E-16));
#113 = CARTESIAN_POINT ('', (-3.74939945665464E-33, 2.29584502165847E-49, -2.29584502165847E-49));
#114 = CARTESIAN_POINT ('', (6.24065839670617E-18, -0.111479205646784, -0.445916822587137));
#115 = CARTESIAN_POINT ('', (0.0833230471624105, -0.348972951511744, -1.39589180604697));
#116 = CARTESIAN_POINT ('', (0.304600757416276, -0.47745221360638, -1.90980885442552));
#117 = CARTESIAN_POINT ('', (0.430413449519974, -0.495134034370786, -1.98053613748314));
#118 = CARTESIAN_POINT ('', (-3.74939945665464E-33, 2.29584502165847E-49, -2.29584502165847E-49));
#119 = CARTESIAN_POINT ('', (1.98929236333886E-17, 0.334437616940353, -0.222958411293569));
#120 = CARTESIAN_POINT ('', (0.0833230471624105, 1.04691885453523, -0.697945903023487));
#121 = CARTESIAN_POINT ('', (0.304600757416276, 1.43235664081914, -0.95490442721276));
#122 = CARTESIAN_POINT ('', (0.430413449519974, 1.48540210311236, -0.990268068741572));
#123 = CARTESIAN_POINT ('', (-3.74939945665464E-33, 2.29584502165847E-49, -2.29584502165847E-49));
#124 = CARTESIAN_POINT ('', (-7.41160683997622E-18, 0.334437616940353, 0.222958411293569));
#125 = CARTESIAN_POINT ('', (0.0833230471624105, 1.04691885453523, 0.697945903023487));
#126 = CARTESIAN_POINT ('', (0.304600757416275, 1.43235664081914, 0.954904427212759));
#127 = CARTESIAN_POINT ('', (0.430413449519974, 1.48540210311236, 0.990268068741572));
#128 = CARTESIAN_POINT ('', (-3.74939945665464E-33, 2.29584502165847E-49, -2.29584502165847E-49));
#129 = CARTESIAN_POINT ('', (-4.83684025500234E-17, -0.111479205646784, 0.445916822587137));
#130 = CARTESIAN_POINT ('', (0.0833230471624103, -0.348972951511743, 1.39589180604697));
#131 = CARTESIAN_POINT ('', (0.304600757416275, -0.477452213606379, 1.90980885442552));
#132 = CARTESIAN_POINT ('', (0.430413449519974, -0.495134034370786, 1.98053613748314));
#133 = CARTESIAN_POINT ('', (-3.74939945665464E-33, 2.29584502165847E-49, -2.29584502165847E-49));
#134 = CARTESIAN_POINT ('', (-2.10638720766586E-17, -0.111479205646784, 2.73045304733648E-17));
#135 = CARTESIAN_POINT ('', (0.0833230471624104, -0.348972951511743, 8.54737216115722E-17));
#136 = CARTESIAN_POINT ('', (0.304600757416275, -0.47745221360638, 1.16942065027774E-16));
#137 = CARTESIAN_POINT ('', (0.430413449519974, -0.495134034370786, 1.2127286206822E-16));
#138 = (
   BOUNDED_SURFACE ()
   B_SPLINE_SURFACE (5, 3, ((#108, #109, #110, #111, #112), (#113, #114, #115, #116, #117), (#118, #119, #120, #121, #122), (#123, #124, #125, #126, #127), (#128, #129, #130, #131, #132), (#133, #134, #135, #136, #137)), .UNSPECIFIED., .T., .F., .U.)
   B_SPLINE_SURFACE_WITH_KNOTS ((6, 6), (4, 1, 4), (0., 1.), (0., 0.467362535636463, 1.), .UNSPECIFIED.)
   SURFACE ()
   GEOMETRIC_REPRESENTATION_ITEM ()
   RATIONAL_B_SPLINE_SURFACE (((5., 5., 5., 5., 5.), (1., 1., 1., 1., 1.), (1., 1., 1., 1., 1.), (1., 1., 1., 1., 1.), (1., 1., 1., 1., 1.), (5., 5., 5., 5., 5.)))
   REPRESENTATION_ITEM ('')
);
#139 = ADVANCED_FACE ('', (#107), #138, .T.);
#140 = CARTESIAN_POINT ('', (0.430413449519904, -0.495134034370835, 1.21272862068232E-16));
#141 = CARTESIAN_POINT ('', (6.55360896634661, -1.35569304335159, 3.32049029233372E-16));
#142 = CARTESIAN_POINT ('', (12.6768044831733, -2.21625205233235, 5.42825196398513E-16));
#143 = CARTESIAN_POINT ('', (18.8, -3.07681106131309, 7.5360136356365E-16));
#144 = B_SPLINE_CURVE_WITH_KNOTS ('', 3, (#140, #141, #142, #143), .UNSPECIFIED., .F., .U., (4, 4), (0., 1.), .UNSPECIFIED.);
#145 = EDGE_CURVE ('', #87, #37, #144, .T.);
#146 = ORIENTED_EDGE ('', *, *, #145, .F.);
#147 = ORIENTED_EDGE ('', *, *, #104, .T.);
#148 = ORIENTED_EDGE ('', *, *, #145, .T.);
#149 = ORIENTED_EDGE ('', *, *, #52, .F.);
#150 = EDGE_LOOP ('', (#146, #147, #148, #149));
#151 = FACE_OUTER_BOUND ('', #150, .T.);
#152 = CARTESIAN_POINT ('', (0.430413449519904, -0.495134034370835, 1.21272862068232E-16));
#153 = CARTESIAN_POINT ('', (6.55360896634661, -1.35569304335159, 3.32049029233372E-16));
#154 = CARTESIAN_POINT ('', (12.6768044831733, -2.21625205233235, 5.42825196398513E-16));
#155 = CARTESIAN_POINT ('', (18.8, -3.07681106131309, 7.5360136356365E-16));
#156 = CARTESIAN_POINT ('', (0.430413449519904, -0.495134034370836, -1.98053613748334));
#157 = CARTESIAN_POINT ('', (6.55360896634661, -1.35569304335159, -5.42277217340636));
#158 = CARTESIAN_POINT ('', (12.6768044831733, -2.21625205233235, -8.86500820932941));
#159 = CARTESIAN_POINT ('', (18.8, -3.07681106131309, -12.3072442452524));
#160 = CARTESIAN_POINT ('', (0.430413449519904, 1.48540210311251, -0.990268068741671));
#161 = CARTESIAN_POINT ('', (6.55360896634661, 4.06707913005477, -2.71138608670318));
#162 = CARTESIAN_POINT ('', (12.6768044831733, 6.64875615699706, -4.4325041046647));
#163 = CARTESIAN_POINT ('', (18.8, 9.23043318393928, -6.15362212262618));
#164 = CARTESIAN_POINT ('', (0.430413449519904, 1.48540210311251, 0.99026806874167));
#165 = CARTESIAN_POINT ('', (6.55360896634661, 4.06707913005477, 2.71138608670318));
#166 = CARTESIAN_POINT ('', (12.6768044831733, 6.64875615699705, 4.43250410466471));
#167 = CARTESIAN_POINT ('', (18.8, 9.23043318393928, 6.15362212262619));
#168 = CARTESIAN_POINT ('', (0.430413449519904, -0.495134034370835, 1.98053613748334));
#169 = CARTESIAN_POINT ('', (6.55360896634661, -1.35569304335159, 5.42277217340636));
#170 = CARTESIAN_POINT ('', (12.6768044831733, -2.21625205233235, 8.86500820932941));
#171 = CARTESIAN_POINT ('', (18.8, -3.0768110613131, 12.3072442452524));
#172 = CARTESIAN_POINT ('', (0.430413449519904, -0.495134034370835, 1.21272862068232E-16));
#173 = CARTESIAN_POINT ('', (6.55360896634661, -1.35569304335159, 3.32049029233372E-16));
#174 = CARTESIAN_POINT ('', (12.6768044831733, -2.21625205233235, 5.42825196398513E-16));
#175 = CARTESIAN_POINT ('', (18.8, -3.07681106131309, 7.5360136356365E-16));
#176 = (
   BOUNDED_SURFACE ()
   B_SPLINE_SURFACE (5, 3, ((#152, #153, #154, #155), (#156, #157, #158, #159), (#160, #161, #162, #163), (#164, #165, #166, #167), (#168, #169, #170, #171), (#172, #173, #174, #175)), .UNSPECIFIED., .T., .F., .U.)
   B_SPLINE_SURFACE_WITH_KNOTS ((6, 6), (4, 4), (0., 1.), (0., 1.), .UNSPECIFIED.)
   SURFACE ()
   GEOMETRIC_REPRESENTATION_ITEM ()
   RATIONAL_B_SPLINE_SURFACE (((5., 5., 5., 5.), (1., 1., 1., 1.), (1., 1., 1., 1.), (1., 1., 1., 1.), (1., 1., 1., 1.), (5., 5., 5., 5.)))
   REPRESENTATION_ITEM ('')
);
#177 = ADVANCED_FACE ('', (#151), #176, .T.);
#178 = CLOSED_SHELL ('', (#35, #83, #139, #177));
#179 = MANIFOLD_SOLID_BREP ('', #178);
#180 = (
   LENGTH_UNIT ()
   NAMED_UNIT (*)
   SI_UNIT (.MILLI., .METRE.)
);
#181 = (
   NAMED_UNIT (*)
   SI_UNIT ($, .STERADIAN.)
   SOLID_ANGLE_UNIT ()
);
#182 = (
   NAMED_UNIT (*)
   SI_UNIT ($, .RADIAN.)
   PLANE_ANGLE_UNIT ()
);
#183 = UNCERTAINTY_MEASURE_WITH_UNIT (LENGTH_MEASURE(0.001), #180, 'DISTANCE_ACCURACY_VALUE', '');
#184 = (
   GEOMETRIC_REPRESENTATION_CONTEXT (3)
   GLOBAL_UNCERTAINTY_ASSIGNED_CONTEXT ((#183))
   GLOBAL_UNIT_ASSIGNED_CONTEXT ((#180, #181, #182))
   REPRESENTATION_CONTEXT ('', '3D')
);
#185 = SHAPE_REPRESENTATION ('', (), #184);
#186 = APPLICATION_CONTEXT ('configuration controlled 3D designs of mechanical parts and assemblies');
#187 = APPLICATION_PROTOCOL_DEFINITION ('International Standard', 'config_control_design', 1997, #186);
#188 = MECHANICAL_CONTEXT ('', #186, 'mechanical');
#189 = PRODUCT ('', '', '', (#188));
#190 = PERSON_AND_ORGANIZATION_ROLE ('design_owner');
#191 = PERSON ('', '', $, $, $, $);
#192 = ORGANIZATION ($, '', '');
#193 = PERSON_AND_ORGANIZATION (#191, #192);
#194 = CC_DESIGN_PERSON_AND_ORGANIZATION_ASSIGNMENT (#193, #190, (#189));
#195 = PRODUCT_RELATED_PRODUCT_CATEGORY ('detail', $, (#189));
#196 = PRODUCT_DEFINITION_FORMATION_WITH_SPECIFIED_SOURCE ('', '', #189, .NOT_KNOWN.);
#197 = APPROVAL_STATUS ('approved');
#198 = APPROVAL (#197, '');
#199 = CALENDAR_DATE (2022, 25, 7);
#200 = COORDINATED_UNIVERSAL_TIME_OFFSET (0, $, .AHEAD.);
#201 = LOCAL_TIME (16, 15, 15., #200);
#202 = DATE_AND_TIME (#199, #201);
#203 = APPROVAL_DATE_TIME (#202, #198);
#204 = APPROVAL_ROLE ('');
#205 = PERSON ('', '', $, $, $, $);
#206 = ORGANIZATION ($, '', '');
#207 = PERSON_AND_ORGANIZATION (#205, #206);
#208 = APPROVAL_PERSON_ORGANIZATION (#207, #198, #204);
#209 = CC_DESIGN_APPROVAL (#198, (#196));
#210 = PERSON_AND_ORGANIZATION_ROLE ('creator');
#211 = PERSON ('', '', $, $, $, $);
#212 = ORGANIZATION ($, '', '');
#213 = PERSON_AND_ORGANIZATION (#211, #212);
#214 = CC_DESIGN_PERSON_AND_ORGANIZATION_ASSIGNMENT (#213, #210, (#196));
#215 = PERSON_AND_ORGANIZATION_ROLE ('part_supplier');
#216 = PERSON ('', '', $, $, $, $);
#217 = ORGANIZATION ($, '', '');
#218 = PERSON_AND_ORGANIZATION (#216, #217);
#219 = CC_DESIGN_PERSON_AND_ORGANIZATION_ASSIGNMENT (#218, #215, (#196));
#220 = SECURITY_CLASSIFICATION_LEVEL ('unclassified');
#221 = SECURITY_CLASSIFICATION ('', '', #220);
#222 = APPROVAL_STATUS ('approved');
#223 = APPROVAL (#222, '');
#224 = CALENDAR_DATE (2022, 25, 7);
#225 = COORDINATED_UNIVERSAL_TIME_OFFSET (0, $, .AHEAD.);
#226 = LOCAL_TIME (16, 15, 15., #225);
#227 = DATE_AND_TIME (#224, #226);
#228 = APPROVAL_DATE_TIME (#227, #223);
#229 = APPROVAL_ROLE ('');
#230 = PERSON ('', '', $, $, $, $);
#231 = ORGANIZATION ($, '', '');
#232 = PERSON_AND_ORGANIZATION (#230, #231);
#233 = APPROVAL_PERSON_ORGANIZATION (#232, #223, #229);
#234 = CC_DESIGN_APPROVAL (#223, (#221));
#235 = DATE_TIME_ROLE ('classification_date');
#236 = CALENDAR_DATE (2022, 25, 7);
#237 = COORDINATED_UNIVERSAL_TIME_OFFSET (0, $, .AHEAD.);
#238 = LOCAL_TIME (16, 15, 15., #237);
#239 = DATE_AND_TIME (#236, #238);
#240 = CC_DESIGN_DATE_AND_TIME_ASSIGNMENT (#239, #235, (#221));
#241 = PERSON_AND_ORGANIZATION_ROLE ('classification_officer');
#242 = PERSON ('', '', $, $, $, $);
#243 = ORGANIZATION ($, '', '');
#244 = PERSON_AND_ORGANIZATION (#242, #243);
#245 = CC_DESIGN_PERSON_AND_ORGANIZATION_ASSIGNMENT (#244, #241, (#221));
#246 = CC_DESIGN_SECURITY_CLASSIFICATION (#221, (#196));
#247 = DESIGN_CONTEXT ('', #186, 'design');
#248 = PRODUCT_DEFINITION ('', '', #196, #247);
#249 = APPROVAL_STATUS ('approved');
#250 = APPROVAL (#249, '');
#251 = CALENDAR_DATE (2022, 25, 7);
#252 = COORDINATED_UNIVERSAL_TIME_OFFSET (0, $, .AHEAD.);
#253 = LOCAL_TIME (16, 15, 15., #252);
#254 = DATE_AND_TIME (#251, #253);
#255 = APPROVAL_DATE_TIME (#254, #250);
#256 = APPROVAL_ROLE ('');
#257 = PERSON ('', '', $, $, $, $);
#258 = ORGANIZATION ($, '', '');
#259 = PERSON_AND_ORGANIZATION (#257, #258);
#260 = APPROVAL_PERSON_ORGANIZATION (#259, #250, #256);
#261 = CC_DESIGN_APPROVAL (#250, (#248));
#262 = DATE_TIME_ROLE ('creation_date');
#263 = CALENDAR_DATE (2022, 25, 7);
#264 = COORDINATED_UNIVERSAL_TIME_OFFSET (0, $, .AHEAD.);
#265 = LOCAL_TIME (16, 15, 15., #264);
#266 = DATE_AND_TIME (#263, #265);
#267 = CC_DESIGN_DATE_AND_TIME_ASSIGNMENT (#266, #262, (#248));
#268 = PERSON_AND_ORGANIZATION_ROLE ('creator');
#269 = PERSON ('', '', $, $, $, $);
#270 = ORGANIZATION ($, '', '');
#271 = PERSON_AND_ORGANIZATION (#269, #270);
#272 = CC_DESIGN_PERSON_AND_ORGANIZATION_ASSIGNMENT (#271, #268, (#248));
#273 = PRODUCT_DEFINITION_SHAPE ('', '', #248);
#274 = SHAPE_DEFINITION_REPRESENTATION (#273, #185);
#275 = SHAPE_REPRESENTATION_RELATIONSHIP ('', '', #185, #276);
#276 = ADVANCED_BREP_SHAPE_REPRESENTATION ('', (#179), #184);
ENDSEC;
END-ISO-10303-21;
