ISO-10303-21;
HEADER;
FILE_DESCRIPTION ((), '1');
FILE_NAME ('C:\\Users\\Paul\\MAFord Europe\\MAFEU Sales Team - Documents\\STEP Files\\5AXF\\5AXFD060810-AX.STP', '2022-07-25T17:37:05', ('Unknown'), ('M.A. Ford Europe'), 'OneCNC-XR8 Mill 3D Expert', 'OneCNC-XR8 Mill 3D Expert', '');
FILE_SCHEMA (('CONFIG_CONTROL_DESIGN'));
ENDSEC;

DATA;
#1 = CARTESIAN_POINT ('', (60., -3.10388600958419, 7.60232813311104E-16));
#2 = VERTEX_POINT ('', #1);
#3 = CARTESIAN_POINT ('', (60., -3.67394039744206E-15, 3.67394039744206E-15));
#4 = VERTEX_POINT ('', #3);
#5 = CARTESIAN_POINT ('', (60., -3.10388600958419, 7.60232813311104E-16));
#6 = CARTESIAN_POINT ('', (60., -3.5527136788005E-15, 3.67394039744206E-15));
#7 = B_SPLINE_CURVE_WITH_KNOTS ('', 1, (#5, #6), .UNSPECIFIED., .F., .U., (2, 2), (0., 1.), .UNSPECIFIED.);
#8 = EDGE_CURVE ('', #2, #4, #7, .T.);
#9 = ORIENTED_EDGE ('', *, *, #8, .F.);
#10 = CARTESIAN_POINT ('', (60., -3.10388600958419, 7.60232813311104E-16));
#11 = CARTESIAN_POINT ('', (60., -3.10388600958418, -12.4155440383367));
#12 = CARTESIAN_POINT ('', (60., 9.31165802875255, -6.20777201916835));
#13 = CARTESIAN_POINT ('', (60., 9.31165802875254, 6.20777201916838));
#14 = CARTESIAN_POINT ('', (60., -3.1038860095842, 12.4155440383367));
#15 = CARTESIAN_POINT ('', (60., -3.10388600958419, 7.60232813311104E-16));
#16 = (
   BOUNDED_CURVE ()
   B_SPLINE_CURVE (5, (#10, #11, #12, #13, #14, #15), .UNSPECIFIED., .T., .U.)
   B_SPLINE_CURVE_WITH_KNOTS ((6, 6), (0., 1.), .UNSPECIFIED.)
   CURVE ()
   GEOMETRIC_REPRESENTATION_ITEM ()
   RATIONAL_B_SPLINE_CURVE ((5., 1., 1., 1., 1., 5.))
   REPRESENTATION_ITEM ('')
);
#17 = EDGE_CURVE ('', #2, #2, #16, .T.);
#18 = ORIENTED_EDGE ('', *, *, #17, .T.);
#19 = ORIENTED_EDGE ('', *, *, #8, .T.);
#20 = EDGE_LOOP ('', (#9, #18, #19));
#21 = FACE_OUTER_BOUND ('', #20, .T.);
#22 = CARTESIAN_POINT ('', (60., -3.10388600958419, 7.60232813311104E-16));
#23 = CARTESIAN_POINT ('', (60., -3.67394039744206E-15, 3.67394039744206E-15));
#24 = CARTESIAN_POINT ('', (60., -3.10388600958418, -12.4155440383367));
#25 = CARTESIAN_POINT ('', (60., -3.67394039744206E-15, 3.67394039744206E-15));
#26 = CARTESIAN_POINT ('', (60., 9.31165802875255, -6.20777201916835));
#27 = CARTESIAN_POINT ('', (60., -3.67394039744206E-15, 3.67394039744206E-15));
#28 = CARTESIAN_POINT ('', (60., 9.31165802875254, 6.20777201916838));
#29 = CARTESIAN_POINT ('', (60., -3.67394039744206E-15, 3.67394039744206E-15));
#30 = CARTESIAN_POINT ('', (60., -3.1038860095842, 12.4155440383367));
#31 = CARTESIAN_POINT ('', (60., -3.67394039744206E-15, 3.67394039744206E-15));
#32 = CARTESIAN_POINT ('', (60., -3.10388600958419, 7.60232813311104E-16));
#33 = CARTESIAN_POINT ('', (60., -3.67394039744206E-15, 3.67394039744206E-15));
#34 = (
   BOUNDED_SURFACE ()
   B_SPLINE_SURFACE (5, 1, ((#22, #23), (#24, #25), (#26, #27), (#28, #29), (#30, #31), (#32, #33)), .UNSPECIFIED., .T., .F., .U.)
   B_SPLINE_SURFACE_WITH_KNOTS ((6, 6), (2, 2), (0., 1.), (0., 1.), .UNSPECIFIED.)
   SURFACE ()
   GEOMETRIC_REPRESENTATION_ITEM ()
   RATIONAL_B_SPLINE_SURFACE (((5., 5.), (1., 1.), (1., 1.), (1., 1.), (1., 1.), (5., 5.)))
   REPRESENTATION_ITEM ('')
);
#35 = ADVANCED_FACE ('', (#21), #34, .T.);
#36 = CARTESIAN_POINT ('', (15.9, -3.10388600958419, 7.60232813311105E-16));
#37 = VERTEX_POINT ('', #36);
#38 = CARTESIAN_POINT ('', (15.9, -3.10388600958419, 7.60232813311105E-16));
#39 = CARTESIAN_POINT ('', (30.6, -3.10388600958419, 7.60232813311104E-16));
#40 = CARTESIAN_POINT ('', (45.2999999999998, -3.10388600958419, 7.60232813311104E-16));
#41 = CARTESIAN_POINT ('', (60., -3.10388600958419, 7.60232813311104E-16));
#42 = B_SPLINE_CURVE_WITH_KNOTS ('', 3, (#38, #39, #40, #41), .UNSPECIFIED., .F., .U., (4, 4), (0., 1.), .UNSPECIFIED.);
#43 = EDGE_CURVE ('', #37, #2, #42, .T.);
#44 = ORIENTED_EDGE ('', *, *, #43, .F.);
#45 = CARTESIAN_POINT ('', (15.9, -3.10388600958419, 7.60232813311105E-16));
#46 = CARTESIAN_POINT ('', (15.9, -3.10388600958419, -12.4155440383367));
#47 = CARTESIAN_POINT ('', (15.9, 9.31165802875256, -6.20777201916837));
#48 = CARTESIAN_POINT ('', (15.9, 9.31165802875256, 6.20777201916837));
#49 = CARTESIAN_POINT ('', (15.9, -3.10388600958419, 12.4155440383367));
#50 = CARTESIAN_POINT ('', (15.9, -3.10388600958419, 7.60232813311105E-16));
#51 = (
   BOUNDED_CURVE ()
   B_SPLINE_CURVE (5, (#45, #46, #47, #48, #49, #50), .UNSPECIFIED., .T., .U.)
   B_SPLINE_CURVE_WITH_KNOTS ((6, 6), (0., 1.), .UNSPECIFIED.)
   CURVE ()
   GEOMETRIC_REPRESENTATION_ITEM ()
   RATIONAL_B_SPLINE_CURVE ((5., 1., 1., 1., 1., 5.))
   REPRESENTATION_ITEM ('')
);
#52 = EDGE_CURVE ('', #37, #37, #51, .T.);
#53 = ORIENTED_EDGE ('', *, *, #52, .T.);
#54 = ORIENTED_EDGE ('', *, *, #43, .T.);
#55 = ORIENTED_EDGE ('', *, *, #17, .F.);
#56 = EDGE_LOOP ('', (#44, #53, #54, #55));
#57 = FACE_OUTER_BOUND ('', #56, .T.);
#58 = CARTESIAN_POINT ('', (15.9, -3.10388600958419, 7.60232813311105E-16));
#59 = CARTESIAN_POINT ('', (30.6, -3.10388600958419, 7.60232813311104E-16));
#60 = CARTESIAN_POINT ('', (45.2999999999998, -3.10388600958419, 7.60232813311104E-16));
#61 = CARTESIAN_POINT ('', (60., -3.10388600958419, 7.60232813311104E-16));
#62 = CARTESIAN_POINT ('', (15.9, -3.10388600958419, -12.4155440383367));
#63 = CARTESIAN_POINT ('', (30.6, -3.10388600958418, -12.4155440383367));
#64 = CARTESIAN_POINT ('', (45.2999999999998, -3.10388600958418, -12.4155440383367));
#65 = CARTESIAN_POINT ('', (60., -3.10388600958418, -12.4155440383367));
#66 = CARTESIAN_POINT ('', (15.9, 9.31165802875256, -6.20777201916837));
#67 = CARTESIAN_POINT ('', (30.6, 9.31165802875255, -6.20777201916836));
#68 = CARTESIAN_POINT ('', (45.2999999999998, 9.31165802875255, -6.20777201916836));
#69 = CARTESIAN_POINT ('', (60., 9.31165802875255, -6.20777201916835));
#70 = CARTESIAN_POINT ('', (15.9, 9.31165802875256, 6.20777201916837));
#71 = CARTESIAN_POINT ('', (30.6, 9.31165802875255, 6.20777201916837));
#72 = CARTESIAN_POINT ('', (45.2999999999998, 9.31165802875255, 6.20777201916838));
#73 = CARTESIAN_POINT ('', (60., 9.31165802875254, 6.20777201916838));
#74 = CARTESIAN_POINT ('', (15.9, -3.10388600958419, 12.4155440383367));
#75 = CARTESIAN_POINT ('', (30.6, -3.10388600958419, 12.4155440383367));
#76 = CARTESIAN_POINT ('', (45.2999999999998, -3.10388600958419, 12.4155440383367));
#77 = CARTESIAN_POINT ('', (60., -3.1038860095842, 12.4155440383367));
#78 = CARTESIAN_POINT ('', (15.9, -3.10388600958419, 7.60232813311105E-16));
#79 = CARTESIAN_POINT ('', (30.6, -3.10388600958419, 7.60232813311104E-16));
#80 = CARTESIAN_POINT ('', (45.2999999999998, -3.10388600958419, 7.60232813311104E-16));
#81 = CARTESIAN_POINT ('', (60., -3.10388600958419, 7.60232813311104E-16));
#82 = (
   BOUNDED_SURFACE ()
   B_SPLINE_SURFACE (5, 3, ((#58, #59, #60, #61), (#62, #63, #64, #65), (#66, #67, #68, #69), (#70, #71, #72, #73), (#74, #75, #76, #77), (#78, #79, #80, #81)), .UNSPECIFIED., .T., .F., .U.)
   B_SPLINE_SURFACE_WITH_KNOTS ((6, 6), (4, 4), (0., 1.), (0., 1.), .UNSPECIFIED.)
   SURFACE ()
   GEOMETRIC_REPRESENTATION_ITEM ()
   RATIONAL_B_SPLINE_SURFACE (((5., 5., 5., 5.), (1., 1., 1., 1.), (1., 1., 1., 1.), (1., 1., 1., 1.), (1., 1., 1., 1.), (5., 5., 5., 5.)))
   REPRESENTATION_ITEM ('')
);
#83 = ADVANCED_FACE ('', (#57), #82, .T.);
#84 = CARTESIAN_POINT ('', (-7.49879891330929E-33, 4.59169004331693E-49, -4.59169004331693E-49));
#85 = VERTEX_POINT ('', #84);
#86 = CARTESIAN_POINT ('', (0.860826899039933, -0.99026806874157, 2.42545724136439E-16));
#87 = VERTEX_POINT ('', #86);
#88 = CARTESIAN_POINT ('', (-7.49879891330929E-33, 4.59169004331693E-49, -4.59169004331693E-49));
#89 = CARTESIAN_POINT ('', (-2.01415079061042E-17, -0.161015340546247, 3.94373842827164E-17));
#90 = CARTESIAN_POINT ('', (0.0628601388862968, -0.414816207334491, 1.01600668109326E-16));
#91 = CARTESIAN_POINT ('', (0.343794830948053, -0.806118993954005, 1.97442209135531E-16));
#92 = CARTESIAN_POINT ('', (0.640038303678565, -0.959238255256714, 2.34945611783965E-16));
#93 = CARTESIAN_POINT ('', (0.860826899039933, -0.99026806874157, 2.42545724136439E-16));
#94 = B_SPLINE_CURVE_WITH_KNOTS ('', 3, (#88, #89, #90, #91, #92, #93), .UNSPECIFIED., .F., .U., (4, 1, 1, 4), (0., 0.337518272566889, 0.532637464363537, 1.), .UNSPECIFIED.);
#95 = EDGE_CURVE ('', #85, #87, #94, .T.);
#96 = ORIENTED_EDGE ('', *, *, #95, .F.);
#97 = ORIENTED_EDGE ('', *, *, #95, .T.);
#98 = CARTESIAN_POINT ('', (0.860826899039933, -0.99026806874157, 2.42545724136439E-16));
#99 = CARTESIAN_POINT ('', (0.860826899039934, -0.990268068741571, -3.96107227496628));
#100 = CARTESIAN_POINT ('', (0.860826899039934, 2.97080420622471, -1.98053613748314));
#101 = CARTESIAN_POINT ('', (0.860826899039933, 2.97080420622471, 1.98053613748314));
#102 = CARTESIAN_POINT ('', (0.860826899039933, -0.990268068741569, 3.96107227496628));
#103 = CARTESIAN_POINT ('', (0.860826899039933, -0.99026806874157, 2.42545724136439E-16));
#104 = (
   BOUNDED_CURVE ()
   B_SPLINE_CURVE (5, (#98, #99, #100, #101, #102, #103), .UNSPECIFIED., .T., .U.)
   B_SPLINE_CURVE_WITH_KNOTS ((6, 6), (0., 1.), .UNSPECIFIED.)
   CURVE ()
   GEOMETRIC_REPRESENTATION_ITEM ()
   RATIONAL_B_SPLINE_CURVE ((5., 1., 1., 1., 1., 5.))
   REPRESENTATION_ITEM ('')
);
#105 = EDGE_CURVE ('', #87, #87, #104, .T.);
#106 = ORIENTED_EDGE ('', *, *, #105, .F.);
#107 = EDGE_LOOP ('', (#96, #97, #106));
#108 = FACE_OUTER_BOUND ('', #107, .T.);
#109 = CARTESIAN_POINT ('', (-7.49879891330929E-33, 4.59169004331693E-49, -4.59169004331693E-49));
#110 = CARTESIAN_POINT ('', (-2.01415079061042E-17, -0.161015340546247, 3.94373842827164E-17));
#111 = CARTESIAN_POINT ('', (0.0628601388862968, -0.414816207334491, 1.01600668109326E-16));
#112 = CARTESIAN_POINT ('', (0.343794830948053, -0.806118993954005, 1.97442209135531E-16));
#113 = CARTESIAN_POINT ('', (0.640038303678565, -0.959238255256714, 2.34945611783965E-16));
#114 = CARTESIAN_POINT ('', (0.860826899039933, -0.99026806874157, 2.42545724136439E-16));
#115 = CARTESIAN_POINT ('', (-7.49879891330929E-33, 4.59169004331693E-49, -4.59169004331693E-49));
#116 = CARTESIAN_POINT ('', (1.92958763766122E-17, -0.161015340546247, -0.644061362184987));
#117 = CARTESIAN_POINT ('', (0.0628601388862969, -0.414816207334491, -1.65926482933796));
#118 = CARTESIAN_POINT ('', (0.343794830948053, -0.806118993954006, -3.22447597581602));
#119 = CARTESIAN_POINT ('', (0.640038303678566, -0.959238255256715, -3.83695302102686));
#120 = CARTESIAN_POINT ('', (0.860826899039934, -0.990268068741571, -3.96107227496628));
#121 = CARTESIAN_POINT ('', (-7.49879891330929E-33, 4.59169004331693E-49, -4.59169004331693E-49));
#122 = CARTESIAN_POINT ('', (3.90145685179704E-17, 0.48304602163874, -0.322030681092494));
#123 = CARTESIAN_POINT ('', (0.062860138886297, 1.24444862200347, -0.829632414668982));
#124 = CARTESIAN_POINT ('', (0.343794830948053, 2.41835698186201, -1.61223798790801));
#125 = CARTESIAN_POINT ('', (0.640038303678566, 2.87771476577014, -1.91847651051343));
#126 = CARTESIAN_POINT ('', (0.860826899039934, 2.97080420622471, -1.98053613748314));
#127 = CARTESIAN_POINT ('', (-7.49879891330929E-33, 4.59169004331693E-49, -4.59169004331693E-49));
#128 = CARTESIAN_POINT ('', (-4.22815764746001E-19, 0.483046021638741, 0.322030681092494));
#129 = CARTESIAN_POINT ('', (0.0628601388862969, 1.24444862200347, 0.829632414668981));
#130 = CARTESIAN_POINT ('', (0.343794830948053, 2.41835698186202, 1.61223798790801));
#131 = CARTESIAN_POINT ('', (0.640038303678566, 2.87771476577014, 1.91847651051343));
#132 = CARTESIAN_POINT ('', (0.860826899039933, 2.97080420622471, 1.98053613748314));
#133 = CARTESIAN_POINT ('', (-7.49879891330929E-33, 4.59169004331693E-49, -4.59169004331693E-49));
#134 = CARTESIAN_POINT ('', (-5.95788921888207E-17, -0.161015340546247, 0.644061362184987));
#135 = CARTESIAN_POINT ('', (0.0628601388862967, -0.41481620733449, 1.65926482933796));
#136 = CARTESIAN_POINT ('', (0.343794830948053, -0.806118993954004, 3.22447597581602));
#137 = CARTESIAN_POINT ('', (0.640038303678565, -0.959238255256714, 3.83695302102686));
#138 = CARTESIAN_POINT ('', (0.860826899039933, -0.990268068741569, 3.96107227496628));
#139 = CARTESIAN_POINT ('', (-7.49879891330929E-33, 4.59169004331693E-49, -4.59169004331693E-49));
#140 = CARTESIAN_POINT ('', (-2.01415079061042E-17, -0.161015340546247, 3.94373842827164E-17));
#141 = CARTESIAN_POINT ('', (0.0628601388862968, -0.414816207334491, 1.01600668109326E-16));
#142 = CARTESIAN_POINT ('', (0.343794830948053, -0.806118993954005, 1.97442209135531E-16));
#143 = CARTESIAN_POINT ('', (0.640038303678565, -0.959238255256714, 2.34945611783965E-16));
#144 = CARTESIAN_POINT ('', (0.860826899039933, -0.99026806874157, 2.42545724136439E-16));
#145 = (
   BOUNDED_SURFACE ()
   B_SPLINE_SURFACE (5, 3, ((#109, #110, #111, #112, #113, #114), (#115, #116, #117, #118, #119, #120), (#121, #122, #123, #124, #125, #126), (#127, #128, #129, #130, #131, #132), (#133, #134, #135, #136, #137, #138), (#139, #140, #141, #142, #143, #144)), .UNSPECIFIED., .T., .F., .U.)
   B_SPLINE_SURFACE_WITH_KNOTS ((6, 6), (4, 1, 1, 4), (0., 1.), (0., 0.337518272566889, 0.532637464363537, 1.), .UNSPECIFIED.)
   SURFACE ()
   GEOMETRIC_REPRESENTATION_ITEM ()
   RATIONAL_B_SPLINE_SURFACE (((5., 5., 5., 5., 5., 5.), (1., 1., 1., 1., 1., 1.), (1., 1., 1., 1., 1., 1.), (1., 1., 1., 1., 1., 1.), (1., 1., 1., 1., 1., 1.), (5., 5., 5., 5., 5., 5.)))
   REPRESENTATION_ITEM ('')
);
#146 = ADVANCED_FACE ('', (#108), #145, .T.);
#147 = CARTESIAN_POINT ('', (0.860826899039893, -0.9902680687415, 2.42545724136422E-16));
#148 = CARTESIAN_POINT ('', (5.87388459935992, -1.69480738235573, 4.15108087194649E-16));
#149 = CARTESIAN_POINT ('', (10.88694229968, -2.39934669596995, 5.87670450252875E-16));
#150 = CARTESIAN_POINT ('', (15.9, -3.10388600958419, 7.60232813311105E-16));
#151 = B_SPLINE_CURVE_WITH_KNOTS ('', 3, (#147, #148, #149, #150), .UNSPECIFIED., .F., .U., (4, 4), (0., 1.), .UNSPECIFIED.);
#152 = EDGE_CURVE ('', #87, #37, #151, .T.);
#153 = ORIENTED_EDGE ('', *, *, #152, .F.);
#154 = ORIENTED_EDGE ('', *, *, #105, .T.);
#155 = ORIENTED_EDGE ('', *, *, #152, .T.);
#156 = ORIENTED_EDGE ('', *, *, #52, .F.);
#157 = EDGE_LOOP ('', (#153, #154, #155, #156));
#158 = FACE_OUTER_BOUND ('', #157, .T.);
#159 = CARTESIAN_POINT ('', (0.860826899039893, -0.9902680687415, 2.42545724136422E-16));
#160 = CARTESIAN_POINT ('', (5.87388459935992, -1.69480738235573, 4.15108087194649E-16));
#161 = CARTESIAN_POINT ('', (10.88694229968, -2.39934669596995, 5.87670450252875E-16));
#162 = CARTESIAN_POINT ('', (15.9, -3.10388600958419, 7.60232813311105E-16));
#163 = CARTESIAN_POINT ('', (0.860826899039893, -0.990268068741501, -3.961072274966));
#164 = CARTESIAN_POINT ('', (5.87388459935992, -1.69480738235573, -6.77922952942291));
#165 = CARTESIAN_POINT ('', (10.88694229968, -2.39934669596995, -9.5973867838798));
#166 = CARTESIAN_POINT ('', (15.9, -3.10388600958419, -12.4155440383367));
#167 = CARTESIAN_POINT ('', (0.860826899039893, 2.9708042062245, -1.980536137483));
#168 = CARTESIAN_POINT ('', (5.87388459935992, 5.08442214706718, -3.38961476471145));
#169 = CARTESIAN_POINT ('', (10.88694229968, 7.19804008790985, -4.7986933919399));
#170 = CARTESIAN_POINT ('', (15.9, 9.31165802875256, -6.20777201916837));
#171 = CARTESIAN_POINT ('', (0.860826899039893, 2.9708042062245, 1.980536137483));
#172 = CARTESIAN_POINT ('', (5.87388459935992, 5.08442214706718, 3.38961476471145));
#173 = CARTESIAN_POINT ('', (10.88694229968, 7.19804008790985, 4.7986933919399));
#174 = CARTESIAN_POINT ('', (15.9, 9.31165802875256, 6.20777201916837));
#175 = CARTESIAN_POINT ('', (0.860826899039892, -0.990268068741499, 3.961072274966));
#176 = CARTESIAN_POINT ('', (5.87388459935992, -1.69480738235573, 6.77922952942291));
#177 = CARTESIAN_POINT ('', (10.88694229968, -2.39934669596995, 9.5973867838798));
#178 = CARTESIAN_POINT ('', (15.9, -3.10388600958419, 12.4155440383367));
#179 = CARTESIAN_POINT ('', (0.860826899039893, -0.9902680687415, 2.42545724136422E-16));
#180 = CARTESIAN_POINT ('', (5.87388459935992, -1.69480738235573, 4.15108087194649E-16));
#181 = CARTESIAN_POINT ('', (10.88694229968, -2.39934669596995, 5.87670450252875E-16));
#182 = CARTESIAN_POINT ('', (15.9, -3.10388600958419, 7.60232813311105E-16));
#183 = (
   BOUNDED_SURFACE ()
   B_SPLINE_SURFACE (5, 3, ((#159, #160, #161, #162), (#163, #164, #165, #166), (#167, #168, #169, #170), (#171, #172, #173, #174), (#175, #176, #177, #178), (#179, #180, #181, #182)), .UNSPECIFIED., .T., .F., .U.)
   B_SPLINE_SURFACE_WITH_KNOTS ((6, 6), (4, 4), (0., 1.), (0., 1.), .UNSPECIFIED.)
   SURFACE ()
   GEOMETRIC_REPRESENTATION_ITEM ()
   RATIONAL_B_SPLINE_SURFACE (((5., 5., 5., 5.), (1., 1., 1., 1.), (1., 1., 1., 1.), (1., 1., 1., 1.), (1., 1., 1., 1.), (5., 5., 5., 5.)))
   REPRESENTATION_ITEM ('')
);
#184 = ADVANCED_FACE ('', (#158), #183, .T.);
#185 = CLOSED_SHELL ('', (#35, #83, #146, #184));
#186 = MANIFOLD_SOLID_BREP ('', #185);
#187 = (
   LENGTH_UNIT ()
   NAMED_UNIT (*)
   SI_UNIT (.MILLI., .METRE.)
);
#188 = (
   NAMED_UNIT (*)
   SI_UNIT ($, .STERADIAN.)
   SOLID_ANGLE_UNIT ()
);
#189 = (
   NAMED_UNIT (*)
   SI_UNIT ($, .RADIAN.)
   PLANE_ANGLE_UNIT ()
);
#190 = UNCERTAINTY_MEASURE_WITH_UNIT (LENGTH_MEASURE(0.001), #187, 'DISTANCE_ACCURACY_VALUE', '');
#191 = (
   GEOMETRIC_REPRESENTATION_CONTEXT (3)
   GLOBAL_UNCERTAINTY_ASSIGNED_CONTEXT ((#190))
   GLOBAL_UNIT_ASSIGNED_CONTEXT ((#187, #188, #189))
   REPRESENTATION_CONTEXT ('', '3D')
);
#192 = SHAPE_REPRESENTATION ('', (), #191);
#193 = APPLICATION_CONTEXT ('configuration controlled 3D designs of mechanical parts and assemblies');
#194 = APPLICATION_PROTOCOL_DEFINITION ('International Standard', 'config_control_design', 1997, #193);
#195 = MECHANICAL_CONTEXT ('', #193, 'mechanical');
#196 = PRODUCT ('', '', '', (#195));
#197 = PERSON_AND_ORGANIZATION_ROLE ('design_owner');
#198 = PERSON ('', '', $, $, $, $);
#199 = ORGANIZATION ($, '', '');
#200 = PERSON_AND_ORGANIZATION (#198, #199);
#201 = CC_DESIGN_PERSON_AND_ORGANIZATION_ASSIGNMENT (#200, #197, (#196));
#202 = PRODUCT_RELATED_PRODUCT_CATEGORY ('detail', $, (#196));
#203 = PRODUCT_DEFINITION_FORMATION_WITH_SPECIFIED_SOURCE ('', '', #196, .NOT_KNOWN.);
#204 = APPROVAL_STATUS ('approved');
#205 = APPROVAL (#204, '');
#206 = CALENDAR_DATE (2022, 25, 7);
#207 = COORDINATED_UNIVERSAL_TIME_OFFSET (0, $, .AHEAD.);
#208 = LOCAL_TIME (17, 37, 5., #207);
#209 = DATE_AND_TIME (#206, #208);
#210 = APPROVAL_DATE_TIME (#209, #205);
#211 = APPROVAL_ROLE ('');
#212 = PERSON ('', '', $, $, $, $);
#213 = ORGANIZATION ($, '', '');
#214 = PERSON_AND_ORGANIZATION (#212, #213);
#215 = APPROVAL_PERSON_ORGANIZATION (#214, #205, #211);
#216 = CC_DESIGN_APPROVAL (#205, (#203));
#217 = PERSON_AND_ORGANIZATION_ROLE ('creator');
#218 = PERSON ('', '', $, $, $, $);
#219 = ORGANIZATION ($, '', '');
#220 = PERSON_AND_ORGANIZATION (#218, #219);
#221 = CC_DESIGN_PERSON_AND_ORGANIZATION_ASSIGNMENT (#220, #217, (#203));
#222 = PERSON_AND_ORGANIZATION_ROLE ('part_supplier');
#223 = PERSON ('', '', $, $, $, $);
#224 = ORGANIZATION ($, '', '');
#225 = PERSON_AND_ORGANIZATION (#223, #224);
#226 = CC_DESIGN_PERSON_AND_ORGANIZATION_ASSIGNMENT (#225, #222, (#203));
#227 = SECURITY_CLASSIFICATION_LEVEL ('unclassified');
#228 = SECURITY_CLASSIFICATION ('', '', #227);
#229 = APPROVAL_STATUS ('approved');
#230 = APPROVAL (#229, '');
#231 = CALENDAR_DATE (2022, 25, 7);
#232 = COORDINATED_UNIVERSAL_TIME_OFFSET (0, $, .AHEAD.);
#233 = LOCAL_TIME (17, 37, 5., #232);
#234 = DATE_AND_TIME (#231, #233);
#235 = APPROVAL_DATE_TIME (#234, #230);
#236 = APPROVAL_ROLE ('');
#237 = PERSON ('', '', $, $, $, $);
#238 = ORGANIZATION ($, '', '');
#239 = PERSON_AND_ORGANIZATION (#237, #238);
#240 = APPROVAL_PERSON_ORGANIZATION (#239, #230, #236);
#241 = CC_DESIGN_APPROVAL (#230, (#228));
#242 = DATE_TIME_ROLE ('classification_date');
#243 = CALENDAR_DATE (2022, 25, 7);
#244 = COORDINATED_UNIVERSAL_TIME_OFFSET (0, $, .AHEAD.);
#245 = LOCAL_TIME (17, 37, 5., #244);
#246 = DATE_AND_TIME (#243, #245);
#247 = CC_DESIGN_DATE_AND_TIME_ASSIGNMENT (#246, #242, (#228));
#248 = PERSON_AND_ORGANIZATION_ROLE ('classification_officer');
#249 = PERSON ('', '', $, $, $, $);
#250 = ORGANIZATION ($, '', '');
#251 = PERSON_AND_ORGANIZATION (#249, #250);
#252 = CC_DESIGN_PERSON_AND_ORGANIZATION_ASSIGNMENT (#251, #248, (#228));
#253 = CC_DESIGN_SECURITY_CLASSIFICATION (#228, (#203));
#254 = DESIGN_CONTEXT ('', #193, 'design');
#255 = PRODUCT_DEFINITION ('', '', #203, #254);
#256 = APPROVAL_STATUS ('approved');
#257 = APPROVAL (#256, '');
#258 = CALENDAR_DATE (2022, 25, 7);
#259 = COORDINATED_UNIVERSAL_TIME_OFFSET (0, $, .AHEAD.);
#260 = LOCAL_TIME (17, 37, 5., #259);
#261 = DATE_AND_TIME (#258, #260);
#262 = APPROVAL_DATE_TIME (#261, #257);
#263 = APPROVAL_ROLE ('');
#264 = PERSON ('', '', $, $, $, $);
#265 = ORGANIZATION ($, '', '');
#266 = PERSON_AND_ORGANIZATION (#264, #265);
#267 = APPROVAL_PERSON_ORGANIZATION (#266, #257, #263);
#268 = CC_DESIGN_APPROVAL (#257, (#255));
#269 = DATE_TIME_ROLE ('creation_date');
#270 = CALENDAR_DATE (2022, 25, 7);
#271 = COORDINATED_UNIVERSAL_TIME_OFFSET (0, $, .AHEAD.);
#272 = LOCAL_TIME (17, 37, 5., #271);
#273 = DATE_AND_TIME (#270, #272);
#274 = CC_DESIGN_DATE_AND_TIME_ASSIGNMENT (#273, #269, (#255));
#275 = PERSON_AND_ORGANIZATION_ROLE ('creator');
#276 = PERSON ('', '', $, $, $, $);
#277 = ORGANIZATION ($, '', '');
#278 = PERSON_AND_ORGANIZATION (#276, #277);
#279 = CC_DESIGN_PERSON_AND_ORGANIZATION_ASSIGNMENT (#278, #275, (#255));
#280 = PRODUCT_DEFINITION_SHAPE ('', '', #255);
#281 = SHAPE_DEFINITION_REPRESENTATION (#280, #192);
#282 = SHAPE_REPRESENTATION_RELATIONSHIP ('', '', #192, #283);
#283 = ADVANCED_BREP_SHAPE_REPRESENTATION ('', (#186), #191);
ENDSEC;
END-ISO-10303-21;
