ISO-10303-21;
HEADER;
FILE_DESCRIPTION ((), '1');
FILE_NAME ('C:\\Users\\kevin\\CDXCEM\\CXDCEM0300AP.STP', '2021-03-05T10:51:46', ('Unknown'), ('m.a.ford europe'), 'OneCNC-XR8 Mill 3D Expert', 'OneCNC-XR8 Mill 3D Expert', '');
FILE_SCHEMA (('CONFIG_CONTROL_DESIGN'));
ENDSEC;

DATA;
#1 = CARTESIAN_POINT ('', (-105., 1.5, -3.67394039744204E-16));
#2 = VERTEX_POINT ('', #1);
#3 = CARTESIAN_POINT ('', (-105., 6.4293956955236E-15, -6.4293956955236E-15));
#4 = VERTEX_POINT ('', #3);
#5 = CARTESIAN_POINT ('', (-105., 1.5, -3.67394039744204E-16));
#6 = CARTESIAN_POINT ('', (-105., 1., -2.44929359829469E-16));
#7 = CARTESIAN_POINT ('', (-105., 0.5, -1.22464679914734E-16));
#8 = CARTESIAN_POINT ('', (-105., 6.4293956955236E-15, -6.4293956955236E-15));
#9 = B_SPLINE_CURVE_WITH_KNOTS ('', 3, (#5, #6, #7, #8), .UNSPECIFIED., .F., .U., (4, 4), (0., 1.), .UNSPECIFIED.);
#10 = EDGE_CURVE ('', #2, #4, #9, .T.);
#11 = ORIENTED_EDGE ('', *, *, #10, .F.);
#12 = CARTESIAN_POINT ('', (-105., 1.5, -3.67394039744204E-16));
#13 = CARTESIAN_POINT ('', (-105., 1.49999999999998, 5.99999999999997));
#14 = CARTESIAN_POINT ('', (-105., -4.49999999999999, 2.99999999999996));
#15 = CARTESIAN_POINT ('', (-105., -4.49999999999996, -3.00000000000001));
#16 = CARTESIAN_POINT ('', (-105., 1.50000000000002, -5.99999999999997));
#17 = CARTESIAN_POINT ('', (-105., 1.5, -3.67394039744204E-16));
#18 = (
   BOUNDED_CURVE ()
   B_SPLINE_CURVE (5, (#12, #13, #14, #15, #16, #17), .UNSPECIFIED., .T., .U.)
   B_SPLINE_CURVE_WITH_KNOTS ((6, 6), (0., 1.), .UNSPECIFIED.)
   CURVE ()
   GEOMETRIC_REPRESENTATION_ITEM ()
   RATIONAL_B_SPLINE_CURVE ((5., 1., 1., 1., 1., 5.))
   REPRESENTATION_ITEM ('')
);
#19 = EDGE_CURVE ('', #2, #2, #18, .T.);
#20 = ORIENTED_EDGE ('', *, *, #19, .T.);
#21 = ORIENTED_EDGE ('', *, *, #10, .T.);
#22 = EDGE_LOOP ('', (#11, #20, #21));
#23 = FACE_OUTER_BOUND ('', #22, .F.);
#24 = CARTESIAN_POINT ('', (-105., 1.5, -3.67394039744204E-16));
#25 = CARTESIAN_POINT ('', (-105., 1., -2.44929359829469E-16));
#26 = CARTESIAN_POINT ('', (-105., 0.5, -1.22464679914734E-16));
#27 = CARTESIAN_POINT ('', (-105., 6.4293956955236E-15, -6.4293956955236E-15));
#28 = CARTESIAN_POINT ('', (-105., 1.49999999999998, 5.99999999999997));
#29 = CARTESIAN_POINT ('', (-105., 0.999999999999975, 3.99999999999997));
#30 = CARTESIAN_POINT ('', (-105., 0.499999999999975, 1.99999999999997));
#31 = CARTESIAN_POINT ('', (-105., 6.4293956955236E-15, -6.4293956955236E-15));
#32 = CARTESIAN_POINT ('', (-105., -4.49999999999999, 2.99999999999996));
#33 = CARTESIAN_POINT ('', (-105., -2.99999999999999, 1.99999999999996));
#34 = CARTESIAN_POINT ('', (-105., -1.49999999999999, 0.999999999999962));
#35 = CARTESIAN_POINT ('', (-105., 6.4293956955236E-15, -6.4293956955236E-15));
#36 = CARTESIAN_POINT ('', (-105., -4.49999999999996, -3.00000000000001));
#37 = CARTESIAN_POINT ('', (-105., -2.99999999999996, -2.00000000000001));
#38 = CARTESIAN_POINT ('', (-105., -1.49999999999996, -1.00000000000001));
#39 = CARTESIAN_POINT ('', (-105., 6.4293956955236E-15, -6.4293956955236E-15));
#40 = CARTESIAN_POINT ('', (-105., 1.50000000000002, -5.99999999999997));
#41 = CARTESIAN_POINT ('', (-105., 1.00000000000002, -3.99999999999997));
#42 = CARTESIAN_POINT ('', (-105., 0.500000000000025, -1.99999999999997));
#43 = CARTESIAN_POINT ('', (-105., 6.4293956955236E-15, -6.4293956955236E-15));
#44 = CARTESIAN_POINT ('', (-105., 1.5, -3.67394039744204E-16));
#45 = CARTESIAN_POINT ('', (-105., 1., -2.44929359829469E-16));
#46 = CARTESIAN_POINT ('', (-105., 0.5, -1.22464679914734E-16));
#47 = CARTESIAN_POINT ('', (-105., 6.4293956955236E-15, -6.4293956955236E-15));
#48 = (
   BOUNDED_SURFACE ()
   B_SPLINE_SURFACE (5, 3, ((#24, #25, #26, #27), (#28, #29, #30, #31), (#32, #33, #34, #35), (#36, #37, #38, #39), (#40, #41, #42, #43), (#44, #45, #46, #47)), .UNSPECIFIED., .T., .F., .U.)
   B_SPLINE_SURFACE_WITH_KNOTS ((6, 6), (4, 4), (0., 1.), (0., 1.), .UNSPECIFIED.)
   SURFACE ()
   GEOMETRIC_REPRESENTATION_ITEM ()
   RATIONAL_B_SPLINE_SURFACE (((5., 5., 5., 5.), (1., 1., 1., 1.), (1., 1., 1., 1.), (1., 1., 1., 1.), (1., 1., 1., 1.), (5., 5., 5., 5.)))
   REPRESENTATION_ITEM ('')
);
#49 = ADVANCED_FACE ('', (#23), #48, .F.);
#50 = CARTESIAN_POINT ('', (-56., 1.5, -3.67394039744205E-16));
#51 = VERTEX_POINT ('', #50);
#52 = CARTESIAN_POINT ('', (-56., 1.5, -3.67394039744205E-16));
#53 = CARTESIAN_POINT ('', (-72.3333333333333, 1.5, -3.67394039744205E-16));
#54 = CARTESIAN_POINT ('', (-88.6666666666664, 1.5, -3.67394039744205E-16));
#55 = CARTESIAN_POINT ('', (-105., 1.5, -3.67394039744204E-16));
#56 = B_SPLINE_CURVE_WITH_KNOTS ('', 3, (#52, #53, #54, #55), .UNSPECIFIED., .F., .U., (4, 4), (0., 1.), .UNSPECIFIED.);
#57 = EDGE_CURVE ('', #51, #2, #56, .T.);
#58 = ORIENTED_EDGE ('', *, *, #57, .F.);
#59 = CARTESIAN_POINT ('', (-56., 1.5, -3.67394039744205E-16));
#60 = CARTESIAN_POINT ('', (-56., 1.49999999999999, 5.99999999999999));
#61 = CARTESIAN_POINT ('', (-56., -4.49999999999999, 2.99999999999998));
#62 = CARTESIAN_POINT ('', (-56., -4.49999999999998, -3.00000000000001));
#63 = CARTESIAN_POINT ('', (-56., 1.50000000000001, -5.99999999999999));
#64 = CARTESIAN_POINT ('', (-56., 1.5, -3.67394039744205E-16));
#65 = (
   BOUNDED_CURVE ()
   B_SPLINE_CURVE (5, (#59, #60, #61, #62, #63, #64), .UNSPECIFIED., .T., .U.)
   B_SPLINE_CURVE_WITH_KNOTS ((6, 6), (0., 1.), .UNSPECIFIED.)
   CURVE ()
   GEOMETRIC_REPRESENTATION_ITEM ()
   RATIONAL_B_SPLINE_CURVE ((5., 1., 1., 1., 1., 5.))
   REPRESENTATION_ITEM ('')
);
#66 = EDGE_CURVE ('', #51, #51, #65, .T.);
#67 = ORIENTED_EDGE ('', *, *, #66, .T.);
#68 = ORIENTED_EDGE ('', *, *, #57, .T.);
#69 = ORIENTED_EDGE ('', *, *, #19, .F.);
#70 = EDGE_LOOP ('', (#58, #67, #68, #69));
#71 = FACE_OUTER_BOUND ('', #70, .F.);
#72 = CARTESIAN_POINT ('', (-56., 1.5, -3.67394039744205E-16));
#73 = CARTESIAN_POINT ('', (-72.3333333333333, 1.5, -3.67394039744205E-16));
#74 = CARTESIAN_POINT ('', (-88.6666666666664, 1.5, -3.67394039744205E-16));
#75 = CARTESIAN_POINT ('', (-105., 1.5, -3.67394039744204E-16));
#76 = CARTESIAN_POINT ('', (-56., 1.49999999999999, 5.99999999999999));
#77 = CARTESIAN_POINT ('', (-72.3333333333333, 1.49999999999998, 5.99999999999998));
#78 = CARTESIAN_POINT ('', (-88.6666666666664, 1.49999999999998, 5.99999999999998));
#79 = CARTESIAN_POINT ('', (-105., 1.49999999999998, 5.99999999999997));
#80 = CARTESIAN_POINT ('', (-56., -4.49999999999999, 2.99999999999998));
#81 = CARTESIAN_POINT ('', (-72.3333333333333, -4.49999999999999, 2.99999999999998));
#82 = CARTESIAN_POINT ('', (-88.6666666666664, -4.49999999999999, 2.99999999999997));
#83 = CARTESIAN_POINT ('', (-105., -4.49999999999999, 2.99999999999996));
#84 = CARTESIAN_POINT ('', (-56., -4.49999999999998, -3.00000000000001));
#85 = CARTESIAN_POINT ('', (-72.3333333333333, -4.49999999999998, -3.00000000000001));
#86 = CARTESIAN_POINT ('', (-88.6666666666664, -4.49999999999997, -3.00000000000001));
#87 = CARTESIAN_POINT ('', (-105., -4.49999999999996, -3.00000000000001));
#88 = CARTESIAN_POINT ('', (-56., 1.50000000000001, -5.99999999999999));
#89 = CARTESIAN_POINT ('', (-72.3333333333333, 1.50000000000002, -5.99999999999998));
#90 = CARTESIAN_POINT ('', (-88.6666666666664, 1.50000000000002, -5.99999999999998));
#91 = CARTESIAN_POINT ('', (-105., 1.50000000000002, -5.99999999999997));
#92 = CARTESIAN_POINT ('', (-56., 1.5, -3.67394039744205E-16));
#93 = CARTESIAN_POINT ('', (-72.3333333333333, 1.5, -3.67394039744205E-16));
#94 = CARTESIAN_POINT ('', (-88.6666666666664, 1.5, -3.67394039744205E-16));
#95 = CARTESIAN_POINT ('', (-105., 1.5, -3.67394039744204E-16));
#96 = (
   BOUNDED_SURFACE ()
   B_SPLINE_SURFACE (5, 3, ((#72, #73, #74, #75), (#76, #77, #78, #79), (#80, #81, #82, #83), (#84, #85, #86, #87), (#88, #89, #90, #91), (#92, #93, #94, #95)), .UNSPECIFIED., .T., .F., .U.)
   B_SPLINE_SURFACE_WITH_KNOTS ((6, 6), (4, 4), (0., 1.), (0., 1.), .UNSPECIFIED.)
   SURFACE ()
   GEOMETRIC_REPRESENTATION_ITEM ()
   RATIONAL_B_SPLINE_SURFACE (((5., 5., 5., 5.), (1., 1., 1., 1.), (1., 1., 1., 1.), (1., 1., 1., 1.), (1., 1., 1., 1.), (5., 5., 5., 5.)))
   REPRESENTATION_ITEM ('')
);
#97 = ADVANCED_FACE ('', (#71), #96, .F.);
#98 = CARTESIAN_POINT ('', (-0.46, 1.5, -3.67394039744206E-16));
#99 = VERTEX_POINT ('', #98);
#100 = CARTESIAN_POINT ('', (-0.46, 1.5, -3.67394039744206E-16));
#101 = CARTESIAN_POINT ('', (-18.9733333333333, 1.5, -3.67394039744206E-16));
#102 = CARTESIAN_POINT ('', (-37.4866666666669, 1.5, -3.67394039744205E-16));
#103 = CARTESIAN_POINT ('', (-56., 1.5, -3.67394039744205E-16));
#104 = B_SPLINE_CURVE_WITH_KNOTS ('', 3, (#100, #101, #102, #103), .UNSPECIFIED., .F., .U., (4, 4), (0., 1.), .UNSPECIFIED.);
#105 = EDGE_CURVE ('', #99, #51, #104, .T.);
#106 = ORIENTED_EDGE ('', *, *, #105, .F.);
#107 = CARTESIAN_POINT ('', (-0.46, 1.5, -3.67394039744206E-16));
#108 = CARTESIAN_POINT ('', (-0.46, 1.5, 6.));
#109 = CARTESIAN_POINT ('', (-0.460000000000001, -4.5, 3.));
#110 = CARTESIAN_POINT ('', (-0.46, -4.5, -3.));
#111 = CARTESIAN_POINT ('', (-0.46, 1.5, -6.));
#112 = CARTESIAN_POINT ('', (-0.46, 1.5, -3.67394039744206E-16));
#113 = (
   BOUNDED_CURVE ()
   B_SPLINE_CURVE (5, (#107, #108, #109, #110, #111, #112), .UNSPECIFIED., .T., .U.)
   B_SPLINE_CURVE_WITH_KNOTS ((6, 6), (0., 1.), .UNSPECIFIED.)
   CURVE ()
   GEOMETRIC_REPRESENTATION_ITEM ()
   RATIONAL_B_SPLINE_CURVE ((5., 1., 1., 1., 1., 5.))
   REPRESENTATION_ITEM ('')
);
#114 = EDGE_CURVE ('', #99, #99, #113, .T.);
#115 = ORIENTED_EDGE ('', *, *, #114, .T.);
#116 = ORIENTED_EDGE ('', *, *, #105, .T.);
#117 = ORIENTED_EDGE ('', *, *, #66, .F.);
#118 = EDGE_LOOP ('', (#106, #115, #116, #117));
#119 = FACE_OUTER_BOUND ('', #118, .F.);
#120 = CARTESIAN_POINT ('', (-0.46, 1.5, -3.67394039744206E-16));
#121 = CARTESIAN_POINT ('', (-18.9733333333333, 1.5, -3.67394039744206E-16));
#122 = CARTESIAN_POINT ('', (-37.4866666666669, 1.5, -3.67394039744205E-16));
#123 = CARTESIAN_POINT ('', (-56., 1.5, -3.67394039744205E-16));
#124 = CARTESIAN_POINT ('', (-0.46, 1.5, 6.));
#125 = CARTESIAN_POINT ('', (-18.9733333333333, 1.5, 6.00000000000001));
#126 = CARTESIAN_POINT ('', (-37.4866666666669, 1.49999999999999, 5.99999999999999));
#127 = CARTESIAN_POINT ('', (-56., 1.49999999999999, 5.99999999999999));
#128 = CARTESIAN_POINT ('', (-0.460000000000001, -4.5, 3.));
#129 = CARTESIAN_POINT ('', (-18.9733333333333, -4.50000000000001, 3.));
#130 = CARTESIAN_POINT ('', (-37.4866666666669, -4.49999999999999, 2.99999999999999));
#131 = CARTESIAN_POINT ('', (-56., -4.49999999999999, 2.99999999999998));
#132 = CARTESIAN_POINT ('', (-0.46, -4.5, -3.));
#133 = CARTESIAN_POINT ('', (-18.9733333333333, -4.5, -3.00000000000001));
#134 = CARTESIAN_POINT ('', (-37.4866666666669, -4.49999999999999, -3.));
#135 = CARTESIAN_POINT ('', (-56., -4.49999999999998, -3.00000000000001));
#136 = CARTESIAN_POINT ('', (-0.46, 1.5, -6.));
#137 = CARTESIAN_POINT ('', (-18.9733333333333, 1.50000000000001, -6.00000000000001));
#138 = CARTESIAN_POINT ('', (-37.4866666666669, 1.50000000000001, -5.99999999999999));
#139 = CARTESIAN_POINT ('', (-56., 1.50000000000001, -5.99999999999999));
#140 = CARTESIAN_POINT ('', (-0.46, 1.5, -3.67394039744206E-16));
#141 = CARTESIAN_POINT ('', (-18.9733333333333, 1.5, -3.67394039744206E-16));
#142 = CARTESIAN_POINT ('', (-37.4866666666669, 1.5, -3.67394039744205E-16));
#143 = CARTESIAN_POINT ('', (-56., 1.5, -3.67394039744205E-16));
#144 = (
   BOUNDED_SURFACE ()
   B_SPLINE_SURFACE (5, 3, ((#120, #121, #122, #123), (#124, #125, #126, #127), (#128, #129, #130, #131), (#132, #133, #134, #135), (#136, #137, #138, #139), (#140, #141, #142, #143)), .UNSPECIFIED., .T., .F., .U.)
   B_SPLINE_SURFACE_WITH_KNOTS ((6, 6), (4, 4), (0., 1.), (0., 1.), .UNSPECIFIED.)
   SURFACE ()
   GEOMETRIC_REPRESENTATION_ITEM ()
   RATIONAL_B_SPLINE_SURFACE (((5., 5., 5., 5.), (1., 1., 1., 1.), (1., 1., 1., 1.), (1., 1., 1., 1.), (1., 1., 1., 1.), (5., 5., 5., 5.)))
   REPRESENTATION_ITEM ('')
);
#145 = ADVANCED_FACE ('', (#119), #144, .F.);
#146 = CARTESIAN_POINT ('', (0., 0., 0.));
#147 = VERTEX_POINT ('', #146);
#148 = CARTESIAN_POINT ('', (0., 0., 0.));
#149 = CARTESIAN_POINT ('', (-0.153333333333333, 0.5, -1.22464679914735E-16));
#150 = CARTESIAN_POINT ('', (-0.306666666666665, 1., -2.44929359829471E-16));
#151 = CARTESIAN_POINT ('', (-0.46, 1.5, -3.67394039744206E-16));
#152 = B_SPLINE_CURVE_WITH_KNOTS ('', 3, (#148, #149, #150, #151), .UNSPECIFIED., .F., .U., (4, 4), (0., 1.), .UNSPECIFIED.);
#153 = EDGE_CURVE ('', #147, #99, #152, .T.);
#154 = ORIENTED_EDGE ('', *, *, #153, .F.);
#155 = ORIENTED_EDGE ('', *, *, #153, .T.);
#156 = ORIENTED_EDGE ('', *, *, #114, .F.);
#157 = EDGE_LOOP ('', (#154, #155, #156));
#158 = FACE_OUTER_BOUND ('', #157, .F.);
#159 = CARTESIAN_POINT ('', (0., 0., 0.));
#160 = CARTESIAN_POINT ('', (-0.153333333333333, 0.5, -1.22464679914735E-16));
#161 = CARTESIAN_POINT ('', (-0.306666666666665, 1., -2.44929359829471E-16));
#162 = CARTESIAN_POINT ('', (-0.46, 1.5, -3.67394039744206E-16));
#163 = CARTESIAN_POINT ('', (0., 0., 0.));
#164 = CARTESIAN_POINT ('', (-0.153333333333333, 0.500000000000001, 2.));
#165 = CARTESIAN_POINT ('', (-0.306666666666665, 1., 4.));
#166 = CARTESIAN_POINT ('', (-0.46, 1.5, 6.));
#167 = CARTESIAN_POINT ('', (0., 0., 0.));
#168 = CARTESIAN_POINT ('', (-0.153333333333334, -1.5, 1.));
#169 = CARTESIAN_POINT ('', (-0.306666666666666, -3., 2.));
#170 = CARTESIAN_POINT ('', (-0.460000000000001, -4.5, 3.));
#171 = CARTESIAN_POINT ('', (0., 0., 0.));
#172 = CARTESIAN_POINT ('', (-0.153333333333333, -1.5, -1.));
#173 = CARTESIAN_POINT ('', (-0.306666666666665, -3., -2.));
#174 = CARTESIAN_POINT ('', (-0.46, -4.5, -3.));
#175 = CARTESIAN_POINT ('', (0., 0., 0.));
#176 = CARTESIAN_POINT ('', (-0.153333333333333, 0.5, -2.));
#177 = CARTESIAN_POINT ('', (-0.306666666666665, 0.999999999999999, -4.));
#178 = CARTESIAN_POINT ('', (-0.46, 1.5, -6.));
#179 = CARTESIAN_POINT ('', (0., 0., 0.));
#180 = CARTESIAN_POINT ('', (-0.153333333333333, 0.5, -1.22464679914735E-16));
#181 = CARTESIAN_POINT ('', (-0.306666666666665, 1., -2.44929359829471E-16));
#182 = CARTESIAN_POINT ('', (-0.46, 1.5, -3.67394039744206E-16));
#183 = (
   BOUNDED_SURFACE ()
   B_SPLINE_SURFACE (5, 3, ((#159, #160, #161, #162), (#163, #164, #165, #166), (#167, #168, #169, #170), (#171, #172, #173, #174), (#175, #176, #177, #178), (#179, #180, #181, #182)), .UNSPECIFIED., .T., .F., .U.)
   B_SPLINE_SURFACE_WITH_KNOTS ((6, 6), (4, 4), (0., 1.), (0., 1.), .UNSPECIFIED.)
   SURFACE ()
   GEOMETRIC_REPRESENTATION_ITEM ()
   RATIONAL_B_SPLINE_SURFACE (((5., 5., 5., 5.), (1., 1., 1., 1.), (1., 1., 1., 1.), (1., 1., 1., 1.), (1., 1., 1., 1.), (5., 5., 5., 5.)))
   REPRESENTATION_ITEM ('')
);
#184 = ADVANCED_FACE ('', (#158), #183, .F.);
#185 = CLOSED_SHELL ('', (#49, #97, #145, #184));
#186 = MANIFOLD_SOLID_BREP ('', #185);
#187 = (
   LENGTH_UNIT ()
   NAMED_UNIT (*)
   SI_UNIT (.MILLI., .METRE.)
);
#188 = (
   NAMED_UNIT (*)
   SI_UNIT ($, .STERADIAN.)
   SOLID_ANGLE_UNIT ()
);
#189 = (
   NAMED_UNIT (*)
   SI_UNIT ($, .RADIAN.)
   PLANE_ANGLE_UNIT ()
);
#190 = UNCERTAINTY_MEASURE_WITH_UNIT (LENGTH_MEASURE(0.001), #187, 'DISTANCE_ACCURACY_VALUE', '');
#191 = (
   GEOMETRIC_REPRESENTATION_CONTEXT (3)
   GLOBAL_UNCERTAINTY_ASSIGNED_CONTEXT ((#190))
   GLOBAL_UNIT_ASSIGNED_CONTEXT ((#187, #188, #189))
   REPRESENTATION_CONTEXT ('', '3D')
);
#192 = SHAPE_REPRESENTATION ('', (), #191);
#193 = APPLICATION_CONTEXT ('configuration controlled 3D designs of mechanical parts and assemblies');
#194 = APPLICATION_PROTOCOL_DEFINITION ('International Standard', 'config_control_design', 1997, #193);
#195 = MECHANICAL_CONTEXT ('', #193, 'mechanical');
#196 = PRODUCT ('', '', '', (#195));
#197 = PERSON_AND_ORGANIZATION_ROLE ('design_owner');
#198 = PERSON ('', '', $, $, $, $);
#199 = ORGANIZATION ($, '', '');
#200 = PERSON_AND_ORGANIZATION (#198, #199);
#201 = CC_DESIGN_PERSON_AND_ORGANIZATION_ASSIGNMENT (#200, #197, (#196));
#202 = PRODUCT_RELATED_PRODUCT_CATEGORY ('detail', $, (#196));
#203 = PRODUCT_DEFINITION_FORMATION_WITH_SPECIFIED_SOURCE ('', '', #196, .NOT_KNOWN.);
#204 = APPROVAL_STATUS ('approved');
#205 = APPROVAL (#204, '');
#206 = CALENDAR_DATE (2021, 5, 3);
#207 = COORDINATED_UNIVERSAL_TIME_OFFSET (0, $, .AHEAD.);
#208 = LOCAL_TIME (10, 51, 46., #207);
#209 = DATE_AND_TIME (#206, #208);
#210 = APPROVAL_DATE_TIME (#209, #205);
#211 = APPROVAL_ROLE ('');
#212 = PERSON ('', '', $, $, $, $);
#213 = ORGANIZATION ($, '', '');
#214 = PERSON_AND_ORGANIZATION (#212, #213);
#215 = APPROVAL_PERSON_ORGANIZATION (#214, #205, #211);
#216 = CC_DESIGN_APPROVAL (#205, (#203));
#217 = PERSON_AND_ORGANIZATION_ROLE ('creator');
#218 = PERSON ('', '', $, $, $, $);
#219 = ORGANIZATION ($, '', '');
#220 = PERSON_AND_ORGANIZATION (#218, #219);
#221 = CC_DESIGN_PERSON_AND_ORGANIZATION_ASSIGNMENT (#220, #217, (#203));
#222 = PERSON_AND_ORGANIZATION_ROLE ('part_supplier');
#223 = PERSON ('', '', $, $, $, $);
#224 = ORGANIZATION ($, '', '');
#225 = PERSON_AND_ORGANIZATION (#223, #224);
#226 = CC_DESIGN_PERSON_AND_ORGANIZATION_ASSIGNMENT (#225, #222, (#203));
#227 = SECURITY_CLASSIFICATION_LEVEL ('unclassified');
#228 = SECURITY_CLASSIFICATION ('', '', #227);
#229 = APPROVAL_STATUS ('approved');
#230 = APPROVAL (#229, '');
#231 = CALENDAR_DATE (2021, 5, 3);
#232 = COORDINATED_UNIVERSAL_TIME_OFFSET (0, $, .AHEAD.);
#233 = LOCAL_TIME (10, 51, 46., #232);
#234 = DATE_AND_TIME (#231, #233);
#235 = APPROVAL_DATE_TIME (#234, #230);
#236 = APPROVAL_ROLE ('');
#237 = PERSON ('', '', $, $, $, $);
#238 = ORGANIZATION ($, '', '');
#239 = PERSON_AND_ORGANIZATION (#237, #238);
#240 = APPROVAL_PERSON_ORGANIZATION (#239, #230, #236);
#241 = CC_DESIGN_APPROVAL (#230, (#228));
#242 = DATE_TIME_ROLE ('classification_date');
#243 = CALENDAR_DATE (2021, 5, 3);
#244 = COORDINATED_UNIVERSAL_TIME_OFFSET (0, $, .AHEAD.);
#245 = LOCAL_TIME (10, 51, 46., #244);
#246 = DATE_AND_TIME (#243, #245);
#247 = CC_DESIGN_DATE_AND_TIME_ASSIGNMENT (#246, #242, (#228));
#248 = PERSON_AND_ORGANIZATION_ROLE ('classification_officer');
#249 = PERSON ('', '', $, $, $, $);
#250 = ORGANIZATION ($, '', '');
#251 = PERSON_AND_ORGANIZATION (#249, #250);
#252 = CC_DESIGN_PERSON_AND_ORGANIZATION_ASSIGNMENT (#251, #248, (#228));
#253 = CC_DESIGN_SECURITY_CLASSIFICATION (#228, (#203));
#254 = DESIGN_CONTEXT ('', #193, 'design');
#255 = PRODUCT_DEFINITION ('', '', #203, #254);
#256 = APPROVAL_STATUS ('approved');
#257 = APPROVAL (#256, '');
#258 = CALENDAR_DATE (2021, 5, 3);
#259 = COORDINATED_UNIVERSAL_TIME_OFFSET (0, $, .AHEAD.);
#260 = LOCAL_TIME (10, 51, 46., #259);
#261 = DATE_AND_TIME (#258, #260);
#262 = APPROVAL_DATE_TIME (#261, #257);
#263 = APPROVAL_ROLE ('');
#264 = PERSON ('', '', $, $, $, $);
#265 = ORGANIZATION ($, '', '');
#266 = PERSON_AND_ORGANIZATION (#264, #265);
#267 = APPROVAL_PERSON_ORGANIZATION (#266, #257, #263);
#268 = CC_DESIGN_APPROVAL (#257, (#255));
#269 = DATE_TIME_ROLE ('creation_date');
#270 = CALENDAR_DATE (2021, 5, 3);
#271 = COORDINATED_UNIVERSAL_TIME_OFFSET (0, $, .AHEAD.);
#272 = LOCAL_TIME (10, 51, 46., #271);
#273 = DATE_AND_TIME (#270, #272);
#274 = CC_DESIGN_DATE_AND_TIME_ASSIGNMENT (#273, #269, (#255));
#275 = PERSON_AND_ORGANIZATION_ROLE ('creator');
#276 = PERSON ('', '', $, $, $, $);
#277 = ORGANIZATION ($, '', '');
#278 = PERSON_AND_ORGANIZATION (#276, #277);
#279 = CC_DESIGN_PERSON_AND_ORGANIZATION_ASSIGNMENT (#278, #275, (#255));
#280 = PRODUCT_DEFINITION_SHAPE ('', '', #255);
#281 = SHAPE_DEFINITION_REPRESENTATION (#280, #192);
#282 = SHAPE_REPRESENTATION_RELATIONSHIP ('', '', #192, #283);
#283 = ADVANCED_BREP_SHAPE_REPRESENTATION ('', (#186), #191);
ENDSEC;
END-ISO-10303-21;
