ISO-10303-21;
HEADER;
FILE_DESCRIPTION ((), '1');
FILE_NAME ('C:\\Users\\kevin\\CXD, CLM & CL\\CXDCL2610AP.STP', '2021-03-23T15:20:10', ('Unknown'), ('m.a.ford europe'), 'OneCNC-XR8 Mill 3D Expert', 'OneCNC-XR8 Mill 3D Expert', '');
FILE_SCHEMA (('CONFIG_CONTROL_DESIGN'));
ENDSEC;

DATA;
#1 = CARTESIAN_POINT ('', (-117.75, 4., -9.79717439317881E-16));
#2 = VERTEX_POINT ('', #1);
#3 = CARTESIAN_POINT ('', (-76., 4., -9.79717439317881E-16));
#4 = VERTEX_POINT ('', #3);
#5 = CARTESIAN_POINT ('', (-117.75, 4., -9.79717439317881E-16));
#6 = CARTESIAN_POINT ('', (-103.833333333333, 4., -9.79717439317882E-16));
#7 = CARTESIAN_POINT ('', (-89.9166666666665, 4., -9.79717439317881E-16));
#8 = CARTESIAN_POINT ('', (-76., 4., -9.79717439317881E-16));
#9 = B_SPLINE_CURVE_WITH_KNOTS ('', 3, (#5, #6, #7, #8), .UNSPECIFIED., .F., .U., (4, 4), (0., 1.), .UNSPECIFIED.);
#10 = EDGE_CURVE ('', #2, #4, #9, .T.);
#11 = ORIENTED_EDGE ('', *, *, #10, .F.);
#12 = CARTESIAN_POINT ('', (-117.75, 4., -9.79717439317881E-16));
#13 = CARTESIAN_POINT ('', (-117.75, 3.99999999999998, 16.));
#14 = CARTESIAN_POINT ('', (-117.75, -12., 7.99999999999996));
#15 = CARTESIAN_POINT ('', (-117.75, -12., -8.00000000000001));
#16 = CARTESIAN_POINT ('', (-117.75, 4.00000000000002, -16.));
#17 = CARTESIAN_POINT ('', (-117.75, 4., -9.79717439317881E-16));
#18 = (
   BOUNDED_CURVE ()
   B_SPLINE_CURVE (5, (#12, #13, #14, #15, #16, #17), .UNSPECIFIED., .T., .U.)
   B_SPLINE_CURVE_WITH_KNOTS ((6, 6), (0., 1.), .UNSPECIFIED.)
   CURVE ()
   GEOMETRIC_REPRESENTATION_ITEM ()
   RATIONAL_B_SPLINE_CURVE ((5., 1., 1., 1., 1., 5.))
   REPRESENTATION_ITEM ('')
);
#19 = EDGE_CURVE ('', #2, #2, #18, .T.);
#20 = ORIENTED_EDGE ('', *, *, #19, .T.);
#21 = ORIENTED_EDGE ('', *, *, #10, .T.);
#22 = CARTESIAN_POINT ('', (-76., 4., -9.79717439317881E-16));
#23 = CARTESIAN_POINT ('', (-76., 3.99999999999999, 16.));
#24 = CARTESIAN_POINT ('', (-76., -12., 7.99999999999998));
#25 = CARTESIAN_POINT ('', (-76., -12., -8.00000000000001));
#26 = CARTESIAN_POINT ('', (-76., 4.00000000000002, -16.));
#27 = CARTESIAN_POINT ('', (-76., 4., -9.79717439317881E-16));
#28 = (
   BOUNDED_CURVE ()
   B_SPLINE_CURVE (5, (#22, #23, #24, #25, #26, #27), .UNSPECIFIED., .T., .U.)
   B_SPLINE_CURVE_WITH_KNOTS ((6, 6), (0., 1.), .UNSPECIFIED.)
   CURVE ()
   GEOMETRIC_REPRESENTATION_ITEM ()
   RATIONAL_B_SPLINE_CURVE ((5., 1., 1., 1., 1., 5.))
   REPRESENTATION_ITEM ('')
);
#29 = EDGE_CURVE ('', #4, #4, #28, .T.);
#30 = ORIENTED_EDGE ('', *, *, #29, .F.);
#31 = EDGE_LOOP ('', (#11, #20, #21, #30));
#32 = FACE_OUTER_BOUND ('', #31, .T.);
#33 = CARTESIAN_POINT ('', (-117.75, 4., -9.79717439317881E-16));
#34 = CARTESIAN_POINT ('', (-103.833333333333, 4., -9.79717439317882E-16));
#35 = CARTESIAN_POINT ('', (-89.9166666666665, 4., -9.79717439317881E-16));
#36 = CARTESIAN_POINT ('', (-76., 4., -9.79717439317881E-16));
#37 = CARTESIAN_POINT ('', (-117.75, 3.99999999999998, 16.));
#38 = CARTESIAN_POINT ('', (-103.833333333333, 3.99999999999998, 16.));
#39 = CARTESIAN_POINT ('', (-89.9166666666665, 3.99999999999998, 16.));
#40 = CARTESIAN_POINT ('', (-76., 3.99999999999999, 16.));
#41 = CARTESIAN_POINT ('', (-117.75, -12., 7.99999999999996));
#42 = CARTESIAN_POINT ('', (-103.833333333333, -12., 7.99999999999997));
#43 = CARTESIAN_POINT ('', (-89.9166666666665, -12., 7.99999999999997));
#44 = CARTESIAN_POINT ('', (-76., -12., 7.99999999999998));
#45 = CARTESIAN_POINT ('', (-117.75, -12., -8.00000000000001));
#46 = CARTESIAN_POINT ('', (-103.833333333333, -12., -8.00000000000001));
#47 = CARTESIAN_POINT ('', (-89.9166666666665, -12., -8.00000000000001));
#48 = CARTESIAN_POINT ('', (-76., -12., -8.00000000000001));
#49 = CARTESIAN_POINT ('', (-117.75, 4.00000000000002, -16.));
#50 = CARTESIAN_POINT ('', (-103.833333333333, 4.00000000000002, -16.));
#51 = CARTESIAN_POINT ('', (-89.9166666666665, 4.00000000000002, -16.));
#52 = CARTESIAN_POINT ('', (-76., 4.00000000000002, -16.));
#53 = CARTESIAN_POINT ('', (-117.75, 4., -9.79717439317881E-16));
#54 = CARTESIAN_POINT ('', (-103.833333333333, 4., -9.79717439317882E-16));
#55 = CARTESIAN_POINT ('', (-89.9166666666665, 4., -9.79717439317881E-16));
#56 = CARTESIAN_POINT ('', (-76., 4., -9.79717439317881E-16));
#57 = (
   BOUNDED_SURFACE ()
   B_SPLINE_SURFACE (5, 3, ((#33, #34, #35, #36), (#37, #38, #39, #40), (#41, #42, #43, #44), (#45, #46, #47, #48), (#49, #50, #51, #52), (#53, #54, #55, #56)), .UNSPECIFIED., .T., .F., .U.)
   B_SPLINE_SURFACE_WITH_KNOTS ((6, 6), (4, 4), (0., 1.), (0., 1.), .UNSPECIFIED.)
   SURFACE ()
   GEOMETRIC_REPRESENTATION_ITEM ()
   RATIONAL_B_SPLINE_SURFACE (((5., 5., 5., 5.), (1., 1., 1., 1.), (1., 1., 1., 1.), (1., 1., 1., 1.), (1., 1., 1., 1.), (5., 5., 5., 5.)))
   REPRESENTATION_ITEM ('')
);
#58 = ADVANCED_FACE ('', (#32), #57, .T.);
#59 = CARTESIAN_POINT ('', (-118., 7.22541611496938E-15, -7.22541611496938E-15));
#60 = VERTEX_POINT ('', #59);
#61 = CARTESIAN_POINT ('', (-118., 3.75, -9.18485099360513E-16));
#62 = VERTEX_POINT ('', #61);
#63 = CARTESIAN_POINT ('', (-118., 7.22541611496938E-15, -7.22541611496938E-15));
#64 = CARTESIAN_POINT ('', (-118., 1.25, -3.06161699786836E-16));
#65 = CARTESIAN_POINT ('', (-118., 2.5, -6.12323399573675E-16));
#66 = CARTESIAN_POINT ('', (-118., 3.75, -9.18485099360513E-16));
#67 = B_SPLINE_CURVE_WITH_KNOTS ('', 3, (#63, #64, #65, #66), .UNSPECIFIED., .F., .U., (4, 4), (0., 1.), .UNSPECIFIED.);
#68 = EDGE_CURVE ('', #60, #62, #67, .T.);
#69 = ORIENTED_EDGE ('', *, *, #68, .F.);
#70 = ORIENTED_EDGE ('', *, *, #68, .T.);
#71 = CARTESIAN_POINT ('', (-118., 3.75, -9.18485099360513E-16));
#72 = CARTESIAN_POINT ('', (-118., 3.74999999999997, 15.));
#73 = CARTESIAN_POINT ('', (-118., -11.25, 7.49999999999996));
#74 = CARTESIAN_POINT ('', (-118., -11.25, -7.50000000000001));
#75 = CARTESIAN_POINT ('', (-118., 3.75000000000003, -15.));
#76 = CARTESIAN_POINT ('', (-118., 3.75, -9.18485099360513E-16));
#77 = (
   BOUNDED_CURVE ()
   B_SPLINE_CURVE (5, (#71, #72, #73, #74, #75, #76), .UNSPECIFIED., .T., .U.)
   B_SPLINE_CURVE_WITH_KNOTS ((6, 6), (0., 1.), .UNSPECIFIED.)
   CURVE ()
   GEOMETRIC_REPRESENTATION_ITEM ()
   RATIONAL_B_SPLINE_CURVE ((5., 1., 1., 1., 1., 5.))
   REPRESENTATION_ITEM ('')
);
#78 = EDGE_CURVE ('', #62, #62, #77, .T.);
#79 = ORIENTED_EDGE ('', *, *, #78, .F.);
#80 = EDGE_LOOP ('', (#69, #70, #79));
#81 = FACE_OUTER_BOUND ('', #80, .T.);
#82 = CARTESIAN_POINT ('', (-118., 7.22541611496938E-15, -7.22541611496938E-15));
#83 = CARTESIAN_POINT ('', (-118., 1.25, -3.06161699786836E-16));
#84 = CARTESIAN_POINT ('', (-118., 2.5, -6.12323399573675E-16));
#85 = CARTESIAN_POINT ('', (-118., 3.75, -9.18485099360513E-16));
#86 = CARTESIAN_POINT ('', (-118., 7.22541611496938E-15, -7.22541611496938E-15));
#87 = CARTESIAN_POINT ('', (-118., 1.24999999999997, 4.99999999999997));
#88 = CARTESIAN_POINT ('', (-118., 2.49999999999997, 9.99999999999997));
#89 = CARTESIAN_POINT ('', (-118., 3.74999999999997, 15.));
#90 = CARTESIAN_POINT ('', (-118., 7.22541611496938E-15, -7.22541611496938E-15));
#91 = CARTESIAN_POINT ('', (-118., -3.74999999999998, 2.49999999999996));
#92 = CARTESIAN_POINT ('', (-118., -7.49999999999998, 4.99999999999996));
#93 = CARTESIAN_POINT ('', (-118., -11.25, 7.49999999999996));
#94 = CARTESIAN_POINT ('', (-118., 7.22541611496938E-15, -7.22541611496938E-15));
#95 = CARTESIAN_POINT ('', (-118., -3.74999999999996, -2.50000000000001));
#96 = CARTESIAN_POINT ('', (-118., -7.49999999999996, -5.00000000000001));
#97 = CARTESIAN_POINT ('', (-118., -11.25, -7.50000000000001));
#98 = CARTESIAN_POINT ('', (-118., 7.22541611496938E-15, -7.22541611496938E-15));
#99 = CARTESIAN_POINT ('', (-118., 1.25000000000003, -4.99999999999997));
#100 = CARTESIAN_POINT ('', (-118., 2.50000000000003, -9.99999999999997));
#101 = CARTESIAN_POINT ('', (-118., 3.75000000000003, -15.));
#102 = CARTESIAN_POINT ('', (-118., 7.22541611496938E-15, -7.22541611496938E-15));
#103 = CARTESIAN_POINT ('', (-118., 1.25, -3.06161699786836E-16));
#104 = CARTESIAN_POINT ('', (-118., 2.5, -6.12323399573675E-16));
#105 = CARTESIAN_POINT ('', (-118., 3.75, -9.18485099360513E-16));
#106 = (
   BOUNDED_SURFACE ()
   B_SPLINE_SURFACE (5, 3, ((#82, #83, #84, #85), (#86, #87, #88, #89), (#90, #91, #92, #93), (#94, #95, #96, #97), (#98, #99, #100, #101), (#102, #103, #104, #105)), .UNSPECIFIED., .T., .F., .U.)
   B_SPLINE_SURFACE_WITH_KNOTS ((6, 6), (4, 4), (0., 1.), (0., 1.), .UNSPECIFIED.)
   SURFACE ()
   GEOMETRIC_REPRESENTATION_ITEM ()
   RATIONAL_B_SPLINE_SURFACE (((5., 5., 5., 5.), (1., 1., 1., 1.), (1., 1., 1., 1.), (1., 1., 1., 1.), (1., 1., 1., 1.), (5., 5., 5., 5.)))
   REPRESENTATION_ITEM ('')
);
#107 = ADVANCED_FACE ('', (#81), #106, .T.);
#108 = CARTESIAN_POINT ('', (-118., 3.75, -9.18485099360513E-16));
#109 = CARTESIAN_POINT ('', (-117.916666666666, 3.83333333333333, -9.38895879346301E-16));
#110 = CARTESIAN_POINT ('', (-117.833333333334, 3.91666666666666, -9.5930665933209E-16));
#111 = CARTESIAN_POINT ('', (-117.75, 4., -9.79717439317881E-16));
#112 = B_SPLINE_CURVE_WITH_KNOTS ('', 3, (#108, #109, #110, #111), .UNSPECIFIED., .F., .U., (4, 4), (0., 1.), .UNSPECIFIED.);
#113 = EDGE_CURVE ('', #62, #2, #112, .T.);
#114 = ORIENTED_EDGE ('', *, *, #113, .F.);
#115 = ORIENTED_EDGE ('', *, *, #78, .T.);
#116 = ORIENTED_EDGE ('', *, *, #113, .T.);
#117 = ORIENTED_EDGE ('', *, *, #19, .F.);
#118 = EDGE_LOOP ('', (#114, #115, #116, #117));
#119 = FACE_OUTER_BOUND ('', #118, .T.);
#120 = CARTESIAN_POINT ('', (-118., 3.75, -9.18485099360513E-16));
#121 = CARTESIAN_POINT ('', (-117.916666666666, 3.83333333333333, -9.38895879346301E-16));
#122 = CARTESIAN_POINT ('', (-117.833333333334, 3.91666666666666, -9.5930665933209E-16));
#123 = CARTESIAN_POINT ('', (-117.75, 4., -9.79717439317881E-16));
#124 = CARTESIAN_POINT ('', (-118., 3.74999999999997, 15.));
#125 = CARTESIAN_POINT ('', (-117.916666666666, 3.8333333333333, 15.3333333333333));
#126 = CARTESIAN_POINT ('', (-117.833333333334, 3.91666666666664, 15.6666666666666));
#127 = CARTESIAN_POINT ('', (-117.75, 3.99999999999998, 16.));
#128 = CARTESIAN_POINT ('', (-118., -11.25, 7.49999999999996));
#129 = CARTESIAN_POINT ('', (-117.916666666666, -11.5, 7.66666666666662));
#130 = CARTESIAN_POINT ('', (-117.833333333334, -11.75, 7.83333333333329));
#131 = CARTESIAN_POINT ('', (-117.75, -12., 7.99999999999996));
#132 = CARTESIAN_POINT ('', (-118., -11.25, -7.50000000000001));
#133 = CARTESIAN_POINT ('', (-117.916666666666, -11.4999999999999, -7.66666666666667));
#134 = CARTESIAN_POINT ('', (-117.833333333334, -11.7499999999999, -7.83333333333334));
#135 = CARTESIAN_POINT ('', (-117.75, -12., -8.00000000000001));
#136 = CARTESIAN_POINT ('', (-118., 3.75000000000003, -15.));
#137 = CARTESIAN_POINT ('', (-117.916666666666, 3.83333333333335, -15.3333333333333));
#138 = CARTESIAN_POINT ('', (-117.833333333334, 3.91666666666669, -15.6666666666666));
#139 = CARTESIAN_POINT ('', (-117.75, 4.00000000000002, -16.));
#140 = CARTESIAN_POINT ('', (-118., 3.75, -9.18485099360513E-16));
#141 = CARTESIAN_POINT ('', (-117.916666666666, 3.83333333333333, -9.38895879346301E-16));
#142 = CARTESIAN_POINT ('', (-117.833333333334, 3.91666666666666, -9.5930665933209E-16));
#143 = CARTESIAN_POINT ('', (-117.75, 4., -9.79717439317881E-16));
#144 = (
   BOUNDED_SURFACE ()
   B_SPLINE_SURFACE (5, 3, ((#120, #121, #122, #123), (#124, #125, #126, #127), (#128, #129, #130, #131), (#132, #133, #134, #135), (#136, #137, #138, #139), (#140, #141, #142, #143)), .UNSPECIFIED., .T., .F., .U.)
   B_SPLINE_SURFACE_WITH_KNOTS ((6, 6), (4, 4), (0., 1.), (0., 1.), .UNSPECIFIED.)
   SURFACE ()
   GEOMETRIC_REPRESENTATION_ITEM ()
   RATIONAL_B_SPLINE_SURFACE (((5., 5., 5., 5.), (1., 1., 1., 1.), (1., 1., 1., 1.), (1., 1., 1., 1.), (1., 1., 1., 1.), (5., 5., 5., 5.)))
   REPRESENTATION_ITEM ('')
);
#145 = ADVANCED_FACE ('', (#119), #144, .T.);
#146 = CARTESIAN_POINT ('', (-76., 3.315, -8.11940827834694E-16));
#147 = VERTEX_POINT ('', #146);
#148 = CARTESIAN_POINT ('', (-1.20656132659246, 3.315, -8.11940827834695E-16));
#149 = VERTEX_POINT ('', #148);
#150 = CARTESIAN_POINT ('', (-76., 3.315, -8.11940827834694E-16));
#151 = CARTESIAN_POINT ('', (-51.0688537755311, 3.31500000000001, -8.11940827834696E-16));
#152 = CARTESIAN_POINT ('', (-26.1377075510616, 3.315, -8.11940827834694E-16));
#153 = CARTESIAN_POINT ('', (-1.20656132659246, 3.315, -8.11940827834695E-16));
#154 = B_SPLINE_CURVE_WITH_KNOTS ('', 3, (#150, #151, #152, #153), .UNSPECIFIED., .F., .U., (4, 4), (0., 1.), .UNSPECIFIED.);
#155 = EDGE_CURVE ('', #147, #149, #154, .T.);
#156 = ORIENTED_EDGE ('', *, *, #155, .F.);
#157 = CARTESIAN_POINT ('', (-76., 3.315, -8.11940827834694E-16));
#158 = CARTESIAN_POINT ('', (-76., 3.31499999999998, 13.26));
#159 = CARTESIAN_POINT ('', (-76., -9.94499999999999, 6.62999999999998));
#160 = CARTESIAN_POINT ('', (-76., -9.94499999999997, -6.63000000000001));
#161 = CARTESIAN_POINT ('', (-76., 3.31500000000002, -13.26));
#162 = CARTESIAN_POINT ('', (-76., 3.315, -8.11940827834694E-16));
#163 = (
   BOUNDED_CURVE ()
   B_SPLINE_CURVE (5, (#157, #158, #159, #160, #161, #162), .UNSPECIFIED., .T., .U.)
   B_SPLINE_CURVE_WITH_KNOTS ((6, 6), (0., 1.), .UNSPECIFIED.)
   CURVE ()
   GEOMETRIC_REPRESENTATION_ITEM ()
   RATIONAL_B_SPLINE_CURVE ((5., 1., 1., 1., 1., 5.))
   REPRESENTATION_ITEM ('')
);
#164 = EDGE_CURVE ('', #147, #147, #163, .T.);
#165 = ORIENTED_EDGE ('', *, *, #164, .T.);
#166 = ORIENTED_EDGE ('', *, *, #155, .T.);
#167 = CARTESIAN_POINT ('', (-1.20656132659246, 3.315, -8.11940827834695E-16));
#168 = CARTESIAN_POINT ('', (-1.20656132659246, 3.315, 13.26));
#169 = CARTESIAN_POINT ('', (-1.20656132659246, -9.945, 6.63));
#170 = CARTESIAN_POINT ('', (-1.20656132659246, -9.945, -6.63));
#171 = CARTESIAN_POINT ('', (-1.20656132659246, 3.315, -13.26));
#172 = CARTESIAN_POINT ('', (-1.20656132659246, 3.315, -8.11940827834695E-16));
#173 = (
   BOUNDED_CURVE ()
   B_SPLINE_CURVE (5, (#167, #168, #169, #170, #171, #172), .UNSPECIFIED., .T., .U.)
   B_SPLINE_CURVE_WITH_KNOTS ((6, 6), (0., 1.), .UNSPECIFIED.)
   CURVE ()
   GEOMETRIC_REPRESENTATION_ITEM ()
   RATIONAL_B_SPLINE_CURVE ((5., 1., 1., 1., 1., 5.))
   REPRESENTATION_ITEM ('')
);
#174 = EDGE_CURVE ('', #149, #149, #173, .T.);
#175 = ORIENTED_EDGE ('', *, *, #174, .F.);
#176 = EDGE_LOOP ('', (#156, #165, #166, #175));
#177 = FACE_OUTER_BOUND ('', #176, .T.);
#178 = CARTESIAN_POINT ('', (-76., 3.315, -8.11940827834694E-16));
#179 = CARTESIAN_POINT ('', (-51.0688537755311, 3.31500000000001, -8.11940827834696E-16));
#180 = CARTESIAN_POINT ('', (-26.1377075510616, 3.315, -8.11940827834694E-16));
#181 = CARTESIAN_POINT ('', (-1.20656132659246, 3.315, -8.11940827834695E-16));
#182 = CARTESIAN_POINT ('', (-76., 3.31499999999998, 13.26));
#183 = CARTESIAN_POINT ('', (-51.0688537755311, 3.315, 13.26));
#184 = CARTESIAN_POINT ('', (-26.1377075510616, 3.31499999999999, 13.26));
#185 = CARTESIAN_POINT ('', (-1.20656132659246, 3.315, 13.26));
#186 = CARTESIAN_POINT ('', (-76., -9.94499999999999, 6.62999999999998));
#187 = CARTESIAN_POINT ('', (-51.0688537755311, -9.94500000000001, 6.63));
#188 = CARTESIAN_POINT ('', (-26.1377075510616, -9.94499999999998, 6.62999999999998));
#189 = CARTESIAN_POINT ('', (-1.20656132659247, -9.945, 6.63));
#190 = CARTESIAN_POINT ('', (-76., -9.94499999999997, -6.63000000000001));
#191 = CARTESIAN_POINT ('', (-51.0688537755311, -9.945, -6.63000000000002));
#192 = CARTESIAN_POINT ('', (-26.1377075510616, -9.94499999999998, -6.62999999999999));
#193 = CARTESIAN_POINT ('', (-1.20656132659246, -9.945, -6.63));
#194 = CARTESIAN_POINT ('', (-76., 3.31500000000002, -13.26));
#195 = CARTESIAN_POINT ('', (-51.0688537755311, 3.31500000000002, -13.26));
#196 = CARTESIAN_POINT ('', (-26.1377075510616, 3.315, -13.26));
#197 = CARTESIAN_POINT ('', (-1.20656132659246, 3.315, -13.26));
#198 = CARTESIAN_POINT ('', (-76., 3.315, -8.11940827834694E-16));
#199 = CARTESIAN_POINT ('', (-51.0688537755311, 3.31500000000001, -8.11940827834696E-16));
#200 = CARTESIAN_POINT ('', (-26.1377075510616, 3.315, -8.11940827834694E-16));
#201 = CARTESIAN_POINT ('', (-1.20656132659246, 3.315, -8.11940827834695E-16));
#202 = (
   BOUNDED_SURFACE ()
   B_SPLINE_SURFACE (5, 3, ((#178, #179, #180, #181), (#182, #183, #184, #185), (#186, #187, #188, #189), (#190, #191, #192, #193), (#194, #195, #196, #197), (#198, #199, #200, #201)), .UNSPECIFIED., .T., .F., .U.)
   B_SPLINE_SURFACE_WITH_KNOTS ((6, 6), (4, 4), (0., 1.), (0., 1.), .UNSPECIFIED.)
   SURFACE ()
   GEOMETRIC_REPRESENTATION_ITEM ()
   RATIONAL_B_SPLINE_SURFACE (((5., 5., 5., 5.), (1., 1., 1., 1.), (1., 1., 1., 1.), (1., 1., 1., 1.), (1., 1., 1., 1.), (5., 5., 5., 5.)))
   REPRESENTATION_ITEM ('')
);
#203 = ADVANCED_FACE ('', (#177), #202, .T.);
#204 = CARTESIAN_POINT ('', (-76., 4., -9.79717439317881E-16));
#205 = CARTESIAN_POINT ('', (-76., 3.77166666666667, -9.23791902156818E-16));
#206 = CARTESIAN_POINT ('', (-76., 3.54333333333334, -8.67866364995759E-16));
#207 = CARTESIAN_POINT ('', (-76., 3.315, -8.11940827834694E-16));
#208 = B_SPLINE_CURVE_WITH_KNOTS ('', 3, (#204, #205, #206, #207), .UNSPECIFIED., .F., .U., (4, 4), (0., 1.), .UNSPECIFIED.);
#209 = EDGE_CURVE ('', #4, #147, #208, .T.);
#210 = ORIENTED_EDGE ('', *, *, #209, .F.);
#211 = ORIENTED_EDGE ('', *, *, #29, .T.);
#212 = ORIENTED_EDGE ('', *, *, #209, .T.);
#213 = ORIENTED_EDGE ('', *, *, #164, .F.);
#214 = EDGE_LOOP ('', (#210, #211, #212, #213));
#215 = FACE_OUTER_BOUND ('', #214, .T.);
#216 = CARTESIAN_POINT ('', (-76., 4., -9.79717439317881E-16));
#217 = CARTESIAN_POINT ('', (-76., 3.77166666666667, -9.23791902156818E-16));
#218 = CARTESIAN_POINT ('', (-76., 3.54333333333334, -8.67866364995759E-16));
#219 = CARTESIAN_POINT ('', (-76., 3.315, -8.11940827834694E-16));
#220 = CARTESIAN_POINT ('', (-76., 3.99999999999999, 16.));
#221 = CARTESIAN_POINT ('', (-76., 3.77166666666665, 15.0866666666666));
#222 = CARTESIAN_POINT ('', (-76., 3.54333333333333, 14.1733333333334));
#223 = CARTESIAN_POINT ('', (-76., 3.31499999999998, 13.26));
#224 = CARTESIAN_POINT ('', (-76., -12., 7.99999999999998));
#225 = CARTESIAN_POINT ('', (-76., -11.315, 7.54333333333331));
#226 = CARTESIAN_POINT ('', (-76., -10.63, 7.08666666666666));
#227 = CARTESIAN_POINT ('', (-76., -9.94499999999999, 6.62999999999998));
#228 = CARTESIAN_POINT ('', (-76., -12., -8.00000000000001));
#229 = CARTESIAN_POINT ('', (-76., -11.315, -7.54333333333334));
#230 = CARTESIAN_POINT ('', (-76., -10.63, -7.08666666666669));
#231 = CARTESIAN_POINT ('', (-76., -9.94499999999997, -6.63000000000001));
#232 = CARTESIAN_POINT ('', (-76., 4.00000000000002, -16.));
#233 = CARTESIAN_POINT ('', (-76., 3.77166666666668, -15.0866666666667));
#234 = CARTESIAN_POINT ('', (-76., 3.54333333333336, -14.1733333333334));
#235 = CARTESIAN_POINT ('', (-76., 3.31500000000002, -13.26));
#236 = CARTESIAN_POINT ('', (-76., 4., -9.79717439317881E-16));
#237 = CARTESIAN_POINT ('', (-76., 3.77166666666667, -9.23791902156818E-16));
#238 = CARTESIAN_POINT ('', (-76., 3.54333333333334, -8.67866364995759E-16));
#239 = CARTESIAN_POINT ('', (-76., 3.315, -8.11940827834694E-16));
#240 = (
   BOUNDED_SURFACE ()
   B_SPLINE_SURFACE (5, 3, ((#216, #217, #218, #219), (#220, #221, #222, #223), (#224, #225, #226, #227), (#228, #229, #230, #231), (#232, #233, #234, #235), (#236, #237, #238, #239)), .UNSPECIFIED., .T., .F., .U.)
   B_SPLINE_SURFACE_WITH_KNOTS ((6, 6), (4, 4), (0., 1.), (0., 1.), .UNSPECIFIED.)
   SURFACE ()
   GEOMETRIC_REPRESENTATION_ITEM ()
   RATIONAL_B_SPLINE_SURFACE (((5., 5., 5., 5.), (1., 1., 1., 1.), (1., 1., 1., 1.), (1., 1., 1., 1.), (1., 1., 1., 1.), (5., 5., 5., 5.)))
   REPRESENTATION_ITEM ('')
);
#241 = ADVANCED_FACE ('', (#215), #240, .T.);
#242 = CARTESIAN_POINT ('', (0., 0., 0.));
#243 = VERTEX_POINT ('', #242);
#244 = CARTESIAN_POINT ('', (-1.20656132659246, 3.315, -8.11940827834695E-16));
#245 = CARTESIAN_POINT ('', (-0.804374217728306, 2.21, -5.4129388522313E-16));
#246 = CARTESIAN_POINT ('', (-0.402187108864153, 1.105, -2.70646942611565E-16));
#247 = CARTESIAN_POINT ('', (0., 0., 0.));
#248 = B_SPLINE_CURVE_WITH_KNOTS ('', 3, (#244, #245, #246, #247), .UNSPECIFIED., .F., .U., (4, 4), (0., 1.), .UNSPECIFIED.);
#249 = EDGE_CURVE ('', #149, #243, #248, .T.);
#250 = ORIENTED_EDGE ('', *, *, #249, .F.);
#251 = ORIENTED_EDGE ('', *, *, #174, .T.);
#252 = ORIENTED_EDGE ('', *, *, #249, .T.);
#253 = EDGE_LOOP ('', (#250, #251, #252));
#254 = FACE_OUTER_BOUND ('', #253, .T.);
#255 = CARTESIAN_POINT ('', (-1.20656132659246, 3.315, -8.11940827834695E-16));
#256 = CARTESIAN_POINT ('', (-0.804374217728306, 2.21, -5.4129388522313E-16));
#257 = CARTESIAN_POINT ('', (-0.402187108864153, 1.105, -2.70646942611565E-16));
#258 = CARTESIAN_POINT ('', (0., 0., 0.));
#259 = CARTESIAN_POINT ('', (-1.20656132659246, 3.315, 13.26));
#260 = CARTESIAN_POINT ('', (-0.804374217728306, 2.21, 8.84));
#261 = CARTESIAN_POINT ('', (-0.402187108864154, 1.105, 4.42));
#262 = CARTESIAN_POINT ('', (0., 0., 0.));
#263 = CARTESIAN_POINT ('', (-1.20656132659246, -9.945, 6.63));
#264 = CARTESIAN_POINT ('', (-0.804374217728307, -6.63, 4.42));
#265 = CARTESIAN_POINT ('', (-0.402187108864154, -3.315, 2.21));
#266 = CARTESIAN_POINT ('', (0., 0., 0.));
#267 = CARTESIAN_POINT ('', (-1.20656132659246, -9.945, -6.63));
#268 = CARTESIAN_POINT ('', (-0.804374217728306, -6.63, -4.42));
#269 = CARTESIAN_POINT ('', (-0.402187108864153, -3.315, -2.21));
#270 = CARTESIAN_POINT ('', (0., 0., 0.));
#271 = CARTESIAN_POINT ('', (-1.20656132659246, 3.315, -13.26));
#272 = CARTESIAN_POINT ('', (-0.804374217728305, 2.21, -8.84));
#273 = CARTESIAN_POINT ('', (-0.402187108864153, 1.105, -4.42));
#274 = CARTESIAN_POINT ('', (0., 0., 0.));
#275 = CARTESIAN_POINT ('', (-1.20656132659246, 3.315, -8.11940827834695E-16));
#276 = CARTESIAN_POINT ('', (-0.804374217728306, 2.21, -5.4129388522313E-16));
#277 = CARTESIAN_POINT ('', (-0.402187108864153, 1.105, -2.70646942611565E-16));
#278 = CARTESIAN_POINT ('', (0., 0., 0.));
#279 = (
   BOUNDED_SURFACE ()
   B_SPLINE_SURFACE (5, 3, ((#255, #256, #257, #258), (#259, #260, #261, #262), (#263, #264, #265, #266), (#267, #268, #269, #270), (#271, #272, #273, #274), (#275, #276, #277, #278)), .UNSPECIFIED., .T., .F., .U.)
   B_SPLINE_SURFACE_WITH_KNOTS ((6, 6), (4, 4), (0., 1.), (0., 1.), .UNSPECIFIED.)
   SURFACE ()
   GEOMETRIC_REPRESENTATION_ITEM ()
   RATIONAL_B_SPLINE_SURFACE (((5., 5., 5., 5.), (1., 1., 1., 1.), (1., 1., 1., 1.), (1., 1., 1., 1.), (1., 1., 1., 1.), (5., 5., 5., 5.)))
   REPRESENTATION_ITEM ('')
);
#280 = ADVANCED_FACE ('', (#254), #279, .T.);
#281 = CLOSED_SHELL ('', (#58, #107, #145, #203, #241, #280));
#282 = MANIFOLD_SOLID_BREP ('', #281);
#283 = (
   LENGTH_UNIT ()
   NAMED_UNIT (*)
   SI_UNIT (.MILLI., .METRE.)
);
#284 = (
   NAMED_UNIT (*)
   SI_UNIT ($, .STERADIAN.)
   SOLID_ANGLE_UNIT ()
);
#285 = (
   NAMED_UNIT (*)
   SI_UNIT ($, .RADIAN.)
   PLANE_ANGLE_UNIT ()
);
#286 = UNCERTAINTY_MEASURE_WITH_UNIT (LENGTH_MEASURE(0.001), #283, 'DISTANCE_ACCURACY_VALUE', '');
#287 = (
   GEOMETRIC_REPRESENTATION_CONTEXT (3)
   GLOBAL_UNCERTAINTY_ASSIGNED_CONTEXT ((#286))
   GLOBAL_UNIT_ASSIGNED_CONTEXT ((#283, #284, #285))
   REPRESENTATION_CONTEXT ('', '3D')
);
#288 = SHAPE_REPRESENTATION ('', (), #287);
#289 = APPLICATION_CONTEXT ('configuration controlled 3D designs of mechanical parts and assemblies');
#290 = APPLICATION_PROTOCOL_DEFINITION ('International Standard', 'config_control_design', 1997, #289);
#291 = MECHANICAL_CONTEXT ('', #289, 'mechanical');
#292 = PRODUCT ('', '', '', (#291));
#293 = PERSON_AND_ORGANIZATION_ROLE ('design_owner');
#294 = PERSON ('', '', $, $, $, $);
#295 = ORGANIZATION ($, '', '');
#296 = PERSON_AND_ORGANIZATION (#294, #295);
#297 = CC_DESIGN_PERSON_AND_ORGANIZATION_ASSIGNMENT (#296, #293, (#292));
#298 = PRODUCT_RELATED_PRODUCT_CATEGORY ('detail', $, (#292));
#299 = PRODUCT_DEFINITION_FORMATION_WITH_SPECIFIED_SOURCE ('', '', #292, .NOT_KNOWN.);
#300 = APPROVAL_STATUS ('approved');
#301 = APPROVAL (#300, '');
#302 = CALENDAR_DATE (2021, 23, 3);
#303 = COORDINATED_UNIVERSAL_TIME_OFFSET (0, $, .AHEAD.);
#304 = LOCAL_TIME (15, 20, 10., #303);
#305 = DATE_AND_TIME (#302, #304);
#306 = APPROVAL_DATE_TIME (#305, #301);
#307 = APPROVAL_ROLE ('');
#308 = PERSON ('', '', $, $, $, $);
#309 = ORGANIZATION ($, '', '');
#310 = PERSON_AND_ORGANIZATION (#308, #309);
#311 = APPROVAL_PERSON_ORGANIZATION (#310, #301, #307);
#312 = CC_DESIGN_APPROVAL (#301, (#299));
#313 = PERSON_AND_ORGANIZATION_ROLE ('creator');
#314 = PERSON ('', '', $, $, $, $);
#315 = ORGANIZATION ($, '', '');
#316 = PERSON_AND_ORGANIZATION (#314, #315);
#317 = CC_DESIGN_PERSON_AND_ORGANIZATION_ASSIGNMENT (#316, #313, (#299));
#318 = PERSON_AND_ORGANIZATION_ROLE ('part_supplier');
#319 = PERSON ('', '', $, $, $, $);
#320 = ORGANIZATION ($, '', '');
#321 = PERSON_AND_ORGANIZATION (#319, #320);
#322 = CC_DESIGN_PERSON_AND_ORGANIZATION_ASSIGNMENT (#321, #318, (#299));
#323 = SECURITY_CLASSIFICATION_LEVEL ('unclassified');
#324 = SECURITY_CLASSIFICATION ('', '', #323);
#325 = APPROVAL_STATUS ('approved');
#326 = APPROVAL (#325, '');
#327 = CALENDAR_DATE (2021, 23, 3);
#328 = COORDINATED_UNIVERSAL_TIME_OFFSET (0, $, .AHEAD.);
#329 = LOCAL_TIME (15, 20, 10., #328);
#330 = DATE_AND_TIME (#327, #329);
#331 = APPROVAL_DATE_TIME (#330, #326);
#332 = APPROVAL_ROLE ('');
#333 = PERSON ('', '', $, $, $, $);
#334 = ORGANIZATION ($, '', '');
#335 = PERSON_AND_ORGANIZATION (#333, #334);
#336 = APPROVAL_PERSON_ORGANIZATION (#335, #326, #332);
#337 = CC_DESIGN_APPROVAL (#326, (#324));
#338 = DATE_TIME_ROLE ('classification_date');
#339 = CALENDAR_DATE (2021, 23, 3);
#340 = COORDINATED_UNIVERSAL_TIME_OFFSET (0, $, .AHEAD.);
#341 = LOCAL_TIME (15, 20, 10., #340);
#342 = DATE_AND_TIME (#339, #341);
#343 = CC_DESIGN_DATE_AND_TIME_ASSIGNMENT (#342, #338, (#324));
#344 = PERSON_AND_ORGANIZATION_ROLE ('classification_officer');
#345 = PERSON ('', '', $, $, $, $);
#346 = ORGANIZATION ($, '', '');
#347 = PERSON_AND_ORGANIZATION (#345, #346);
#348 = CC_DESIGN_PERSON_AND_ORGANIZATION_ASSIGNMENT (#347, #344, (#324));
#349 = CC_DESIGN_SECURITY_CLASSIFICATION (#324, (#299));
#350 = DESIGN_CONTEXT ('', #289, 'design');
#351 = PRODUCT_DEFINITION ('', '', #299, #350);
#352 = APPROVAL_STATUS ('approved');
#353 = APPROVAL (#352, '');
#354 = CALENDAR_DATE (2021, 23, 3);
#355 = COORDINATED_UNIVERSAL_TIME_OFFSET (0, $, .AHEAD.);
#356 = LOCAL_TIME (15, 20, 10., #355);
#357 = DATE_AND_TIME (#354, #356);
#358 = APPROVAL_DATE_TIME (#357, #353);
#359 = APPROVAL_ROLE ('');
#360 = PERSON ('', '', $, $, $, $);
#361 = ORGANIZATION ($, '', '');
#362 = PERSON_AND_ORGANIZATION (#360, #361);
#363 = APPROVAL_PERSON_ORGANIZATION (#362, #353, #359);
#364 = CC_DESIGN_APPROVAL (#353, (#351));
#365 = DATE_TIME_ROLE ('creation_date');
#366 = CALENDAR_DATE (2021, 23, 3);
#367 = COORDINATED_UNIVERSAL_TIME_OFFSET (0, $, .AHEAD.);
#368 = LOCAL_TIME (15, 20, 10., #367);
#369 = DATE_AND_TIME (#366, #368);
#370 = CC_DESIGN_DATE_AND_TIME_ASSIGNMENT (#369, #365, (#351));
#371 = PERSON_AND_ORGANIZATION_ROLE ('creator');
#372 = PERSON ('', '', $, $, $, $);
#373 = ORGANIZATION ($, '', '');
#374 = PERSON_AND_ORGANIZATION (#372, #373);
#375 = CC_DESIGN_PERSON_AND_ORGANIZATION_ASSIGNMENT (#374, #371, (#351));
#376 = PRODUCT_DEFINITION_SHAPE ('', '', #351);
#377 = SHAPE_DEFINITION_REPRESENTATION (#376, #288);
#378 = SHAPE_REPRESENTATION_RELATIONSHIP ('', '', #288, #379);
#379 = ADVANCED_BREP_SHAPE_REPRESENTATION ('', (#282), #287);
ENDSEC;
END-ISO-10303-21;
