ISO-10303-21;
HEADER;
FILE_DESCRIPTION ((), '1');
FILE_NAME ('C:\\Users\\kevin\\CXD, CLM & CL\\CXDCLM0300AP.STP', '2021-03-22T14:42:07', ('Unknown'), ('m.a.ford europe'), 'OneCNC-XR8 Mill 3D Expert', 'OneCNC-XR8 Mill 3D Expert', '');
FILE_SCHEMA (('CONFIG_CONTROL_DESIGN'));
ENDSEC;

DATA;
#1 = CARTESIAN_POINT ('', (0., 0., 0.));
#2 = VERTEX_POINT ('', #1);
#3 = CARTESIAN_POINT ('', (-0.545955351399303, 1.5, -3.67394039744206E-16));
#4 = VERTEX_POINT ('', #3);
#5 = CARTESIAN_POINT ('', (0., 0., 0.));
#6 = CARTESIAN_POINT ('', (-0.181985117133101, 0.5, -1.22464679914735E-16));
#7 = CARTESIAN_POINT ('', (-0.363970234266198, 1., -2.44929359829471E-16));
#8 = CARTESIAN_POINT ('', (-0.545955351399303, 1.5, -3.67394039744206E-16));
#9 = B_SPLINE_CURVE_WITH_KNOTS ('', 3, (#5, #6, #7, #8), .UNSPECIFIED., .F., .U., (4, 4), (0., 1.), .UNSPECIFIED.);
#10 = EDGE_CURVE ('', #2, #4, #9, .T.);
#11 = ORIENTED_EDGE ('', *, *, #10, .F.);
#12 = ORIENTED_EDGE ('', *, *, #10, .T.);
#13 = CARTESIAN_POINT ('', (-0.545955351399303, 1.5, -3.67394039744206E-16));
#14 = CARTESIAN_POINT ('', (-0.545955351399304, 1.5, 6.));
#15 = CARTESIAN_POINT ('', (-0.545955351399304, -4.5, 3.));
#16 = CARTESIAN_POINT ('', (-0.545955351399303, -4.5, -3.));
#17 = CARTESIAN_POINT ('', (-0.545955351399303, 1.5, -6.));
#18 = CARTESIAN_POINT ('', (-0.545955351399303, 1.5, -3.67394039744206E-16));
#19 = (
   BOUNDED_CURVE ()
   B_SPLINE_CURVE (5, (#13, #14, #15, #16, #17, #18), .UNSPECIFIED., .T., .U.)
   B_SPLINE_CURVE_WITH_KNOTS ((6, 6), (0., 1.), .UNSPECIFIED.)
   CURVE ()
   GEOMETRIC_REPRESENTATION_ITEM ()
   RATIONAL_B_SPLINE_CURVE ((5., 1., 1., 1., 1., 5.))
   REPRESENTATION_ITEM ('')
);
#20 = EDGE_CURVE ('', #4, #4, #19, .T.);
#21 = ORIENTED_EDGE ('', *, *, #20, .F.);
#22 = EDGE_LOOP ('', (#11, #12, #21));
#23 = FACE_OUTER_BOUND ('', #22, .F.);
#24 = CARTESIAN_POINT ('', (0., 0., 0.));
#25 = CARTESIAN_POINT ('', (-0.181985117133101, 0.5, -1.22464679914735E-16));
#26 = CARTESIAN_POINT ('', (-0.363970234266198, 1., -2.44929359829471E-16));
#27 = CARTESIAN_POINT ('', (-0.545955351399303, 1.5, -3.67394039744206E-16));
#28 = CARTESIAN_POINT ('', (0., 0., 0.));
#29 = CARTESIAN_POINT ('', (-0.181985117133101, 0.5, 2.));
#30 = CARTESIAN_POINT ('', (-0.363970234266198, 1., 4.));
#31 = CARTESIAN_POINT ('', (-0.545955351399304, 1.5, 6.));
#32 = CARTESIAN_POINT ('', (0., 0., 0.));
#33 = CARTESIAN_POINT ('', (-0.181985117133101, -1.5, 1.));
#34 = CARTESIAN_POINT ('', (-0.363970234266199, -3., 2.));
#35 = CARTESIAN_POINT ('', (-0.545955351399304, -4.5, 3.));
#36 = CARTESIAN_POINT ('', (0., 0., 0.));
#37 = CARTESIAN_POINT ('', (-0.181985117133101, -1.5, -1.));
#38 = CARTESIAN_POINT ('', (-0.363970234266198, -3., -2.));
#39 = CARTESIAN_POINT ('', (-0.545955351399303, -4.5, -3.));
#40 = CARTESIAN_POINT ('', (0., 0., 0.));
#41 = CARTESIAN_POINT ('', (-0.181985117133101, 0.5, -2.));
#42 = CARTESIAN_POINT ('', (-0.363970234266198, 0.999999999999999, -4.));
#43 = CARTESIAN_POINT ('', (-0.545955351399303, 1.5, -6.));
#44 = CARTESIAN_POINT ('', (0., 0., 0.));
#45 = CARTESIAN_POINT ('', (-0.181985117133101, 0.5, -1.22464679914735E-16));
#46 = CARTESIAN_POINT ('', (-0.363970234266198, 1., -2.44929359829471E-16));
#47 = CARTESIAN_POINT ('', (-0.545955351399303, 1.5, -3.67394039744206E-16));
#48 = (
   BOUNDED_SURFACE ()
   B_SPLINE_SURFACE (5, 3, ((#24, #25, #26, #27), (#28, #29, #30, #31), (#32, #33, #34, #35), (#36, #37, #38, #39), (#40, #41, #42, #43), (#44, #45, #46, #47)), .UNSPECIFIED., .T., .F., .U.)
   B_SPLINE_SURFACE_WITH_KNOTS ((6, 6), (4, 4), (0., 1.), (0., 1.), .UNSPECIFIED.)
   SURFACE ()
   GEOMETRIC_REPRESENTATION_ITEM ()
   RATIONAL_B_SPLINE_SURFACE (((5., 5., 5., 5.), (1., 1., 1., 1.), (1., 1., 1., 1.), (1., 1., 1., 1.), (1., 1., 1., 1.), (5., 5., 5., 5.)))
   REPRESENTATION_ITEM ('')
);
#49 = ADVANCED_FACE ('', (#23), #48, .F.);
#50 = CARTESIAN_POINT ('', (-80.75, 1.5, -3.67394039744205E-16));
#51 = VERTEX_POINT ('', #50);
#52 = CARTESIAN_POINT ('', (-81., 1.25, -3.06161699786837E-16));
#53 = VERTEX_POINT ('', #52);
#54 = CARTESIAN_POINT ('', (-80.75, 1.5, -3.67394039744205E-16));
#55 = CARTESIAN_POINT ('', (-80.8333333333333, 1.41666666666666, -3.46983259758415E-16));
#56 = CARTESIAN_POINT ('', (-80.9166666666666, 1.33333333333334, -3.26572479772627E-16));
#57 = CARTESIAN_POINT ('', (-81., 1.25, -3.06161699786837E-16));
#58 = B_SPLINE_CURVE_WITH_KNOTS ('', 3, (#54, #55, #56, #57), .UNSPECIFIED., .F., .U., (4, 4), (0., 1.), .UNSPECIFIED.);
#59 = EDGE_CURVE ('', #51, #53, #58, .T.);
#60 = ORIENTED_EDGE ('', *, *, #59, .F.);
#61 = CARTESIAN_POINT ('', (-80.75, 1.5, -3.67394039744205E-16));
#62 = CARTESIAN_POINT ('', (-80.75, 1.49999999999998, 5.99999999999998));
#63 = CARTESIAN_POINT ('', (-80.75, -4.49999999999999, 2.99999999999997));
#64 = CARTESIAN_POINT ('', (-80.75, -4.49999999999997, -3.00000000000001));
#65 = CARTESIAN_POINT ('', (-80.75, 1.50000000000002, -5.99999999999998));
#66 = CARTESIAN_POINT ('', (-80.75, 1.5, -3.67394039744205E-16));
#67 = (
   BOUNDED_CURVE ()
   B_SPLINE_CURVE (5, (#61, #62, #63, #64, #65, #66), .UNSPECIFIED., .T., .U.)
   B_SPLINE_CURVE_WITH_KNOTS ((6, 6), (0., 1.), .UNSPECIFIED.)
   CURVE ()
   GEOMETRIC_REPRESENTATION_ITEM ()
   RATIONAL_B_SPLINE_CURVE ((5., 1., 1., 1., 1., 5.))
   REPRESENTATION_ITEM ('')
);
#68 = EDGE_CURVE ('', #51, #51, #67, .T.);
#69 = ORIENTED_EDGE ('', *, *, #68, .T.);
#70 = ORIENTED_EDGE ('', *, *, #59, .T.);
#71 = CARTESIAN_POINT ('', (-81., 1.25, -3.06161699786837E-16));
#72 = CARTESIAN_POINT ('', (-81., 1.24999999999998, 4.99999999999998));
#73 = CARTESIAN_POINT ('', (-81., -3.74999999999999, 2.49999999999997));
#74 = CARTESIAN_POINT ('', (-81., -3.74999999999997, -2.50000000000001));
#75 = CARTESIAN_POINT ('', (-81., 1.25000000000002, -4.99999999999998));
#76 = CARTESIAN_POINT ('', (-81., 1.25, -3.06161699786837E-16));
#77 = (
   BOUNDED_CURVE ()
   B_SPLINE_CURVE (5, (#71, #72, #73, #74, #75, #76), .UNSPECIFIED., .T., .U.)
   B_SPLINE_CURVE_WITH_KNOTS ((6, 6), (0., 1.), .UNSPECIFIED.)
   CURVE ()
   GEOMETRIC_REPRESENTATION_ITEM ()
   RATIONAL_B_SPLINE_CURVE ((5., 1., 1., 1., 1., 5.))
   REPRESENTATION_ITEM ('')
);
#78 = EDGE_CURVE ('', #53, #53, #77, .T.);
#79 = ORIENTED_EDGE ('', *, *, #78, .F.);
#80 = EDGE_LOOP ('', (#60, #69, #70, #79));
#81 = FACE_OUTER_BOUND ('', #80, .F.);
#82 = CARTESIAN_POINT ('', (-80.75, 1.5, -3.67394039744205E-16));
#83 = CARTESIAN_POINT ('', (-80.8333333333333, 1.41666666666666, -3.46983259758415E-16));
#84 = CARTESIAN_POINT ('', (-80.9166666666666, 1.33333333333334, -3.26572479772627E-16));
#85 = CARTESIAN_POINT ('', (-81., 1.25, -3.06161699786837E-16));
#86 = CARTESIAN_POINT ('', (-80.75, 1.49999999999998, 5.99999999999998));
#87 = CARTESIAN_POINT ('', (-80.8333333333333, 1.41666666666664, 5.66666666666663));
#88 = CARTESIAN_POINT ('', (-80.9166666666666, 1.33333333333332, 5.33333333333332));
#89 = CARTESIAN_POINT ('', (-81., 1.24999999999998, 4.99999999999998));
#90 = CARTESIAN_POINT ('', (-80.75, -4.49999999999999, 2.99999999999997));
#91 = CARTESIAN_POINT ('', (-80.8333333333333, -4.24999999999998, 2.8333333333333));
#92 = CARTESIAN_POINT ('', (-80.9166666666666, -4., 2.66666666666664));
#93 = CARTESIAN_POINT ('', (-81., -3.74999999999999, 2.49999999999997));
#94 = CARTESIAN_POINT ('', (-80.75, -4.49999999999997, -3.00000000000001));
#95 = CARTESIAN_POINT ('', (-80.8333333333333, -4.24999999999996, -2.83333333333333));
#96 = CARTESIAN_POINT ('', (-80.9166666666666, -3.99999999999998, -2.66666666666668));
#97 = CARTESIAN_POINT ('', (-81., -3.74999999999997, -2.50000000000001));
#98 = CARTESIAN_POINT ('', (-80.75, 1.50000000000002, -5.99999999999998));
#99 = CARTESIAN_POINT ('', (-80.8333333333333, 1.41666666666668, -5.66666666666663));
#100 = CARTESIAN_POINT ('', (-80.9166666666666, 1.33333333333335, -5.33333333333333));
#101 = CARTESIAN_POINT ('', (-81., 1.25000000000002, -4.99999999999998));
#102 = CARTESIAN_POINT ('', (-80.75, 1.5, -3.67394039744205E-16));
#103 = CARTESIAN_POINT ('', (-80.8333333333333, 1.41666666666666, -3.46983259758415E-16));
#104 = CARTESIAN_POINT ('', (-80.9166666666666, 1.33333333333334, -3.26572479772627E-16));
#105 = CARTESIAN_POINT ('', (-81., 1.25, -3.06161699786837E-16));
#106 = (
   BOUNDED_SURFACE ()
   B_SPLINE_SURFACE (5, 3, ((#82, #83, #84, #85), (#86, #87, #88, #89), (#90, #91, #92, #93), (#94, #95, #96, #97), (#98, #99, #100, #101), (#102, #103, #104, #105)), .UNSPECIFIED., .T., .F., .U.)
   B_SPLINE_SURFACE_WITH_KNOTS ((6, 6), (4, 4), (0., 1.), (0., 1.), .UNSPECIFIED.)
   SURFACE ()
   GEOMETRIC_REPRESENTATION_ITEM ()
   RATIONAL_B_SPLINE_SURFACE (((5., 5., 5., 5.), (1., 1., 1., 1.), (1., 1., 1., 1.), (1., 1., 1., 1.), (1., 1., 1., 1.), (5., 5., 5., 5.)))
   REPRESENTATION_ITEM ('')
);
#107 = ADVANCED_FACE ('', (#81), #106, .F.);
#108 = CARTESIAN_POINT ('', (-81., 4.95981953654678E-15, -4.95981953654678E-15));
#109 = VERTEX_POINT ('', #108);
#110 = CARTESIAN_POINT ('', (-81., 1.25, -3.06161699786837E-16));
#111 = CARTESIAN_POINT ('', (-81.0000000000001, 0.833333333333337, -2.04107799857892E-16));
#112 = CARTESIAN_POINT ('', (-81., 0.416666666666666, -1.02053899928946E-16));
#113 = CARTESIAN_POINT ('', (-81., 4.95981953654678E-15, -4.95981953654678E-15));
#114 = B_SPLINE_CURVE_WITH_KNOTS ('', 3, (#110, #111, #112, #113), .UNSPECIFIED., .F., .U., (4, 4), (0., 1.), .UNSPECIFIED.);
#115 = EDGE_CURVE ('', #53, #109, #114, .T.);
#116 = ORIENTED_EDGE ('', *, *, #115, .F.);
#117 = ORIENTED_EDGE ('', *, *, #78, .T.);
#118 = ORIENTED_EDGE ('', *, *, #115, .T.);
#119 = EDGE_LOOP ('', (#116, #117, #118));
#120 = FACE_OUTER_BOUND ('', #119, .F.);
#121 = CARTESIAN_POINT ('', (-81., 1.25, -3.06161699786837E-16));
#122 = CARTESIAN_POINT ('', (-81.0000000000001, 0.833333333333337, -2.04107799857892E-16));
#123 = CARTESIAN_POINT ('', (-81., 0.416666666666666, -1.02053899928946E-16));
#124 = CARTESIAN_POINT ('', (-81., 4.95981953654678E-15, -4.95981953654678E-15));
#125 = CARTESIAN_POINT ('', (-81., 1.24999999999998, 4.99999999999998));
#126 = CARTESIAN_POINT ('', (-81.0000000000001, 0.833333333333318, 3.33333333333333));
#127 = CARTESIAN_POINT ('', (-81., 0.416666666666647, 1.66666666666665));
#128 = CARTESIAN_POINT ('', (-81., 4.95981953654678E-15, -4.95981953654678E-15));
#129 = CARTESIAN_POINT ('', (-81., -3.74999999999999, 2.49999999999997));
#130 = CARTESIAN_POINT ('', (-81.0000000000001, -2.5, 1.66666666666664));
#131 = CARTESIAN_POINT ('', (-81., -1.24999999999999, 0.833333333333304));
#132 = CARTESIAN_POINT ('', (-81., 4.95981953654678E-15, -4.95981953654678E-15));
#133 = CARTESIAN_POINT ('', (-81., -3.74999999999997, -2.50000000000001));
#134 = CARTESIAN_POINT ('', (-81.0000000000001, -2.49999999999998, -1.66666666666668));
#135 = CARTESIAN_POINT ('', (-81., -1.24999999999997, -0.833333333333343));
#136 = CARTESIAN_POINT ('', (-81., 4.95981953654678E-15, -4.95981953654678E-15));
#137 = CARTESIAN_POINT ('', (-81., 1.25000000000002, -4.99999999999998));
#138 = CARTESIAN_POINT ('', (-81.0000000000001, 0.833333333333356, -3.33333333333333));
#139 = CARTESIAN_POINT ('', (-81., 0.416666666666686, -1.66666666666665));
#140 = CARTESIAN_POINT ('', (-81., 4.95981953654678E-15, -4.95981953654678E-15));
#141 = CARTESIAN_POINT ('', (-81., 1.25, -3.06161699786837E-16));
#142 = CARTESIAN_POINT ('', (-81.0000000000001, 0.833333333333337, -2.04107799857892E-16));
#143 = CARTESIAN_POINT ('', (-81., 0.416666666666666, -1.02053899928946E-16));
#144 = CARTESIAN_POINT ('', (-81., 4.95981953654678E-15, -4.95981953654678E-15));
#145 = (
   BOUNDED_SURFACE ()
   B_SPLINE_SURFACE (5, 3, ((#121, #122, #123, #124), (#125, #126, #127, #128), (#129, #130, #131, #132), (#133, #134, #135, #136), (#137, #138, #139, #140), (#141, #142, #143, #144)), .UNSPECIFIED., .T., .F., .U.)
   B_SPLINE_SURFACE_WITH_KNOTS ((6, 6), (4, 4), (0., 1.), (0., 1.), .UNSPECIFIED.)
   SURFACE ()
   GEOMETRIC_REPRESENTATION_ITEM ()
   RATIONAL_B_SPLINE_SURFACE (((5., 5., 5., 5.), (1., 1., 1., 1.), (1., 1., 1., 1.), (1., 1., 1., 1.), (1., 1., 1., 1.), (5., 5., 5., 5.)))
   REPRESENTATION_ITEM ('')
);
#146 = ADVANCED_FACE ('', (#120), #145, .F.);
#147 = CARTESIAN_POINT ('', (-33., 1.5, -3.67394039744205E-16));
#148 = VERTEX_POINT ('', #147);
#149 = CARTESIAN_POINT ('', (-33., 1.5, -3.67394039744205E-16));
#150 = CARTESIAN_POINT ('', (-48.9166666666667, 1.5, -3.67394039744205E-16));
#151 = CARTESIAN_POINT ('', (-64.8333333333334, 1.5, -3.67394039744205E-16));
#152 = CARTESIAN_POINT ('', (-80.75, 1.5, -3.67394039744205E-16));
#153 = B_SPLINE_CURVE_WITH_KNOTS ('', 3, (#149, #150, #151, #152), .UNSPECIFIED., .F., .U., (4, 4), (0., 1.), .UNSPECIFIED.);
#154 = EDGE_CURVE ('', #148, #51, #153, .T.);
#155 = ORIENTED_EDGE ('', *, *, #154, .F.);
#156 = CARTESIAN_POINT ('', (-33., 1.5, -3.67394039744205E-16));
#157 = CARTESIAN_POINT ('', (-33., 1.49999999999999, 5.99999999999999));
#158 = CARTESIAN_POINT ('', (-33., -4.5, 2.99999999999999));
#159 = CARTESIAN_POINT ('', (-33., -4.49999999999999, -3.));
#160 = CARTESIAN_POINT ('', (-33., 1.50000000000001, -5.99999999999999));
#161 = CARTESIAN_POINT ('', (-33., 1.5, -3.67394039744205E-16));
#162 = (
   BOUNDED_CURVE ()
   B_SPLINE_CURVE (5, (#156, #157, #158, #159, #160, #161), .UNSPECIFIED., .T., .U.)
   B_SPLINE_CURVE_WITH_KNOTS ((6, 6), (0., 1.), .UNSPECIFIED.)
   CURVE ()
   GEOMETRIC_REPRESENTATION_ITEM ()
   RATIONAL_B_SPLINE_CURVE ((5., 1., 1., 1., 1., 5.))
   REPRESENTATION_ITEM ('')
);
#163 = EDGE_CURVE ('', #148, #148, #162, .T.);
#164 = ORIENTED_EDGE ('', *, *, #163, .T.);
#165 = ORIENTED_EDGE ('', *, *, #154, .T.);
#166 = ORIENTED_EDGE ('', *, *, #68, .F.);
#167 = EDGE_LOOP ('', (#155, #164, #165, #166));
#168 = FACE_OUTER_BOUND ('', #167, .F.);
#169 = CARTESIAN_POINT ('', (-33., 1.5, -3.67394039744205E-16));
#170 = CARTESIAN_POINT ('', (-48.9166666666667, 1.5, -3.67394039744205E-16));
#171 = CARTESIAN_POINT ('', (-64.8333333333334, 1.5, -3.67394039744205E-16));
#172 = CARTESIAN_POINT ('', (-80.75, 1.5, -3.67394039744205E-16));
#173 = CARTESIAN_POINT ('', (-33., 1.49999999999999, 5.99999999999999));
#174 = CARTESIAN_POINT ('', (-48.9166666666667, 1.49999999999999, 5.99999999999999));
#175 = CARTESIAN_POINT ('', (-64.8333333333334, 1.49999999999999, 5.99999999999998));
#176 = CARTESIAN_POINT ('', (-80.75, 1.49999999999998, 5.99999999999998));
#177 = CARTESIAN_POINT ('', (-33., -4.5, 2.99999999999999));
#178 = CARTESIAN_POINT ('', (-48.9166666666667, -4.49999999999999, 2.99999999999998));
#179 = CARTESIAN_POINT ('', (-64.8333333333334, -4.49999999999999, 2.99999999999998));
#180 = CARTESIAN_POINT ('', (-80.75, -4.49999999999999, 2.99999999999997));
#181 = CARTESIAN_POINT ('', (-33., -4.49999999999999, -3.));
#182 = CARTESIAN_POINT ('', (-48.9166666666667, -4.49999999999998, -3.00000000000001));
#183 = CARTESIAN_POINT ('', (-64.8333333333334, -4.49999999999998, -3.00000000000001));
#184 = CARTESIAN_POINT ('', (-80.75, -4.49999999999997, -3.00000000000001));
#185 = CARTESIAN_POINT ('', (-33., 1.50000000000001, -5.99999999999999));
#186 = CARTESIAN_POINT ('', (-48.9166666666667, 1.50000000000001, -5.99999999999999));
#187 = CARTESIAN_POINT ('', (-64.8333333333334, 1.50000000000001, -5.99999999999998));
#188 = CARTESIAN_POINT ('', (-80.75, 1.50000000000002, -5.99999999999998));
#189 = CARTESIAN_POINT ('', (-33., 1.5, -3.67394039744205E-16));
#190 = CARTESIAN_POINT ('', (-48.9166666666667, 1.5, -3.67394039744205E-16));
#191 = CARTESIAN_POINT ('', (-64.8333333333334, 1.5, -3.67394039744205E-16));
#192 = CARTESIAN_POINT ('', (-80.75, 1.5, -3.67394039744205E-16));
#193 = (
   BOUNDED_SURFACE ()
   B_SPLINE_SURFACE (5, 3, ((#169, #170, #171, #172), (#173, #174, #175, #176), (#177, #178, #179, #180), (#181, #182, #183, #184), (#185, #186, #187, #188), (#189, #190, #191, #192)), .UNSPECIFIED., .T., .F., .U.)
   B_SPLINE_SURFACE_WITH_KNOTS ((6, 6), (4, 4), (0., 1.), (0., 1.), .UNSPECIFIED.)
   SURFACE ()
   GEOMETRIC_REPRESENTATION_ITEM ()
   RATIONAL_B_SPLINE_SURFACE (((5., 5., 5., 5.), (1., 1., 1., 1.), (1., 1., 1., 1.), (1., 1., 1., 1.), (1., 1., 1., 1.), (5., 5., 5., 5.)))
   REPRESENTATION_ITEM ('')
);
#194 = ADVANCED_FACE ('', (#168), #193, .F.);
#195 = CARTESIAN_POINT ('', (-0.545955351399303, 1.5, -3.67394039744206E-16));
#196 = CARTESIAN_POINT ('', (-11.3639702342662, 1.5, -3.67394039744206E-16));
#197 = CARTESIAN_POINT ('', (-22.1819851171331, 1.5, -3.67394039744206E-16));
#198 = CARTESIAN_POINT ('', (-33., 1.5, -3.67394039744205E-16));
#199 = B_SPLINE_CURVE_WITH_KNOTS ('', 3, (#195, #196, #197, #198), .UNSPECIFIED., .F., .U., (4, 4), (0., 1.), .UNSPECIFIED.);
#200 = EDGE_CURVE ('', #4, #148, #199, .T.);
#201 = ORIENTED_EDGE ('', *, *, #200, .F.);
#202 = ORIENTED_EDGE ('', *, *, #20, .T.);
#203 = ORIENTED_EDGE ('', *, *, #200, .T.);
#204 = ORIENTED_EDGE ('', *, *, #163, .F.);
#205 = EDGE_LOOP ('', (#201, #202, #203, #204));
#206 = FACE_OUTER_BOUND ('', #205, .F.);
#207 = CARTESIAN_POINT ('', (-0.545955351399303, 1.5, -3.67394039744206E-16));
#208 = CARTESIAN_POINT ('', (-11.3639702342662, 1.5, -3.67394039744206E-16));
#209 = CARTESIAN_POINT ('', (-22.1819851171331, 1.5, -3.67394039744206E-16));
#210 = CARTESIAN_POINT ('', (-33., 1.5, -3.67394039744205E-16));
#211 = CARTESIAN_POINT ('', (-0.545955351399304, 1.5, 6.));
#212 = CARTESIAN_POINT ('', (-11.3639702342662, 1.5, 5.99999999999999));
#213 = CARTESIAN_POINT ('', (-22.1819851171331, 1.5, 5.99999999999999));
#214 = CARTESIAN_POINT ('', (-33., 1.49999999999999, 5.99999999999999));
#215 = CARTESIAN_POINT ('', (-0.545955351399304, -4.5, 3.));
#216 = CARTESIAN_POINT ('', (-11.3639702342662, -4.49999999999999, 2.99999999999999));
#217 = CARTESIAN_POINT ('', (-22.1819851171331, -4.5, 2.99999999999999));
#218 = CARTESIAN_POINT ('', (-33., -4.5, 2.99999999999999));
#219 = CARTESIAN_POINT ('', (-0.545955351399303, -4.5, -3.));
#220 = CARTESIAN_POINT ('', (-11.3639702342662, -4.49999999999999, -3.));
#221 = CARTESIAN_POINT ('', (-22.1819851171331, -4.49999999999999, -3.));
#222 = CARTESIAN_POINT ('', (-33., -4.49999999999999, -3.));
#223 = CARTESIAN_POINT ('', (-0.545955351399303, 1.5, -6.));
#224 = CARTESIAN_POINT ('', (-11.3639702342662, 1.5, -5.99999999999999));
#225 = CARTESIAN_POINT ('', (-22.1819851171331, 1.5, -5.99999999999999));
#226 = CARTESIAN_POINT ('', (-33., 1.50000000000001, -5.99999999999999));
#227 = CARTESIAN_POINT ('', (-0.545955351399303, 1.5, -3.67394039744206E-16));
#228 = CARTESIAN_POINT ('', (-11.3639702342662, 1.5, -3.67394039744206E-16));
#229 = CARTESIAN_POINT ('', (-22.1819851171331, 1.5, -3.67394039744206E-16));
#230 = CARTESIAN_POINT ('', (-33., 1.5, -3.67394039744205E-16));
#231 = (
   BOUNDED_SURFACE ()
   B_SPLINE_SURFACE (5, 3, ((#207, #208, #209, #210), (#211, #212, #213, #214), (#215, #216, #217, #218), (#219, #220, #221, #222), (#223, #224, #225, #226), (#227, #228, #229, #230)), .UNSPECIFIED., .T., .F., .U.)
   B_SPLINE_SURFACE_WITH_KNOTS ((6, 6), (4, 4), (0., 1.), (0., 1.), .UNSPECIFIED.)
   SURFACE ()
   GEOMETRIC_REPRESENTATION_ITEM ()
   RATIONAL_B_SPLINE_SURFACE (((5., 5., 5., 5.), (1., 1., 1., 1.), (1., 1., 1., 1.), (1., 1., 1., 1.), (1., 1., 1., 1.), (5., 5., 5., 5.)))
   REPRESENTATION_ITEM ('')
);
#232 = ADVANCED_FACE ('', (#206), #231, .F.);
#233 = CLOSED_SHELL ('', (#49, #107, #146, #194, #232));
#234 = MANIFOLD_SOLID_BREP ('', #233);
#235 = (
   LENGTH_UNIT ()
   NAMED_UNIT (*)
   SI_UNIT (.MILLI., .METRE.)
);
#236 = (
   NAMED_UNIT (*)
   SI_UNIT ($, .STERADIAN.)
   SOLID_ANGLE_UNIT ()
);
#237 = (
   NAMED_UNIT (*)
   SI_UNIT ($, .RADIAN.)
   PLANE_ANGLE_UNIT ()
);
#238 = UNCERTAINTY_MEASURE_WITH_UNIT (LENGTH_MEASURE(0.001), #235, 'DISTANCE_ACCURACY_VALUE', '');
#239 = (
   GEOMETRIC_REPRESENTATION_CONTEXT (3)
   GLOBAL_UNCERTAINTY_ASSIGNED_CONTEXT ((#238))
   GLOBAL_UNIT_ASSIGNED_CONTEXT ((#235, #236, #237))
   REPRESENTATION_CONTEXT ('', '3D')
);
#240 = SHAPE_REPRESENTATION ('', (), #239);
#241 = APPLICATION_CONTEXT ('configuration controlled 3D designs of mechanical parts and assemblies');
#242 = APPLICATION_PROTOCOL_DEFINITION ('International Standard', 'config_control_design', 1997, #241);
#243 = MECHANICAL_CONTEXT ('', #241, 'mechanical');
#244 = PRODUCT ('', '', '', (#243));
#245 = PERSON_AND_ORGANIZATION_ROLE ('design_owner');
#246 = PERSON ('', '', $, $, $, $);
#247 = ORGANIZATION ($, '', '');
#248 = PERSON_AND_ORGANIZATION (#246, #247);
#249 = CC_DESIGN_PERSON_AND_ORGANIZATION_ASSIGNMENT (#248, #245, (#244));
#250 = PRODUCT_RELATED_PRODUCT_CATEGORY ('detail', $, (#244));
#251 = PRODUCT_DEFINITION_FORMATION_WITH_SPECIFIED_SOURCE ('', '', #244, .NOT_KNOWN.);
#252 = APPROVAL_STATUS ('approved');
#253 = APPROVAL (#252, '');
#254 = CALENDAR_DATE (2021, 22, 3);
#255 = COORDINATED_UNIVERSAL_TIME_OFFSET (0, $, .AHEAD.);
#256 = LOCAL_TIME (14, 42, 7., #255);
#257 = DATE_AND_TIME (#254, #256);
#258 = APPROVAL_DATE_TIME (#257, #253);
#259 = APPROVAL_ROLE ('');
#260 = PERSON ('', '', $, $, $, $);
#261 = ORGANIZATION ($, '', '');
#262 = PERSON_AND_ORGANIZATION (#260, #261);
#263 = APPROVAL_PERSON_ORGANIZATION (#262, #253, #259);
#264 = CC_DESIGN_APPROVAL (#253, (#251));
#265 = PERSON_AND_ORGANIZATION_ROLE ('creator');
#266 = PERSON ('', '', $, $, $, $);
#267 = ORGANIZATION ($, '', '');
#268 = PERSON_AND_ORGANIZATION (#266, #267);
#269 = CC_DESIGN_PERSON_AND_ORGANIZATION_ASSIGNMENT (#268, #265, (#251));
#270 = PERSON_AND_ORGANIZATION_ROLE ('part_supplier');
#271 = PERSON ('', '', $, $, $, $);
#272 = ORGANIZATION ($, '', '');
#273 = PERSON_AND_ORGANIZATION (#271, #272);
#274 = CC_DESIGN_PERSON_AND_ORGANIZATION_ASSIGNMENT (#273, #270, (#251));
#275 = SECURITY_CLASSIFICATION_LEVEL ('unclassified');
#276 = SECURITY_CLASSIFICATION ('', '', #275);
#277 = APPROVAL_STATUS ('approved');
#278 = APPROVAL (#277, '');
#279 = CALENDAR_DATE (2021, 22, 3);
#280 = COORDINATED_UNIVERSAL_TIME_OFFSET (0, $, .AHEAD.);
#281 = LOCAL_TIME (14, 42, 7., #280);
#282 = DATE_AND_TIME (#279, #281);
#283 = APPROVAL_DATE_TIME (#282, #278);
#284 = APPROVAL_ROLE ('');
#285 = PERSON ('', '', $, $, $, $);
#286 = ORGANIZATION ($, '', '');
#287 = PERSON_AND_ORGANIZATION (#285, #286);
#288 = APPROVAL_PERSON_ORGANIZATION (#287, #278, #284);
#289 = CC_DESIGN_APPROVAL (#278, (#276));
#290 = DATE_TIME_ROLE ('classification_date');
#291 = CALENDAR_DATE (2021, 22, 3);
#292 = COORDINATED_UNIVERSAL_TIME_OFFSET (0, $, .AHEAD.);
#293 = LOCAL_TIME (14, 42, 7., #292);
#294 = DATE_AND_TIME (#291, #293);
#295 = CC_DESIGN_DATE_AND_TIME_ASSIGNMENT (#294, #290, (#276));
#296 = PERSON_AND_ORGANIZATION_ROLE ('classification_officer');
#297 = PERSON ('', '', $, $, $, $);
#298 = ORGANIZATION ($, '', '');
#299 = PERSON_AND_ORGANIZATION (#297, #298);
#300 = CC_DESIGN_PERSON_AND_ORGANIZATION_ASSIGNMENT (#299, #296, (#276));
#301 = CC_DESIGN_SECURITY_CLASSIFICATION (#276, (#251));
#302 = DESIGN_CONTEXT ('', #241, 'design');
#303 = PRODUCT_DEFINITION ('', '', #251, #302);
#304 = APPROVAL_STATUS ('approved');
#305 = APPROVAL (#304, '');
#306 = CALENDAR_DATE (2021, 22, 3);
#307 = COORDINATED_UNIVERSAL_TIME_OFFSET (0, $, .AHEAD.);
#308 = LOCAL_TIME (14, 42, 7., #307);
#309 = DATE_AND_TIME (#306, #308);
#310 = APPROVAL_DATE_TIME (#309, #305);
#311 = APPROVAL_ROLE ('');
#312 = PERSON ('', '', $, $, $, $);
#313 = ORGANIZATION ($, '', '');
#314 = PERSON_AND_ORGANIZATION (#312, #313);
#315 = APPROVAL_PERSON_ORGANIZATION (#314, #305, #311);
#316 = CC_DESIGN_APPROVAL (#305, (#303));
#317 = DATE_TIME_ROLE ('creation_date');
#318 = CALENDAR_DATE (2021, 22, 3);
#319 = COORDINATED_UNIVERSAL_TIME_OFFSET (0, $, .AHEAD.);
#320 = LOCAL_TIME (14, 42, 7., #319);
#321 = DATE_AND_TIME (#318, #320);
#322 = CC_DESIGN_DATE_AND_TIME_ASSIGNMENT (#321, #317, (#303));
#323 = PERSON_AND_ORGANIZATION_ROLE ('creator');
#324 = PERSON ('', '', $, $, $, $);
#325 = ORGANIZATION ($, '', '');
#326 = PERSON_AND_ORGANIZATION (#324, #325);
#327 = CC_DESIGN_PERSON_AND_ORGANIZATION_ASSIGNMENT (#326, #323, (#303));
#328 = PRODUCT_DEFINITION_SHAPE ('', '', #303);
#329 = SHAPE_DEFINITION_REPRESENTATION (#328, #240);
#330 = SHAPE_REPRESENTATION_RELATIONSHIP ('', '', #240, #331);
#331 = ADVANCED_BREP_SHAPE_REPRESENTATION ('', (#234), #239);
ENDSEC;
END-ISO-10303-21;
