ISO-10303-21;
HEADER;
FILE_DESCRIPTION ((), '1');
FILE_NAME ('C:\\Users\\kevin\\CXD, CLM & CL\\CXDCLM0520AP.STP', '2021-03-22T17:06:23', ('Unknown'), ('m.a.ford europe'), 'OneCNC-XR8 Mill 3D Expert', 'OneCNC-XR8 Mill 3D Expert', '');
FILE_SCHEMA (('CONFIG_CONTROL_DESIGN'));
ENDSEC;

DATA;
#1 = CARTESIAN_POINT ('', (-99.75, 3., -7.3478807948841E-16));
#2 = VERTEX_POINT ('', #1);
#3 = CARTESIAN_POINT ('', (-100., 2.75, -6.73555739531043E-16));
#4 = VERTEX_POINT ('', #3);
#5 = CARTESIAN_POINT ('', (-99.75, 3., -7.3478807948841E-16));
#6 = CARTESIAN_POINT ('', (-99.8333333333334, 2.91666666666667, -7.14377299502622E-16));
#7 = CARTESIAN_POINT ('', (-99.9166666666669, 2.83333333333333, -6.93966519516833E-16));
#8 = CARTESIAN_POINT ('', (-100., 2.75, -6.73555739531043E-16));
#9 = B_SPLINE_CURVE_WITH_KNOTS ('', 3, (#5, #6, #7, #8), .UNSPECIFIED., .F., .U., (4, 4), (0., 1.), .UNSPECIFIED.);
#10 = EDGE_CURVE ('', #2, #4, #9, .T.);
#11 = ORIENTED_EDGE ('', *, *, #10, .F.);
#12 = CARTESIAN_POINT ('', (-99.75, 3., -7.3478807948841E-16));
#13 = CARTESIAN_POINT ('', (-99.75, 2.99999999999998, 12.));
#14 = CARTESIAN_POINT ('', (-99.75, -8.99999999999999, 5.99999999999997));
#15 = CARTESIAN_POINT ('', (-99.75, -8.99999999999997, -6.00000000000001));
#16 = CARTESIAN_POINT ('', (-99.75, 3.00000000000002, -12.));
#17 = CARTESIAN_POINT ('', (-99.75, 3., -7.3478807948841E-16));
#18 = (
   BOUNDED_CURVE ()
   B_SPLINE_CURVE (5, (#12, #13, #14, #15, #16, #17), .UNSPECIFIED., .T., .U.)
   B_SPLINE_CURVE_WITH_KNOTS ((6, 6), (0., 1.), .UNSPECIFIED.)
   CURVE ()
   GEOMETRIC_REPRESENTATION_ITEM ()
   RATIONAL_B_SPLINE_CURVE ((5., 1., 1., 1., 1., 5.))
   REPRESENTATION_ITEM ('')
);
#19 = EDGE_CURVE ('', #2, #2, #18, .T.);
#20 = ORIENTED_EDGE ('', *, *, #19, .T.);
#21 = ORIENTED_EDGE ('', *, *, #10, .T.);
#22 = CARTESIAN_POINT ('', (-100., 2.75, -6.73555739531043E-16));
#23 = CARTESIAN_POINT ('', (-100., 2.74999999999998, 11.));
#24 = CARTESIAN_POINT ('', (-100., -8.24999999999999, 5.49999999999997));
#25 = CARTESIAN_POINT ('', (-100., -8.24999999999997, -5.50000000000001));
#26 = CARTESIAN_POINT ('', (-100., 2.75000000000002, -11.));
#27 = CARTESIAN_POINT ('', (-100., 2.75, -6.73555739531043E-16));
#28 = (
   BOUNDED_CURVE ()
   B_SPLINE_CURVE (5, (#22, #23, #24, #25, #26, #27), .UNSPECIFIED., .T., .U.)
   B_SPLINE_CURVE_WITH_KNOTS ((6, 6), (0., 1.), .UNSPECIFIED.)
   CURVE ()
   GEOMETRIC_REPRESENTATION_ITEM ()
   RATIONAL_B_SPLINE_CURVE ((5., 1., 1., 1., 1., 5.))
   REPRESENTATION_ITEM ('')
);
#29 = EDGE_CURVE ('', #4, #4, #28, .T.);
#30 = ORIENTED_EDGE ('', *, *, #29, .F.);
#31 = EDGE_LOOP ('', (#11, #20, #21, #30));
#32 = FACE_OUTER_BOUND ('', #31, .F.);
#33 = CARTESIAN_POINT ('', (-99.75, 3., -7.3478807948841E-16));
#34 = CARTESIAN_POINT ('', (-99.8333333333334, 2.91666666666667, -7.14377299502622E-16));
#35 = CARTESIAN_POINT ('', (-99.9166666666669, 2.83333333333333, -6.93966519516833E-16));
#36 = CARTESIAN_POINT ('', (-100., 2.75, -6.73555739531043E-16));
#37 = CARTESIAN_POINT ('', (-99.75, 2.99999999999998, 12.));
#38 = CARTESIAN_POINT ('', (-99.8333333333334, 2.91666666666664, 11.6666666666666));
#39 = CARTESIAN_POINT ('', (-99.9166666666669, 2.83333333333331, 11.3333333333333));
#40 = CARTESIAN_POINT ('', (-100., 2.74999999999998, 11.));
#41 = CARTESIAN_POINT ('', (-99.75, -8.99999999999999, 5.99999999999997));
#42 = CARTESIAN_POINT ('', (-99.8333333333334, -8.74999999999999, 5.8333333333333));
#43 = CARTESIAN_POINT ('', (-99.9166666666669, -8.49999999999998, 5.66666666666663));
#44 = CARTESIAN_POINT ('', (-100., -8.24999999999999, 5.49999999999997));
#45 = CARTESIAN_POINT ('', (-99.75, -8.99999999999997, -6.00000000000001));
#46 = CARTESIAN_POINT ('', (-99.8333333333334, -8.74999999999996, -5.83333333333334));
#47 = CARTESIAN_POINT ('', (-99.9166666666669, -8.49999999999996, -5.66666666666667));
#48 = CARTESIAN_POINT ('', (-100., -8.24999999999997, -5.50000000000001));
#49 = CARTESIAN_POINT ('', (-99.75, 3.00000000000002, -12.));
#50 = CARTESIAN_POINT ('', (-99.8333333333334, 2.91666666666669, -11.6666666666666));
#51 = CARTESIAN_POINT ('', (-99.9166666666669, 2.83333333333335, -11.3333333333333));
#52 = CARTESIAN_POINT ('', (-100., 2.75000000000002, -11.));
#53 = CARTESIAN_POINT ('', (-99.75, 3., -7.3478807948841E-16));
#54 = CARTESIAN_POINT ('', (-99.8333333333334, 2.91666666666667, -7.14377299502622E-16));
#55 = CARTESIAN_POINT ('', (-99.9166666666669, 2.83333333333333, -6.93966519516833E-16));
#56 = CARTESIAN_POINT ('', (-100., 2.75, -6.73555739531043E-16));
#57 = (
   BOUNDED_SURFACE ()
   B_SPLINE_SURFACE (5, 3, ((#33, #34, #35, #36), (#37, #38, #39, #40), (#41, #42, #43, #44), (#45, #46, #47, #48), (#49, #50, #51, #52), (#53, #54, #55, #56)), .UNSPECIFIED., .T., .F., .U.)
   B_SPLINE_SURFACE_WITH_KNOTS ((6, 6), (4, 4), (0., 1.), (0., 1.), .UNSPECIFIED.)
   SURFACE ()
   GEOMETRIC_REPRESENTATION_ITEM ()
   RATIONAL_B_SPLINE_SURFACE (((5., 5., 5., 5.), (1., 1., 1., 1.), (1., 1., 1., 1.), (1., 1., 1., 1.), (1., 1., 1., 1.), (5., 5., 5., 5.)))
   REPRESENTATION_ITEM ('')
);
#58 = ADVANCED_FACE ('', (#32), #57, .F.);
#59 = CARTESIAN_POINT ('', (-100., 6.12323399573677E-15, -6.12323399573677E-15));
#60 = VERTEX_POINT ('', #59);
#61 = CARTESIAN_POINT ('', (-100., 2.75, -6.73555739531043E-16));
#62 = CARTESIAN_POINT ('', (-99.9999999999999, 1.83333333333333, -4.49037159687361E-16));
#63 = CARTESIAN_POINT ('', (-100., 0.916666666666666, -2.2451857984368E-16));
#64 = CARTESIAN_POINT ('', (-100., 6.12323399573677E-15, -6.12323399573677E-15));
#65 = B_SPLINE_CURVE_WITH_KNOTS ('', 3, (#61, #62, #63, #64), .UNSPECIFIED., .F., .U., (4, 4), (0., 1.), .UNSPECIFIED.);
#66 = EDGE_CURVE ('', #4, #60, #65, .T.);
#67 = ORIENTED_EDGE ('', *, *, #66, .F.);
#68 = ORIENTED_EDGE ('', *, *, #29, .T.);
#69 = ORIENTED_EDGE ('', *, *, #66, .T.);
#70 = EDGE_LOOP ('', (#67, #68, #69));
#71 = FACE_OUTER_BOUND ('', #70, .F.);
#72 = CARTESIAN_POINT ('', (-100., 2.75, -6.73555739531043E-16));
#73 = CARTESIAN_POINT ('', (-99.9999999999999, 1.83333333333333, -4.49037159687361E-16));
#74 = CARTESIAN_POINT ('', (-100., 0.916666666666666, -2.2451857984368E-16));
#75 = CARTESIAN_POINT ('', (-100., 6.12323399573677E-15, -6.12323399573677E-15));
#76 = CARTESIAN_POINT ('', (-100., 2.74999999999998, 11.));
#77 = CARTESIAN_POINT ('', (-99.9999999999999, 1.83333333333331, 7.3333333333333));
#78 = CARTESIAN_POINT ('', (-100., 0.916666666666643, 3.66666666666664));
#79 = CARTESIAN_POINT ('', (-100., 6.12323399573677E-15, -6.12323399573677E-15));
#80 = CARTESIAN_POINT ('', (-100., -8.24999999999999, 5.49999999999997));
#81 = CARTESIAN_POINT ('', (-99.9999999999999, -5.49999999999998, 3.66666666666663));
#82 = CARTESIAN_POINT ('', (-100., -2.74999999999999, 1.8333333333333));
#83 = CARTESIAN_POINT ('', (-100., 6.12323399573677E-15, -6.12323399573677E-15));
#84 = CARTESIAN_POINT ('', (-100., -8.24999999999997, -5.50000000000001));
#85 = CARTESIAN_POINT ('', (-99.9999999999999, -5.49999999999995, -3.66666666666667));
#86 = CARTESIAN_POINT ('', (-100., -2.74999999999996, -1.83333333333334));
#87 = CARTESIAN_POINT ('', (-100., 6.12323399573677E-15, -6.12323399573677E-15));
#88 = CARTESIAN_POINT ('', (-100., 2.75000000000002, -11.));
#89 = CARTESIAN_POINT ('', (-99.9999999999999, 1.83333333333335, -7.3333333333333));
#90 = CARTESIAN_POINT ('', (-100., 0.91666666666669, -3.66666666666664));
#91 = CARTESIAN_POINT ('', (-100., 6.12323399573677E-15, -6.12323399573677E-15));
#92 = CARTESIAN_POINT ('', (-100., 2.75, -6.73555739531043E-16));
#93 = CARTESIAN_POINT ('', (-99.9999999999999, 1.83333333333333, -4.49037159687361E-16));
#94 = CARTESIAN_POINT ('', (-100., 0.916666666666666, -2.2451857984368E-16));
#95 = CARTESIAN_POINT ('', (-100., 6.12323399573677E-15, -6.12323399573677E-15));
#96 = (
   BOUNDED_SURFACE ()
   B_SPLINE_SURFACE (5, 3, ((#72, #73, #74, #75), (#76, #77, #78, #79), (#80, #81, #82, #83), (#84, #85, #86, #87), (#88, #89, #90, #91), (#92, #93, #94, #95)), .UNSPECIFIED., .T., .F., .U.)
   B_SPLINE_SURFACE_WITH_KNOTS ((6, 6), (4, 4), (0., 1.), (0., 1.), .UNSPECIFIED.)
   SURFACE ()
   GEOMETRIC_REPRESENTATION_ITEM ()
   RATIONAL_B_SPLINE_SURFACE (((5., 5., 5., 5.), (1., 1., 1., 1.), (1., 1., 1., 1.), (1., 1., 1., 1.), (1., 1., 1., 1.), (5., 5., 5., 5.)))
   REPRESENTATION_ITEM ('')
);
#97 = ADVANCED_FACE ('', (#71), #96, .F.);
#98 = CARTESIAN_POINT ('', (-57., 3., -7.34788079488411E-16));
#99 = VERTEX_POINT ('', #98);
#100 = CARTESIAN_POINT ('', (-57., 3., -7.34788079488411E-16));
#101 = CARTESIAN_POINT ('', (-71.25, 3., -7.34788079488411E-16));
#102 = CARTESIAN_POINT ('', (-85.5, 3., -7.34788079488411E-16));
#103 = CARTESIAN_POINT ('', (-99.75, 3., -7.3478807948841E-16));
#104 = B_SPLINE_CURVE_WITH_KNOTS ('', 3, (#100, #101, #102, #103), .UNSPECIFIED., .F., .U., (4, 4), (0., 1.), .UNSPECIFIED.);
#105 = EDGE_CURVE ('', #99, #2, #104, .T.);
#106 = ORIENTED_EDGE ('', *, *, #105, .F.);
#107 = CARTESIAN_POINT ('', (-57., 3., -7.34788079488411E-16));
#108 = CARTESIAN_POINT ('', (-57., 2.99999999999999, 12.));
#109 = CARTESIAN_POINT ('', (-57., -8.99999999999999, 5.99999999999998));
#110 = CARTESIAN_POINT ('', (-57., -8.99999999999998, -6.));
#111 = CARTESIAN_POINT ('', (-57., 3.00000000000001, -12.));
#112 = CARTESIAN_POINT ('', (-57., 3., -7.34788079488411E-16));
#113 = (
   BOUNDED_CURVE ()
   B_SPLINE_CURVE (5, (#107, #108, #109, #110, #111, #112), .UNSPECIFIED., .T., .U.)
   B_SPLINE_CURVE_WITH_KNOTS ((6, 6), (0., 1.), .UNSPECIFIED.)
   CURVE ()
   GEOMETRIC_REPRESENTATION_ITEM ()
   RATIONAL_B_SPLINE_CURVE ((5., 1., 1., 1., 1., 5.))
   REPRESENTATION_ITEM ('')
);
#114 = EDGE_CURVE ('', #99, #99, #113, .T.);
#115 = ORIENTED_EDGE ('', *, *, #114, .T.);
#116 = ORIENTED_EDGE ('', *, *, #105, .T.);
#117 = ORIENTED_EDGE ('', *, *, #19, .F.);
#118 = EDGE_LOOP ('', (#106, #115, #116, #117));
#119 = FACE_OUTER_BOUND ('', #118, .F.);
#120 = CARTESIAN_POINT ('', (-57., 3., -7.34788079488411E-16));
#121 = CARTESIAN_POINT ('', (-71.25, 3., -7.34788079488411E-16));
#122 = CARTESIAN_POINT ('', (-85.5, 3., -7.34788079488411E-16));
#123 = CARTESIAN_POINT ('', (-99.75, 3., -7.3478807948841E-16));
#124 = CARTESIAN_POINT ('', (-57., 2.99999999999999, 12.));
#125 = CARTESIAN_POINT ('', (-71.25, 2.99999999999998, 12.));
#126 = CARTESIAN_POINT ('', (-85.5, 2.99999999999998, 12.));
#127 = CARTESIAN_POINT ('', (-99.75, 2.99999999999998, 12.));
#128 = CARTESIAN_POINT ('', (-57., -8.99999999999999, 5.99999999999998));
#129 = CARTESIAN_POINT ('', (-71.25, -8.99999999999999, 5.99999999999997));
#130 = CARTESIAN_POINT ('', (-85.5, -8.99999999999999, 5.99999999999997));
#131 = CARTESIAN_POINT ('', (-99.75, -8.99999999999999, 5.99999999999997));
#132 = CARTESIAN_POINT ('', (-57., -8.99999999999998, -6.));
#133 = CARTESIAN_POINT ('', (-71.25, -8.99999999999997, -6.));
#134 = CARTESIAN_POINT ('', (-85.5, -8.99999999999997, -6.00000000000001));
#135 = CARTESIAN_POINT ('', (-99.75, -8.99999999999997, -6.00000000000001));
#136 = CARTESIAN_POINT ('', (-57., 3.00000000000001, -12.));
#137 = CARTESIAN_POINT ('', (-71.25, 3.00000000000001, -12.));
#138 = CARTESIAN_POINT ('', (-85.5, 3.00000000000002, -12.));
#139 = CARTESIAN_POINT ('', (-99.75, 3.00000000000002, -12.));
#140 = CARTESIAN_POINT ('', (-57., 3., -7.34788079488411E-16));
#141 = CARTESIAN_POINT ('', (-71.25, 3., -7.34788079488411E-16));
#142 = CARTESIAN_POINT ('', (-85.5, 3., -7.34788079488411E-16));
#143 = CARTESIAN_POINT ('', (-99.75, 3., -7.3478807948841E-16));
#144 = (
   BOUNDED_SURFACE ()
   B_SPLINE_SURFACE (5, 3, ((#120, #121, #122, #123), (#124, #125, #126, #127), (#128, #129, #130, #131), (#132, #133, #134, #135), (#136, #137, #138, #139), (#140, #141, #142, #143)), .UNSPECIFIED., .T., .F., .U.)
   B_SPLINE_SURFACE_WITH_KNOTS ((6, 6), (4, 4), (0., 1.), (0., 1.), .UNSPECIFIED.)
   SURFACE ()
   GEOMETRIC_REPRESENTATION_ITEM ()
   RATIONAL_B_SPLINE_SURFACE (((5., 5., 5., 5.), (1., 1., 1., 1.), (1., 1., 1., 1.), (1., 1., 1., 1.), (1., 1., 1., 1.), (5., 5., 5., 5.)))
   REPRESENTATION_ITEM ('')
);
#145 = ADVANCED_FACE ('', (#119), #144, .F.);
#146 = CARTESIAN_POINT ('', (-57., 2.6, -6.36816335556623E-16));
#147 = VERTEX_POINT ('', #146);
#148 = CARTESIAN_POINT ('', (-57., 2.6, -6.36816335556623E-16));
#149 = CARTESIAN_POINT ('', (-57., 2.73333333333334, -6.69473583533889E-16));
#150 = CARTESIAN_POINT ('', (-57., 2.86666666666666, -7.02130831511147E-16));
#151 = CARTESIAN_POINT ('', (-57., 3., -7.34788079488411E-16));
#152 = B_SPLINE_CURVE_WITH_KNOTS ('', 3, (#148, #149, #150, #151), .UNSPECIFIED., .F., .U., (4, 4), (0., 1.), .UNSPECIFIED.);
#153 = EDGE_CURVE ('', #147, #99, #152, .T.);
#154 = ORIENTED_EDGE ('', *, *, #153, .F.);
#155 = CARTESIAN_POINT ('', (-57., 2.6, -6.36816335556623E-16));
#156 = CARTESIAN_POINT ('', (-57., 2.59999999999999, 10.4));
#157 = CARTESIAN_POINT ('', (-57., -7.79999999999999, 5.19999999999998));
#158 = CARTESIAN_POINT ('', (-57., -7.79999999999998, -5.20000000000001));
#159 = CARTESIAN_POINT ('', (-57., 2.60000000000001, -10.4));
#160 = CARTESIAN_POINT ('', (-57., 2.6, -6.36816335556623E-16));
#161 = (
   BOUNDED_CURVE ()
   B_SPLINE_CURVE (5, (#155, #156, #157, #158, #159, #160), .UNSPECIFIED., .T., .U.)
   B_SPLINE_CURVE_WITH_KNOTS ((6, 6), (0., 1.), .UNSPECIFIED.)
   CURVE ()
   GEOMETRIC_REPRESENTATION_ITEM ()
   RATIONAL_B_SPLINE_CURVE ((5., 1., 1., 1., 1., 5.))
   REPRESENTATION_ITEM ('')
);
#162 = EDGE_CURVE ('', #147, #147, #161, .T.);
#163 = ORIENTED_EDGE ('', *, *, #162, .T.);
#164 = ORIENTED_EDGE ('', *, *, #153, .T.);
#165 = ORIENTED_EDGE ('', *, *, #114, .F.);
#166 = EDGE_LOOP ('', (#154, #163, #164, #165));
#167 = FACE_OUTER_BOUND ('', #166, .F.);
#168 = CARTESIAN_POINT ('', (-57., 2.6, -6.36816335556623E-16));
#169 = CARTESIAN_POINT ('', (-57., 2.73333333333334, -6.69473583533889E-16));
#170 = CARTESIAN_POINT ('', (-57., 2.86666666666666, -7.02130831511147E-16));
#171 = CARTESIAN_POINT ('', (-57., 3., -7.34788079488411E-16));
#172 = CARTESIAN_POINT ('', (-57., 2.59999999999999, 10.4));
#173 = CARTESIAN_POINT ('', (-57., 2.73333333333333, 10.9333333333334));
#174 = CARTESIAN_POINT ('', (-57., 2.86666666666665, 11.4666666666666));
#175 = CARTESIAN_POINT ('', (-57., 2.99999999999999, 12.));
#176 = CARTESIAN_POINT ('', (-57., -7.79999999999999, 5.19999999999998));
#177 = CARTESIAN_POINT ('', (-57., -8.20000000000002, 5.46666666666666));
#178 = CARTESIAN_POINT ('', (-57., -8.59999999999998, 5.73333333333331));
#179 = CARTESIAN_POINT ('', (-57., -8.99999999999999, 5.99999999999998));
#180 = CARTESIAN_POINT ('', (-57., -7.79999999999998, -5.20000000000001));
#181 = CARTESIAN_POINT ('', (-57., -8.2, -5.46666666666669));
#182 = CARTESIAN_POINT ('', (-57., -8.59999999999997, -5.73333333333333));
#183 = CARTESIAN_POINT ('', (-57., -8.99999999999998, -6.));
#184 = CARTESIAN_POINT ('', (-57., 2.60000000000001, -10.4));
#185 = CARTESIAN_POINT ('', (-57., 2.73333333333335, -10.9333333333334));
#186 = CARTESIAN_POINT ('', (-57., 2.86666666666667, -11.4666666666666));
#187 = CARTESIAN_POINT ('', (-57., 3.00000000000001, -12.));
#188 = CARTESIAN_POINT ('', (-57., 2.6, -6.36816335556623E-16));
#189 = CARTESIAN_POINT ('', (-57., 2.73333333333334, -6.69473583533889E-16));
#190 = CARTESIAN_POINT ('', (-57., 2.86666666666666, -7.02130831511147E-16));
#191 = CARTESIAN_POINT ('', (-57., 3., -7.34788079488411E-16));
#192 = (
   BOUNDED_SURFACE ()
   B_SPLINE_SURFACE (5, 3, ((#168, #169, #170, #171), (#172, #173, #174, #175), (#176, #177, #178, #179), (#180, #181, #182, #183), (#184, #185, #186, #187), (#188, #189, #190, #191)), .UNSPECIFIED., .T., .F., .U.)
   B_SPLINE_SURFACE_WITH_KNOTS ((6, 6), (4, 4), (0., 1.), (0., 1.), .UNSPECIFIED.)
   SURFACE ()
   GEOMETRIC_REPRESENTATION_ITEM ()
   RATIONAL_B_SPLINE_SURFACE (((5., 5., 5., 5.), (1., 1., 1., 1.), (1., 1., 1., 1.), (1., 1., 1., 1.), (1., 1., 1., 1.), (5., 5., 5., 5.)))
   REPRESENTATION_ITEM ('')
);
#193 = ADVANCED_FACE ('', (#167), #192, .F.);
#194 = CARTESIAN_POINT ('', (-0.946322609092126, 2.6, -6.36816335556624E-16));
#195 = VERTEX_POINT ('', #194);
#196 = CARTESIAN_POINT ('', (-0.946322609092126, 2.6, -6.36816335556624E-16));
#197 = CARTESIAN_POINT ('', (-19.6308817393947, 2.59999999999999, -6.36816335556621E-16));
#198 = CARTESIAN_POINT ('', (-38.3154408696973, 2.6, -6.36816335556623E-16));
#199 = CARTESIAN_POINT ('', (-57., 2.6, -6.36816335556623E-16));
#200 = B_SPLINE_CURVE_WITH_KNOTS ('', 3, (#196, #197, #198, #199), .UNSPECIFIED., .F., .U., (4, 4), (0., 1.), .UNSPECIFIED.);
#201 = EDGE_CURVE ('', #195, #147, #200, .T.);
#202 = ORIENTED_EDGE ('', *, *, #201, .F.);
#203 = CARTESIAN_POINT ('', (-0.946322609092126, 2.6, -6.36816335556624E-16));
#204 = CARTESIAN_POINT ('', (-0.946322609092126, 2.6, 10.4));
#205 = CARTESIAN_POINT ('', (-0.946322609092127, -7.8, 5.2));
#206 = CARTESIAN_POINT ('', (-0.946322609092126, -7.8, -5.2));
#207 = CARTESIAN_POINT ('', (-0.946322609092125, 2.6, -10.4));
#208 = CARTESIAN_POINT ('', (-0.946322609092126, 2.6, -6.36816335556624E-16));
#209 = (
   BOUNDED_CURVE ()
   B_SPLINE_CURVE (5, (#203, #204, #205, #206, #207, #208), .UNSPECIFIED., .T., .U.)
   B_SPLINE_CURVE_WITH_KNOTS ((6, 6), (0., 1.), .UNSPECIFIED.)
   CURVE ()
   GEOMETRIC_REPRESENTATION_ITEM ()
   RATIONAL_B_SPLINE_CURVE ((5., 1., 1., 1., 1., 5.))
   REPRESENTATION_ITEM ('')
);
#210 = EDGE_CURVE ('', #195, #195, #209, .T.);
#211 = ORIENTED_EDGE ('', *, *, #210, .T.);
#212 = ORIENTED_EDGE ('', *, *, #201, .T.);
#213 = ORIENTED_EDGE ('', *, *, #162, .F.);
#214 = EDGE_LOOP ('', (#202, #211, #212, #213));
#215 = FACE_OUTER_BOUND ('', #214, .F.);
#216 = CARTESIAN_POINT ('', (-0.946322609092126, 2.6, -6.36816335556624E-16));
#217 = CARTESIAN_POINT ('', (-19.6308817393947, 2.59999999999999, -6.36816335556621E-16));
#218 = CARTESIAN_POINT ('', (-38.3154408696973, 2.6, -6.36816335556623E-16));
#219 = CARTESIAN_POINT ('', (-57., 2.6, -6.36816335556623E-16));
#220 = CARTESIAN_POINT ('', (-0.946322609092126, 2.6, 10.4));
#221 = CARTESIAN_POINT ('', (-19.6308817393947, 2.59999999999999, 10.4));
#222 = CARTESIAN_POINT ('', (-38.3154408696973, 2.59999999999999, 10.4));
#223 = CARTESIAN_POINT ('', (-57., 2.59999999999999, 10.4));
#224 = CARTESIAN_POINT ('', (-0.946322609092127, -7.8, 5.2));
#225 = CARTESIAN_POINT ('', (-19.6308817393947, -7.79999999999997, 5.19999999999998));
#226 = CARTESIAN_POINT ('', (-38.3154408696973, -7.8, 5.19999999999999));
#227 = CARTESIAN_POINT ('', (-57., -7.79999999999999, 5.19999999999998));
#228 = CARTESIAN_POINT ('', (-0.946322609092126, -7.8, -5.2));
#229 = CARTESIAN_POINT ('', (-19.6308817393947, -7.79999999999997, -5.19999999999999));
#230 = CARTESIAN_POINT ('', (-38.3154408696973, -7.79999999999999, -5.20000000000001));
#231 = CARTESIAN_POINT ('', (-57., -7.79999999999998, -5.20000000000001));
#232 = CARTESIAN_POINT ('', (-0.946322609092125, 2.6, -10.4));
#233 = CARTESIAN_POINT ('', (-19.6308817393947, 2.6, -10.4));
#234 = CARTESIAN_POINT ('', (-38.3154408696973, 2.60000000000001, -10.4));
#235 = CARTESIAN_POINT ('', (-57., 2.60000000000001, -10.4));
#236 = CARTESIAN_POINT ('', (-0.946322609092126, 2.6, -6.36816335556624E-16));
#237 = CARTESIAN_POINT ('', (-19.6308817393947, 2.59999999999999, -6.36816335556621E-16));
#238 = CARTESIAN_POINT ('', (-38.3154408696973, 2.6, -6.36816335556623E-16));
#239 = CARTESIAN_POINT ('', (-57., 2.6, -6.36816335556623E-16));
#240 = (
   BOUNDED_SURFACE ()
   B_SPLINE_SURFACE (5, 3, ((#216, #217, #218, #219), (#220, #221, #222, #223), (#224, #225, #226, #227), (#228, #229, #230, #231), (#232, #233, #234, #235), (#236, #237, #238, #239)), .UNSPECIFIED., .T., .F., .U.)
   B_SPLINE_SURFACE_WITH_KNOTS ((6, 6), (4, 4), (0., 1.), (0., 1.), .UNSPECIFIED.)
   SURFACE ()
   GEOMETRIC_REPRESENTATION_ITEM ()
   RATIONAL_B_SPLINE_SURFACE (((5., 5., 5., 5.), (1., 1., 1., 1.), (1., 1., 1., 1.), (1., 1., 1., 1.), (1., 1., 1., 1.), (5., 5., 5., 5.)))
   REPRESENTATION_ITEM ('')
);
#241 = ADVANCED_FACE ('', (#215), #240, .F.);
#242 = CARTESIAN_POINT ('', (0., 0., 0.));
#243 = VERTEX_POINT ('', #242);
#244 = CARTESIAN_POINT ('', (0., 0., 0.));
#245 = CARTESIAN_POINT ('', (-0.315440869697375, 0.866666666666667, -2.12272111852208E-16));
#246 = CARTESIAN_POINT ('', (-0.63088173939475, 1.73333333333334, -4.24544223704418E-16));
#247 = CARTESIAN_POINT ('', (-0.946322609092126, 2.6, -6.36816335556624E-16));
#248 = B_SPLINE_CURVE_WITH_KNOTS ('', 3, (#244, #245, #246, #247), .UNSPECIFIED., .F., .U., (4, 4), (0., 1.), .UNSPECIFIED.);
#249 = EDGE_CURVE ('', #243, #195, #248, .T.);
#250 = ORIENTED_EDGE ('', *, *, #249, .F.);
#251 = ORIENTED_EDGE ('', *, *, #249, .T.);
#252 = ORIENTED_EDGE ('', *, *, #210, .F.);
#253 = EDGE_LOOP ('', (#250, #251, #252));
#254 = FACE_OUTER_BOUND ('', #253, .F.);
#255 = CARTESIAN_POINT ('', (0., 0., 0.));
#256 = CARTESIAN_POINT ('', (-0.315440869697375, 0.866666666666667, -2.12272111852208E-16));
#257 = CARTESIAN_POINT ('', (-0.63088173939475, 1.73333333333334, -4.24544223704418E-16));
#258 = CARTESIAN_POINT ('', (-0.946322609092126, 2.6, -6.36816335556624E-16));
#259 = CARTESIAN_POINT ('', (0., 0., 0.));
#260 = CARTESIAN_POINT ('', (-0.315440869697375, 0.866666666666668, 3.46666666666667));
#261 = CARTESIAN_POINT ('', (-0.630881739394751, 1.73333333333334, 6.93333333333337));
#262 = CARTESIAN_POINT ('', (-0.946322609092126, 2.6, 10.4));
#263 = CARTESIAN_POINT ('', (0., 0., 0.));
#264 = CARTESIAN_POINT ('', (-0.315440869697376, -2.6, 1.73333333333333));
#265 = CARTESIAN_POINT ('', (-0.630881739394751, -5.20000000000003, 3.46666666666669));
#266 = CARTESIAN_POINT ('', (-0.946322609092127, -7.8, 5.2));
#267 = CARTESIAN_POINT ('', (0., 0., 0.));
#268 = CARTESIAN_POINT ('', (-0.315440869697375, -2.6, -1.73333333333333));
#269 = CARTESIAN_POINT ('', (-0.630881739394751, -5.20000000000003, -3.46666666666668));
#270 = CARTESIAN_POINT ('', (-0.946322609092126, -7.8, -5.2));
#271 = CARTESIAN_POINT ('', (0., 0., 0.));
#272 = CARTESIAN_POINT ('', (-0.315440869697375, 0.866666666666666, -3.46666666666667));
#273 = CARTESIAN_POINT ('', (-0.63088173939475, 1.73333333333334, -6.93333333333337));
#274 = CARTESIAN_POINT ('', (-0.946322609092125, 2.6, -10.4));
#275 = CARTESIAN_POINT ('', (0., 0., 0.));
#276 = CARTESIAN_POINT ('', (-0.315440869697375, 0.866666666666667, -2.12272111852208E-16));
#277 = CARTESIAN_POINT ('', (-0.63088173939475, 1.73333333333334, -4.24544223704418E-16));
#278 = CARTESIAN_POINT ('', (-0.946322609092126, 2.6, -6.36816335556624E-16));
#279 = (
   BOUNDED_SURFACE ()
   B_SPLINE_SURFACE (5, 3, ((#255, #256, #257, #258), (#259, #260, #261, #262), (#263, #264, #265, #266), (#267, #268, #269, #270), (#271, #272, #273, #274), (#275, #276, #277, #278)), .UNSPECIFIED., .T., .F., .U.)
   B_SPLINE_SURFACE_WITH_KNOTS ((6, 6), (4, 4), (0., 1.), (0., 1.), .UNSPECIFIED.)
   SURFACE ()
   GEOMETRIC_REPRESENTATION_ITEM ()
   RATIONAL_B_SPLINE_SURFACE (((5., 5., 5., 5.), (1., 1., 1., 1.), (1., 1., 1., 1.), (1., 1., 1., 1.), (1., 1., 1., 1.), (5., 5., 5., 5.)))
   REPRESENTATION_ITEM ('')
);
#280 = ADVANCED_FACE ('', (#254), #279, .F.);
#281 = CLOSED_SHELL ('', (#58, #97, #145, #193, #241, #280));
#282 = MANIFOLD_SOLID_BREP ('', #281);
#283 = (
   LENGTH_UNIT ()
   NAMED_UNIT (*)
   SI_UNIT (.MILLI., .METRE.)
);
#284 = (
   NAMED_UNIT (*)
   SI_UNIT ($, .STERADIAN.)
   SOLID_ANGLE_UNIT ()
);
#285 = (
   NAMED_UNIT (*)
   SI_UNIT ($, .RADIAN.)
   PLANE_ANGLE_UNIT ()
);
#286 = UNCERTAINTY_MEASURE_WITH_UNIT (LENGTH_MEASURE(0.001), #283, 'DISTANCE_ACCURACY_VALUE', '');
#287 = (
   GEOMETRIC_REPRESENTATION_CONTEXT (3)
   GLOBAL_UNCERTAINTY_ASSIGNED_CONTEXT ((#286))
   GLOBAL_UNIT_ASSIGNED_CONTEXT ((#283, #284, #285))
   REPRESENTATION_CONTEXT ('', '3D')
);
#288 = SHAPE_REPRESENTATION ('', (), #287);
#289 = APPLICATION_CONTEXT ('configuration controlled 3D designs of mechanical parts and assemblies');
#290 = APPLICATION_PROTOCOL_DEFINITION ('International Standard', 'config_control_design', 1997, #289);
#291 = MECHANICAL_CONTEXT ('', #289, 'mechanical');
#292 = PRODUCT ('', '', '', (#291));
#293 = PERSON_AND_ORGANIZATION_ROLE ('design_owner');
#294 = PERSON ('', '', $, $, $, $);
#295 = ORGANIZATION ($, '', '');
#296 = PERSON_AND_ORGANIZATION (#294, #295);
#297 = CC_DESIGN_PERSON_AND_ORGANIZATION_ASSIGNMENT (#296, #293, (#292));
#298 = PRODUCT_RELATED_PRODUCT_CATEGORY ('detail', $, (#292));
#299 = PRODUCT_DEFINITION_FORMATION_WITH_SPECIFIED_SOURCE ('', '', #292, .NOT_KNOWN.);
#300 = APPROVAL_STATUS ('approved');
#301 = APPROVAL (#300, '');
#302 = CALENDAR_DATE (2021, 22, 3);
#303 = COORDINATED_UNIVERSAL_TIME_OFFSET (0, $, .AHEAD.);
#304 = LOCAL_TIME (17, 6, 23., #303);
#305 = DATE_AND_TIME (#302, #304);
#306 = APPROVAL_DATE_TIME (#305, #301);
#307 = APPROVAL_ROLE ('');
#308 = PERSON ('', '', $, $, $, $);
#309 = ORGANIZATION ($, '', '');
#310 = PERSON_AND_ORGANIZATION (#308, #309);
#311 = APPROVAL_PERSON_ORGANIZATION (#310, #301, #307);
#312 = CC_DESIGN_APPROVAL (#301, (#299));
#313 = PERSON_AND_ORGANIZATION_ROLE ('creator');
#314 = PERSON ('', '', $, $, $, $);
#315 = ORGANIZATION ($, '', '');
#316 = PERSON_AND_ORGANIZATION (#314, #315);
#317 = CC_DESIGN_PERSON_AND_ORGANIZATION_ASSIGNMENT (#316, #313, (#299));
#318 = PERSON_AND_ORGANIZATION_ROLE ('part_supplier');
#319 = PERSON ('', '', $, $, $, $);
#320 = ORGANIZATION ($, '', '');
#321 = PERSON_AND_ORGANIZATION (#319, #320);
#322 = CC_DESIGN_PERSON_AND_ORGANIZATION_ASSIGNMENT (#321, #318, (#299));
#323 = SECURITY_CLASSIFICATION_LEVEL ('unclassified');
#324 = SECURITY_CLASSIFICATION ('', '', #323);
#325 = APPROVAL_STATUS ('approved');
#326 = APPROVAL (#325, '');
#327 = CALENDAR_DATE (2021, 22, 3);
#328 = COORDINATED_UNIVERSAL_TIME_OFFSET (0, $, .AHEAD.);
#329 = LOCAL_TIME (17, 6, 23., #328);
#330 = DATE_AND_TIME (#327, #329);
#331 = APPROVAL_DATE_TIME (#330, #326);
#332 = APPROVAL_ROLE ('');
#333 = PERSON ('', '', $, $, $, $);
#334 = ORGANIZATION ($, '', '');
#335 = PERSON_AND_ORGANIZATION (#333, #334);
#336 = APPROVAL_PERSON_ORGANIZATION (#335, #326, #332);
#337 = CC_DESIGN_APPROVAL (#326, (#324));
#338 = DATE_TIME_ROLE ('classification_date');
#339 = CALENDAR_DATE (2021, 22, 3);
#340 = COORDINATED_UNIVERSAL_TIME_OFFSET (0, $, .AHEAD.);
#341 = LOCAL_TIME (17, 6, 23., #340);
#342 = DATE_AND_TIME (#339, #341);
#343 = CC_DESIGN_DATE_AND_TIME_ASSIGNMENT (#342, #338, (#324));
#344 = PERSON_AND_ORGANIZATION_ROLE ('classification_officer');
#345 = PERSON ('', '', $, $, $, $);
#346 = ORGANIZATION ($, '', '');
#347 = PERSON_AND_ORGANIZATION (#345, #346);
#348 = CC_DESIGN_PERSON_AND_ORGANIZATION_ASSIGNMENT (#347, #344, (#324));
#349 = CC_DESIGN_SECURITY_CLASSIFICATION (#324, (#299));
#350 = DESIGN_CONTEXT ('', #289, 'design');
#351 = PRODUCT_DEFINITION ('', '', #299, #350);
#352 = APPROVAL_STATUS ('approved');
#353 = APPROVAL (#352, '');
#354 = CALENDAR_DATE (2021, 22, 3);
#355 = COORDINATED_UNIVERSAL_TIME_OFFSET (0, $, .AHEAD.);
#356 = LOCAL_TIME (17, 6, 23., #355);
#357 = DATE_AND_TIME (#354, #356);
#358 = APPROVAL_DATE_TIME (#357, #353);
#359 = APPROVAL_ROLE ('');
#360 = PERSON ('', '', $, $, $, $);
#361 = ORGANIZATION ($, '', '');
#362 = PERSON_AND_ORGANIZATION (#360, #361);
#363 = APPROVAL_PERSON_ORGANIZATION (#362, #353, #359);
#364 = CC_DESIGN_APPROVAL (#353, (#351));
#365 = DATE_TIME_ROLE ('creation_date');
#366 = CALENDAR_DATE (2021, 22, 3);
#367 = COORDINATED_UNIVERSAL_TIME_OFFSET (0, $, .AHEAD.);
#368 = LOCAL_TIME (17, 6, 23., #367);
#369 = DATE_AND_TIME (#366, #368);
#370 = CC_DESIGN_DATE_AND_TIME_ASSIGNMENT (#369, #365, (#351));
#371 = PERSON_AND_ORGANIZATION_ROLE ('creator');
#372 = PERSON ('', '', $, $, $, $);
#373 = ORGANIZATION ($, '', '');
#374 = PERSON_AND_ORGANIZATION (#372, #373);
#375 = CC_DESIGN_PERSON_AND_ORGANIZATION_ASSIGNMENT (#374, #371, (#351));
#376 = PRODUCT_DEFINITION_SHAPE ('', '', #351);
#377 = SHAPE_DEFINITION_REPRESENTATION (#376, #288);
#378 = SHAPE_REPRESENTATION_RELATIONSHIP ('', '', #288, #379);
#379 = ADVANCED_BREP_SHAPE_REPRESENTATION ('', (#282), #287);
ENDSEC;
END-ISO-10303-21;
