ISO-10303-21;
HEADER;
FILE_DESCRIPTION ((), '1');
FILE_NAME ('C:\\Users\\kevin\\CXD, CLM & CL\\CXDCLM1450AP.STP', '2021-03-26T13:12:50', ('Unknown'), ('m.a.ford europe'), 'OneCNC-XR8 Mill 3D Expert', 'OneCNC-XR8 Mill 3D Expert', '');
FILE_SCHEMA (('CONFIG_CONTROL_DESIGN'));
ENDSEC;

DATA;
#1 = CARTESIAN_POINT ('', (0., 0., 0.));
#2 = VERTEX_POINT ('', #1);
#3 = CARTESIAN_POINT ('', (-2.63878419842997, 7.25, -1.77573785876366E-15));
#4 = VERTEX_POINT ('', #3);
#5 = CARTESIAN_POINT ('', (0., 0., 0.));
#6 = CARTESIAN_POINT ('', (-0.879594732809989, 2.41666666666667, -5.91912619587887E-16));
#7 = CARTESIAN_POINT ('', (-1.75918946561998, 4.83333333333336, -1.18382523917578E-15));
#8 = CARTESIAN_POINT ('', (-2.63878419842997, 7.25, -1.77573785876366E-15));
#9 = B_SPLINE_CURVE_WITH_KNOTS ('', 3, (#5, #6, #7, #8), .UNSPECIFIED., .F., .U., (4, 4), (0., 1.), .UNSPECIFIED.);
#10 = EDGE_CURVE ('', #2, #4, #9, .T.);
#11 = ORIENTED_EDGE ('', *, *, #10, .F.);
#12 = ORIENTED_EDGE ('', *, *, #10, .T.);
#13 = CARTESIAN_POINT ('', (-2.63878419842997, 7.25, -1.77573785876366E-15));
#14 = CARTESIAN_POINT ('', (-2.63878419842997, 7.25000000000001, 29.));
#15 = CARTESIAN_POINT ('', (-2.63878419842997, -21.75, 14.5));
#16 = CARTESIAN_POINT ('', (-2.63878419842997, -21.75, -14.5));
#17 = CARTESIAN_POINT ('', (-2.63878419842996, 7.24999999999999, -29.));
#18 = CARTESIAN_POINT ('', (-2.63878419842997, 7.25, -1.77573785876366E-15));
#19 = (
   BOUNDED_CURVE ()
   B_SPLINE_CURVE (5, (#13, #14, #15, #16, #17, #18), .UNSPECIFIED., .T., .U.)
   B_SPLINE_CURVE_WITH_KNOTS ((6, 6), (0., 1.), .UNSPECIFIED.)
   CURVE ()
   GEOMETRIC_REPRESENTATION_ITEM ()
   RATIONAL_B_SPLINE_CURVE ((5., 1., 1., 1., 1., 5.))
   REPRESENTATION_ITEM ('')
);
#20 = EDGE_CURVE ('', #4, #4, #19, .T.);
#21 = ORIENTED_EDGE ('', *, *, #20, .F.);
#22 = EDGE_LOOP ('', (#11, #12, #21));
#23 = FACE_OUTER_BOUND ('', #22, .F.);
#24 = CARTESIAN_POINT ('', (0., 0., 0.));
#25 = CARTESIAN_POINT ('', (-0.879594732809989, 2.41666666666667, -5.91912619587887E-16));
#26 = CARTESIAN_POINT ('', (-1.75918946561998, 4.83333333333336, -1.18382523917578E-15));
#27 = CARTESIAN_POINT ('', (-2.63878419842997, 7.25, -1.77573785876366E-15));
#28 = CARTESIAN_POINT ('', (0., 0., 0.));
#29 = CARTESIAN_POINT ('', (-0.879594732809989, 2.41666666666667, 9.66666666666667));
#30 = CARTESIAN_POINT ('', (-1.75918946561998, 4.83333333333337, 19.3333333333334));
#31 = CARTESIAN_POINT ('', (-2.63878419842997, 7.25000000000001, 29.));
#32 = CARTESIAN_POINT ('', (0., 0., 0.));
#33 = CARTESIAN_POINT ('', (-0.87959473280999, -7.25, 4.83333333333333));
#34 = CARTESIAN_POINT ('', (-1.75918946561998, -14.5000000000001, 9.66666666666672));
#35 = CARTESIAN_POINT ('', (-2.63878419842997, -21.75, 14.5));
#36 = CARTESIAN_POINT ('', (0., 0., 0.));
#37 = CARTESIAN_POINT ('', (-0.879594732809989, -7.25, -4.83333333333333));
#38 = CARTESIAN_POINT ('', (-1.75918946561998, -14.5000000000001, -9.66666666666672));
#39 = CARTESIAN_POINT ('', (-2.63878419842997, -21.75, -14.5));
#40 = CARTESIAN_POINT ('', (0., 0., 0.));
#41 = CARTESIAN_POINT ('', (-0.879594732809988, 2.41666666666666, -9.66666666666667));
#42 = CARTESIAN_POINT ('', (-1.75918946561998, 4.83333333333336, -19.3333333333334));
#43 = CARTESIAN_POINT ('', (-2.63878419842996, 7.24999999999999, -29.));
#44 = CARTESIAN_POINT ('', (0., 0., 0.));
#45 = CARTESIAN_POINT ('', (-0.879594732809989, 2.41666666666667, -5.91912619587887E-16));
#46 = CARTESIAN_POINT ('', (-1.75918946561998, 4.83333333333336, -1.18382523917578E-15));
#47 = CARTESIAN_POINT ('', (-2.63878419842997, 7.25, -1.77573785876366E-15));
#48 = (
   BOUNDED_SURFACE ()
   B_SPLINE_SURFACE (5, 3, ((#24, #25, #26, #27), (#28, #29, #30, #31), (#32, #33, #34, #35), (#36, #37, #38, #39), (#40, #41, #42, #43), (#44, #45, #46, #47)), .UNSPECIFIED., .T., .F., .U.)
   B_SPLINE_SURFACE_WITH_KNOTS ((6, 6), (4, 4), (0., 1.), (0., 1.), .UNSPECIFIED.)
   SURFACE ()
   GEOMETRIC_REPRESENTATION_ITEM ()
   RATIONAL_B_SPLINE_SURFACE (((5., 5., 5., 5.), (1., 1., 1., 1.), (1., 1., 1., 1.), (1., 1., 1., 1.), (1., 1., 1., 1.), (5., 5., 5., 5.)))
   REPRESENTATION_ITEM ('')
);
#49 = ADVANCED_FACE ('', (#23), #48, .F.);
#50 = CARTESIAN_POINT ('', (-203.75, 8., -1.95943487863576E-15));
#51 = VERTEX_POINT ('', #50);
#52 = CARTESIAN_POINT ('', (-204., 7.75, -1.89820253867839E-15));
#53 = VERTEX_POINT ('', #52);
#54 = CARTESIAN_POINT ('', (-203.75, 8., -1.95943487863576E-15));
#55 = CARTESIAN_POINT ('', (-203.833333333333, 7.91666666666665, -1.93902409864997E-15));
#56 = CARTESIAN_POINT ('', (-203.916666666667, 7.83333333333333, -1.91861331866418E-15));
#57 = CARTESIAN_POINT ('', (-204., 7.75, -1.89820253867839E-15));
#58 = B_SPLINE_CURVE_WITH_KNOTS ('', 3, (#54, #55, #56, #57), .UNSPECIFIED., .F., .U., (4, 4), (0., 1.), .UNSPECIFIED.);
#59 = EDGE_CURVE ('', #51, #53, #58, .T.);
#60 = ORIENTED_EDGE ('', *, *, #59, .F.);
#61 = CARTESIAN_POINT ('', (-203.75, 8., -1.95943487863576E-15));
#62 = CARTESIAN_POINT ('', (-203.75, 7.99999999999996, 31.9999999999999));
#63 = CARTESIAN_POINT ('', (-203.75, -24., 15.9999999999999));
#64 = CARTESIAN_POINT ('', (-203.75, -23.9999999999999, -16.));
#65 = CARTESIAN_POINT ('', (-203.75, 8.00000000000004, -32.));
#66 = CARTESIAN_POINT ('', (-203.75, 8., -1.95943487863576E-15));
#67 = (
   BOUNDED_CURVE ()
   B_SPLINE_CURVE (5, (#61, #62, #63, #64, #65, #66), .UNSPECIFIED., .T., .U.)
   B_SPLINE_CURVE_WITH_KNOTS ((6, 6), (0., 1.), .UNSPECIFIED.)
   CURVE ()
   GEOMETRIC_REPRESENTATION_ITEM ()
   RATIONAL_B_SPLINE_CURVE ((5., 1., 1., 1., 1., 5.))
   REPRESENTATION_ITEM ('')
);
#68 = EDGE_CURVE ('', #51, #51, #67, .T.);
#69 = ORIENTED_EDGE ('', *, *, #68, .T.);
#70 = ORIENTED_EDGE ('', *, *, #59, .T.);
#71 = CARTESIAN_POINT ('', (-204., 7.75, -1.89820253867839E-15));
#72 = CARTESIAN_POINT ('', (-204., 7.74999999999996, 30.9999999999999));
#73 = CARTESIAN_POINT ('', (-204., -23.25, 15.4999999999999));
#74 = CARTESIAN_POINT ('', (-204., -23.2499999999999, -15.5));
#75 = CARTESIAN_POINT ('', (-204., 7.75000000000004, -31.));
#76 = CARTESIAN_POINT ('', (-204., 7.75, -1.89820253867839E-15));
#77 = (
   BOUNDED_CURVE ()
   B_SPLINE_CURVE (5, (#71, #72, #73, #74, #75, #76), .UNSPECIFIED., .T., .U.)
   B_SPLINE_CURVE_WITH_KNOTS ((6, 6), (0., 1.), .UNSPECIFIED.)
   CURVE ()
   GEOMETRIC_REPRESENTATION_ITEM ()
   RATIONAL_B_SPLINE_CURVE ((5., 1., 1., 1., 1., 5.))
   REPRESENTATION_ITEM ('')
);
#78 = EDGE_CURVE ('', #53, #53, #77, .T.);
#79 = ORIENTED_EDGE ('', *, *, #78, .F.);
#80 = EDGE_LOOP ('', (#60, #69, #70, #79));
#81 = FACE_OUTER_BOUND ('', #80, .F.);
#82 = CARTESIAN_POINT ('', (-203.75, 8., -1.95943487863576E-15));
#83 = CARTESIAN_POINT ('', (-203.833333333333, 7.91666666666665, -1.93902409864997E-15));
#84 = CARTESIAN_POINT ('', (-203.916666666667, 7.83333333333333, -1.91861331866418E-15));
#85 = CARTESIAN_POINT ('', (-204., 7.75, -1.89820253867839E-15));
#86 = CARTESIAN_POINT ('', (-203.75, 7.99999999999996, 31.9999999999999));
#87 = CARTESIAN_POINT ('', (-203.833333333333, 7.91666666666661, 31.6666666666666));
#88 = CARTESIAN_POINT ('', (-203.916666666667, 7.83333333333328, 31.3333333333333));
#89 = CARTESIAN_POINT ('', (-204., 7.74999999999996, 30.9999999999999));
#90 = CARTESIAN_POINT ('', (-203.75, -24., 15.9999999999999));
#91 = CARTESIAN_POINT ('', (-203.833333333333, -23.7499999999999, 15.8333333333332));
#92 = CARTESIAN_POINT ('', (-203.916666666667, -23.5, 15.6666666666666));
#93 = CARTESIAN_POINT ('', (-204., -23.25, 15.4999999999999));
#94 = CARTESIAN_POINT ('', (-203.75, -23.9999999999999, -16.));
#95 = CARTESIAN_POINT ('', (-203.833333333333, -23.7499999999999, -15.8333333333333));
#96 = CARTESIAN_POINT ('', (-203.916666666667, -23.4999999999999, -15.6666666666667));
#97 = CARTESIAN_POINT ('', (-204., -23.2499999999999, -15.5));
#98 = CARTESIAN_POINT ('', (-203.75, 8.00000000000004, -32.));
#99 = CARTESIAN_POINT ('', (-203.833333333333, 7.91666666666669, -31.6666666666666));
#100 = CARTESIAN_POINT ('', (-203.916666666667, 7.83333333333337, -31.3333333333333));
#101 = CARTESIAN_POINT ('', (-204., 7.75000000000004, -31.));
#102 = CARTESIAN_POINT ('', (-203.75, 8., -1.95943487863576E-15));
#103 = CARTESIAN_POINT ('', (-203.833333333333, 7.91666666666665, -1.93902409864997E-15));
#104 = CARTESIAN_POINT ('', (-203.916666666667, 7.83333333333333, -1.91861331866418E-15));
#105 = CARTESIAN_POINT ('', (-204., 7.75, -1.89820253867839E-15));
#106 = (
   BOUNDED_SURFACE ()
   B_SPLINE_SURFACE (5, 3, ((#82, #83, #84, #85), (#86, #87, #88, #89), (#90, #91, #92, #93), (#94, #95, #96, #97), (#98, #99, #100, #101), (#102, #103, #104, #105)), .UNSPECIFIED., .T., .F., .U.)
   B_SPLINE_SURFACE_WITH_KNOTS ((6, 6), (4, 4), (0., 1.), (0., 1.), .UNSPECIFIED.)
   SURFACE ()
   GEOMETRIC_REPRESENTATION_ITEM ()
   RATIONAL_B_SPLINE_SURFACE (((5., 5., 5., 5.), (1., 1., 1., 1.), (1., 1., 1., 1.), (1., 1., 1., 1.), (1., 1., 1., 1.), (5., 5., 5., 5.)))
   REPRESENTATION_ITEM ('')
);
#107 = ADVANCED_FACE ('', (#81), #106, .F.);
#108 = CARTESIAN_POINT ('', (-204., 1.2491397351303E-14, -1.2491397351303E-14));
#109 = VERTEX_POINT ('', #108);
#110 = CARTESIAN_POINT ('', (-204., 7.75, -1.89820253867839E-15));
#111 = CARTESIAN_POINT ('', (-204., 5.16666666666666, -1.26546835911893E-15));
#112 = CARTESIAN_POINT ('', (-204., 2.58333333333333, -6.32734179559462E-16));
#113 = CARTESIAN_POINT ('', (-204., 1.2491397351303E-14, -1.2491397351303E-14));
#114 = B_SPLINE_CURVE_WITH_KNOTS ('', 3, (#110, #111, #112, #113), .UNSPECIFIED., .F., .U., (4, 4), (0., 1.), .UNSPECIFIED.);
#115 = EDGE_CURVE ('', #53, #109, #114, .T.);
#116 = ORIENTED_EDGE ('', *, *, #115, .F.);
#117 = ORIENTED_EDGE ('', *, *, #78, .T.);
#118 = ORIENTED_EDGE ('', *, *, #115, .T.);
#119 = EDGE_LOOP ('', (#116, #117, #118));
#120 = FACE_OUTER_BOUND ('', #119, .F.);
#121 = CARTESIAN_POINT ('', (-204., 7.75, -1.89820253867839E-15));
#122 = CARTESIAN_POINT ('', (-204., 5.16666666666666, -1.26546835911893E-15));
#123 = CARTESIAN_POINT ('', (-204., 2.58333333333333, -6.32734179559462E-16));
#124 = CARTESIAN_POINT ('', (-204., 1.2491397351303E-14, -1.2491397351303E-14));
#125 = CARTESIAN_POINT ('', (-204., 7.74999999999996, 30.9999999999999));
#126 = CARTESIAN_POINT ('', (-204., 5.16666666666661, 20.6666666666666));
#127 = CARTESIAN_POINT ('', (-204., 2.58333333333329, 10.3333333333333));
#128 = CARTESIAN_POINT ('', (-204., 1.2491397351303E-14, -1.2491397351303E-14));
#129 = CARTESIAN_POINT ('', (-204., -23.25, 15.4999999999999));
#130 = CARTESIAN_POINT ('', (-204., -15.4999999999999, 10.3333333333332));
#131 = CARTESIAN_POINT ('', (-204., -7.74999999999997, 5.16666666666659));
#132 = CARTESIAN_POINT ('', (-204., 1.2491397351303E-14, -1.2491397351303E-14));
#133 = CARTESIAN_POINT ('', (-204., -23.2499999999999, -15.5));
#134 = CARTESIAN_POINT ('', (-204., -15.4999999999999, -10.3333333333333));
#135 = CARTESIAN_POINT ('', (-204., -7.74999999999992, -5.16666666666669));
#136 = CARTESIAN_POINT ('', (-204., 1.2491397351303E-14, -1.2491397351303E-14));
#137 = CARTESIAN_POINT ('', (-204., 7.75000000000004, -31.));
#138 = CARTESIAN_POINT ('', (-204., 5.1666666666667, -20.6666666666666));
#139 = CARTESIAN_POINT ('', (-204., 2.58333333333338, -10.3333333333333));
#140 = CARTESIAN_POINT ('', (-204., 1.2491397351303E-14, -1.2491397351303E-14));
#141 = CARTESIAN_POINT ('', (-204., 7.75, -1.89820253867839E-15));
#142 = CARTESIAN_POINT ('', (-204., 5.16666666666666, -1.26546835911893E-15));
#143 = CARTESIAN_POINT ('', (-204., 2.58333333333333, -6.32734179559462E-16));
#144 = CARTESIAN_POINT ('', (-204., 1.2491397351303E-14, -1.2491397351303E-14));
#145 = (
   BOUNDED_SURFACE ()
   B_SPLINE_SURFACE (5, 3, ((#121, #122, #123, #124), (#125, #126, #127, #128), (#129, #130, #131, #132), (#133, #134, #135, #136), (#137, #138, #139, #140), (#141, #142, #143, #144)), .UNSPECIFIED., .T., .F., .U.)
   B_SPLINE_SURFACE_WITH_KNOTS ((6, 6), (4, 4), (0., 1.), (0., 1.), .UNSPECIFIED.)
   SURFACE ()
   GEOMETRIC_REPRESENTATION_ITEM ()
   RATIONAL_B_SPLINE_SURFACE (((5., 5., 5., 5.), (1., 1., 1., 1.), (1., 1., 1., 1.), (1., 1., 1., 1.), (1., 1., 1., 1.), (5., 5., 5., 5.)))
   REPRESENTATION_ITEM ('')
);
#146 = ADVANCED_FACE ('', (#120), #145, .F.);
#147 = CARTESIAN_POINT ('', (-152., 8., -1.95943487863576E-15));
#148 = VERTEX_POINT ('', #147);
#149 = CARTESIAN_POINT ('', (-152., 8., -1.95943487863576E-15));
#150 = CARTESIAN_POINT ('', (-169.25, 8., -1.95943487863576E-15));
#151 = CARTESIAN_POINT ('', (-186.5, 8., -1.95943487863576E-15));
#152 = CARTESIAN_POINT ('', (-203.75, 8., -1.95943487863576E-15));
#153 = B_SPLINE_CURVE_WITH_KNOTS ('', 3, (#149, #150, #151, #152), .UNSPECIFIED., .F., .U., (4, 4), (0., 1.), .UNSPECIFIED.);
#154 = EDGE_CURVE ('', #148, #51, #153, .T.);
#155 = ORIENTED_EDGE ('', *, *, #154, .F.);
#156 = CARTESIAN_POINT ('', (-152., 8., -1.95943487863576E-15));
#157 = CARTESIAN_POINT ('', (-152., 7.99999999999997, 32.));
#158 = CARTESIAN_POINT ('', (-152., -24., 16.));
#159 = CARTESIAN_POINT ('', (-152., -23.9999999999999, -16.));
#160 = CARTESIAN_POINT ('', (-152., 8.00000000000003, -32.));
#161 = CARTESIAN_POINT ('', (-152., 8., -1.95943487863576E-15));
#162 = (
   BOUNDED_CURVE ()
   B_SPLINE_CURVE (5, (#156, #157, #158, #159, #160, #161), .UNSPECIFIED., .T., .U.)
   B_SPLINE_CURVE_WITH_KNOTS ((6, 6), (0., 1.), .UNSPECIFIED.)
   CURVE ()
   GEOMETRIC_REPRESENTATION_ITEM ()
   RATIONAL_B_SPLINE_CURVE ((5., 1., 1., 1., 1., 5.))
   REPRESENTATION_ITEM ('')
);
#163 = EDGE_CURVE ('', #148, #148, #162, .T.);
#164 = ORIENTED_EDGE ('', *, *, #163, .T.);
#165 = ORIENTED_EDGE ('', *, *, #154, .T.);
#166 = ORIENTED_EDGE ('', *, *, #68, .F.);
#167 = EDGE_LOOP ('', (#155, #164, #165, #166));
#168 = FACE_OUTER_BOUND ('', #167, .F.);
#169 = CARTESIAN_POINT ('', (-152., 8., -1.95943487863576E-15));
#170 = CARTESIAN_POINT ('', (-169.25, 8., -1.95943487863576E-15));
#171 = CARTESIAN_POINT ('', (-186.5, 8., -1.95943487863576E-15));
#172 = CARTESIAN_POINT ('', (-203.75, 8., -1.95943487863576E-15));
#173 = CARTESIAN_POINT ('', (-152., 7.99999999999997, 32.));
#174 = CARTESIAN_POINT ('', (-169.25, 7.99999999999997, 32.));
#175 = CARTESIAN_POINT ('', (-186.5, 7.99999999999996, 32.));
#176 = CARTESIAN_POINT ('', (-203.75, 7.99999999999996, 31.9999999999999));
#177 = CARTESIAN_POINT ('', (-152., -24., 16.));
#178 = CARTESIAN_POINT ('', (-169.25, -24., 15.9999999999999));
#179 = CARTESIAN_POINT ('', (-186.5, -24., 15.9999999999999));
#180 = CARTESIAN_POINT ('', (-203.75, -24., 15.9999999999999));
#181 = CARTESIAN_POINT ('', (-152., -23.9999999999999, -16.));
#182 = CARTESIAN_POINT ('', (-169.25, -23.9999999999999, -16.));
#183 = CARTESIAN_POINT ('', (-186.5, -23.9999999999999, -16.));
#184 = CARTESIAN_POINT ('', (-203.75, -23.9999999999999, -16.));
#185 = CARTESIAN_POINT ('', (-152., 8.00000000000003, -32.));
#186 = CARTESIAN_POINT ('', (-169.25, 8.00000000000003, -32.));
#187 = CARTESIAN_POINT ('', (-186.5, 8.00000000000004, -32.));
#188 = CARTESIAN_POINT ('', (-203.75, 8.00000000000004, -32.));
#189 = CARTESIAN_POINT ('', (-152., 8., -1.95943487863576E-15));
#190 = CARTESIAN_POINT ('', (-169.25, 8., -1.95943487863576E-15));
#191 = CARTESIAN_POINT ('', (-186.5, 8., -1.95943487863576E-15));
#192 = CARTESIAN_POINT ('', (-203.75, 8., -1.95943487863576E-15));
#193 = (
   BOUNDED_SURFACE ()
   B_SPLINE_SURFACE (5, 3, ((#169, #170, #171, #172), (#173, #174, #175, #176), (#177, #178, #179, #180), (#181, #182, #183, #184), (#185, #186, #187, #188), (#189, #190, #191, #192)), .UNSPECIFIED., .T., .F., .U.)
   B_SPLINE_SURFACE_WITH_KNOTS ((6, 6), (4, 4), (0., 1.), (0., 1.), .UNSPECIFIED.)
   SURFACE ()
   GEOMETRIC_REPRESENTATION_ITEM ()
   RATIONAL_B_SPLINE_SURFACE (((5., 5., 5., 5.), (1., 1., 1., 1.), (1., 1., 1., 1.), (1., 1., 1., 1.), (1., 1., 1., 1.), (5., 5., 5., 5.)))
   REPRESENTATION_ITEM ('')
);
#194 = ADVANCED_FACE ('', (#168), #193, .F.);
#195 = CARTESIAN_POINT ('', (-152., 7.25, -1.77573785876366E-15));
#196 = VERTEX_POINT ('', #195);
#197 = CARTESIAN_POINT ('', (-152., 7.25, -1.77573785876366E-15));
#198 = CARTESIAN_POINT ('', (-152., 7.5, -1.83697019872103E-15));
#199 = CARTESIAN_POINT ('', (-152., 7.75, -1.89820253867839E-15));
#200 = CARTESIAN_POINT ('', (-152., 8., -1.95943487863576E-15));
#201 = B_SPLINE_CURVE_WITH_KNOTS ('', 3, (#197, #198, #199, #200), .UNSPECIFIED., .F., .U., (4, 4), (0., 1.), .UNSPECIFIED.);
#202 = EDGE_CURVE ('', #196, #148, #201, .T.);
#203 = ORIENTED_EDGE ('', *, *, #202, .F.);
#204 = CARTESIAN_POINT ('', (-152., 7.25, -1.77573785876366E-15));
#205 = CARTESIAN_POINT ('', (-152., 7.24999999999997, 29.));
#206 = CARTESIAN_POINT ('', (-152., -21.75, 14.5));
#207 = CARTESIAN_POINT ('', (-152., -21.7499999999999, -14.5));
#208 = CARTESIAN_POINT ('', (-152., 7.25000000000003, -29.));
#209 = CARTESIAN_POINT ('', (-152., 7.25, -1.77573785876366E-15));
#210 = (
   BOUNDED_CURVE ()
   B_SPLINE_CURVE (5, (#204, #205, #206, #207, #208, #209), .UNSPECIFIED., .T., .U.)
   B_SPLINE_CURVE_WITH_KNOTS ((6, 6), (0., 1.), .UNSPECIFIED.)
   CURVE ()
   GEOMETRIC_REPRESENTATION_ITEM ()
   RATIONAL_B_SPLINE_CURVE ((5., 1., 1., 1., 1., 5.))
   REPRESENTATION_ITEM ('')
);
#211 = EDGE_CURVE ('', #196, #196, #210, .T.);
#212 = ORIENTED_EDGE ('', *, *, #211, .T.);
#213 = ORIENTED_EDGE ('', *, *, #202, .T.);
#214 = ORIENTED_EDGE ('', *, *, #163, .F.);
#215 = EDGE_LOOP ('', (#203, #212, #213, #214));
#216 = FACE_OUTER_BOUND ('', #215, .F.);
#217 = CARTESIAN_POINT ('', (-152., 7.25, -1.77573785876366E-15));
#218 = CARTESIAN_POINT ('', (-152., 7.5, -1.83697019872103E-15));
#219 = CARTESIAN_POINT ('', (-152., 7.75, -1.89820253867839E-15));
#220 = CARTESIAN_POINT ('', (-152., 8., -1.95943487863576E-15));
#221 = CARTESIAN_POINT ('', (-152., 7.24999999999997, 29.));
#222 = CARTESIAN_POINT ('', (-152., 7.49999999999997, 30.));
#223 = CARTESIAN_POINT ('', (-152., 7.74999999999997, 31.));
#224 = CARTESIAN_POINT ('', (-152., 7.99999999999997, 32.));
#225 = CARTESIAN_POINT ('', (-152., -21.75, 14.5));
#226 = CARTESIAN_POINT ('', (-152., -22.5, 15.));
#227 = CARTESIAN_POINT ('', (-152., -23.25, 15.5));
#228 = CARTESIAN_POINT ('', (-152., -24., 16.));
#229 = CARTESIAN_POINT ('', (-152., -21.7499999999999, -14.5));
#230 = CARTESIAN_POINT ('', (-152., -22.4999999999999, -15.));
#231 = CARTESIAN_POINT ('', (-152., -23.2499999999999, -15.5));
#232 = CARTESIAN_POINT ('', (-152., -23.9999999999999, -16.));
#233 = CARTESIAN_POINT ('', (-152., 7.25000000000003, -29.));
#234 = CARTESIAN_POINT ('', (-152., 7.50000000000003, -30.));
#235 = CARTESIAN_POINT ('', (-152., 7.75000000000003, -31.));
#236 = CARTESIAN_POINT ('', (-152., 8.00000000000003, -32.));
#237 = CARTESIAN_POINT ('', (-152., 7.25, -1.77573785876366E-15));
#238 = CARTESIAN_POINT ('', (-152., 7.5, -1.83697019872103E-15));
#239 = CARTESIAN_POINT ('', (-152., 7.75, -1.89820253867839E-15));
#240 = CARTESIAN_POINT ('', (-152., 8., -1.95943487863576E-15));
#241 = (
   BOUNDED_SURFACE ()
   B_SPLINE_SURFACE (5, 3, ((#217, #218, #219, #220), (#221, #222, #223, #224), (#225, #226, #227, #228), (#229, #230, #231, #232), (#233, #234, #235, #236), (#237, #238, #239, #240)), .UNSPECIFIED., .T., .F., .U.)
   B_SPLINE_SURFACE_WITH_KNOTS ((6, 6), (4, 4), (0., 1.), (0., 1.), .UNSPECIFIED.)
   SURFACE ()
   GEOMETRIC_REPRESENTATION_ITEM ()
   RATIONAL_B_SPLINE_SURFACE (((5., 5., 5., 5.), (1., 1., 1., 1.), (1., 1., 1., 1.), (1., 1., 1., 1.), (1., 1., 1., 1.), (5., 5., 5., 5.)))
   REPRESENTATION_ITEM ('')
);
#242 = ADVANCED_FACE ('', (#216), #241, .F.);
#243 = CARTESIAN_POINT ('', (-2.63878419842997, 7.25, -1.77573785876366E-15));
#244 = CARTESIAN_POINT ('', (-52.4258561322866, 7.25, -1.77573785876366E-15));
#245 = CARTESIAN_POINT ('', (-102.212928066144, 7.24999999999999, -1.77573785876366E-15));
#246 = CARTESIAN_POINT ('', (-152., 7.25, -1.77573785876366E-15));
#247 = B_SPLINE_CURVE_WITH_KNOTS ('', 3, (#243, #244, #245, #246), .UNSPECIFIED., .F., .U., (4, 4), (0., 1.), .UNSPECIFIED.);
#248 = EDGE_CURVE ('', #4, #196, #247, .T.);
#249 = ORIENTED_EDGE ('', *, *, #248, .F.);
#250 = ORIENTED_EDGE ('', *, *, #20, .T.);
#251 = ORIENTED_EDGE ('', *, *, #248, .T.);
#252 = ORIENTED_EDGE ('', *, *, #211, .F.);
#253 = EDGE_LOOP ('', (#249, #250, #251, #252));
#254 = FACE_OUTER_BOUND ('', #253, .F.);
#255 = CARTESIAN_POINT ('', (-2.63878419842997, 7.25, -1.77573785876366E-15));
#256 = CARTESIAN_POINT ('', (-52.4258561322866, 7.25, -1.77573785876366E-15));
#257 = CARTESIAN_POINT ('', (-102.212928066144, 7.24999999999999, -1.77573785876366E-15));
#258 = CARTESIAN_POINT ('', (-152., 7.25, -1.77573785876366E-15));
#259 = CARTESIAN_POINT ('', (-2.63878419842997, 7.25000000000001, 29.));
#260 = CARTESIAN_POINT ('', (-52.4258561322866, 7.25, 29.));
#261 = CARTESIAN_POINT ('', (-102.212928066144, 7.24999999999997, 28.9999999999999));
#262 = CARTESIAN_POINT ('', (-152., 7.24999999999997, 29.));
#263 = CARTESIAN_POINT ('', (-2.63878419842997, -21.75, 14.5));
#264 = CARTESIAN_POINT ('', (-52.4258561322866, -21.75, 14.5));
#265 = CARTESIAN_POINT ('', (-102.212928066144, -21.75, 14.4999999999999));
#266 = CARTESIAN_POINT ('', (-152., -21.75, 14.5));
#267 = CARTESIAN_POINT ('', (-2.63878419842997, -21.75, -14.5));
#268 = CARTESIAN_POINT ('', (-52.4258561322866, -21.75, -14.5));
#269 = CARTESIAN_POINT ('', (-102.212928066144, -21.7499999999999, -14.5));
#270 = CARTESIAN_POINT ('', (-152., -21.7499999999999, -14.5));
#271 = CARTESIAN_POINT ('', (-2.63878419842996, 7.24999999999999, -29.));
#272 = CARTESIAN_POINT ('', (-52.4258561322866, 7.25000000000001, -29.));
#273 = CARTESIAN_POINT ('', (-102.212928066144, 7.25000000000001, -28.9999999999999));
#274 = CARTESIAN_POINT ('', (-152., 7.25000000000003, -29.));
#275 = CARTESIAN_POINT ('', (-2.63878419842997, 7.25, -1.77573785876366E-15));
#276 = CARTESIAN_POINT ('', (-52.4258561322866, 7.25, -1.77573785876366E-15));
#277 = CARTESIAN_POINT ('', (-102.212928066144, 7.24999999999999, -1.77573785876366E-15));
#278 = CARTESIAN_POINT ('', (-152., 7.25, -1.77573785876366E-15));
#279 = (
   BOUNDED_SURFACE ()
   B_SPLINE_SURFACE (5, 3, ((#255, #256, #257, #258), (#259, #260, #261, #262), (#263, #264, #265, #266), (#267, #268, #269, #270), (#271, #272, #273, #274), (#275, #276, #277, #278)), .UNSPECIFIED., .T., .F., .U.)
   B_SPLINE_SURFACE_WITH_KNOTS ((6, 6), (4, 4), (0., 1.), (0., 1.), .UNSPECIFIED.)
   SURFACE ()
   GEOMETRIC_REPRESENTATION_ITEM ()
   RATIONAL_B_SPLINE_SURFACE (((5., 5., 5., 5.), (1., 1., 1., 1.), (1., 1., 1., 1.), (1., 1., 1., 1.), (1., 1., 1., 1.), (5., 5., 5., 5.)))
   REPRESENTATION_ITEM ('')
);
#280 = ADVANCED_FACE ('', (#254), #279, .F.);
#281 = CLOSED_SHELL ('', (#49, #107, #146, #194, #242, #280));
#282 = MANIFOLD_SOLID_BREP ('', #281);
#283 = (
   LENGTH_UNIT ()
   NAMED_UNIT (*)
   SI_UNIT (.MILLI., .METRE.)
);
#284 = (
   NAMED_UNIT (*)
   SI_UNIT ($, .STERADIAN.)
   SOLID_ANGLE_UNIT ()
);
#285 = (
   NAMED_UNIT (*)
   SI_UNIT ($, .RADIAN.)
   PLANE_ANGLE_UNIT ()
);
#286 = UNCERTAINTY_MEASURE_WITH_UNIT (LENGTH_MEASURE(0.001), #283, 'DISTANCE_ACCURACY_VALUE', '');
#287 = (
   GEOMETRIC_REPRESENTATION_CONTEXT (3)
   GLOBAL_UNCERTAINTY_ASSIGNED_CONTEXT ((#286))
   GLOBAL_UNIT_ASSIGNED_CONTEXT ((#283, #284, #285))
   REPRESENTATION_CONTEXT ('', '3D')
);
#288 = SHAPE_REPRESENTATION ('', (), #287);
#289 = APPLICATION_CONTEXT ('configuration controlled 3D designs of mechanical parts and assemblies');
#290 = APPLICATION_PROTOCOL_DEFINITION ('International Standard', 'config_control_design', 1997, #289);
#291 = MECHANICAL_CONTEXT ('', #289, 'mechanical');
#292 = PRODUCT ('', '', '', (#291));
#293 = PERSON_AND_ORGANIZATION_ROLE ('design_owner');
#294 = PERSON ('', '', $, $, $, $);
#295 = ORGANIZATION ($, '', '');
#296 = PERSON_AND_ORGANIZATION (#294, #295);
#297 = CC_DESIGN_PERSON_AND_ORGANIZATION_ASSIGNMENT (#296, #293, (#292));
#298 = PRODUCT_RELATED_PRODUCT_CATEGORY ('detail', $, (#292));
#299 = PRODUCT_DEFINITION_FORMATION_WITH_SPECIFIED_SOURCE ('', '', #292, .NOT_KNOWN.);
#300 = APPROVAL_STATUS ('approved');
#301 = APPROVAL (#300, '');
#302 = CALENDAR_DATE (2021, 26, 3);
#303 = COORDINATED_UNIVERSAL_TIME_OFFSET (0, $, .AHEAD.);
#304 = LOCAL_TIME (13, 12, 50., #303);
#305 = DATE_AND_TIME (#302, #304);
#306 = APPROVAL_DATE_TIME (#305, #301);
#307 = APPROVAL_ROLE ('');
#308 = PERSON ('', '', $, $, $, $);
#309 = ORGANIZATION ($, '', '');
#310 = PERSON_AND_ORGANIZATION (#308, #309);
#311 = APPROVAL_PERSON_ORGANIZATION (#310, #301, #307);
#312 = CC_DESIGN_APPROVAL (#301, (#299));
#313 = PERSON_AND_ORGANIZATION_ROLE ('creator');
#314 = PERSON ('', '', $, $, $, $);
#315 = ORGANIZATION ($, '', '');
#316 = PERSON_AND_ORGANIZATION (#314, #315);
#317 = CC_DESIGN_PERSON_AND_ORGANIZATION_ASSIGNMENT (#316, #313, (#299));
#318 = PERSON_AND_ORGANIZATION_ROLE ('part_supplier');
#319 = PERSON ('', '', $, $, $, $);
#320 = ORGANIZATION ($, '', '');
#321 = PERSON_AND_ORGANIZATION (#319, #320);
#322 = CC_DESIGN_PERSON_AND_ORGANIZATION_ASSIGNMENT (#321, #318, (#299));
#323 = SECURITY_CLASSIFICATION_LEVEL ('unclassified');
#324 = SECURITY_CLASSIFICATION ('', '', #323);
#325 = APPROVAL_STATUS ('approved');
#326 = APPROVAL (#325, '');
#327 = CALENDAR_DATE (2021, 26, 3);
#328 = COORDINATED_UNIVERSAL_TIME_OFFSET (0, $, .AHEAD.);
#329 = LOCAL_TIME (13, 12, 50., #328);
#330 = DATE_AND_TIME (#327, #329);
#331 = APPROVAL_DATE_TIME (#330, #326);
#332 = APPROVAL_ROLE ('');
#333 = PERSON ('', '', $, $, $, $);
#334 = ORGANIZATION ($, '', '');
#335 = PERSON_AND_ORGANIZATION (#333, #334);
#336 = APPROVAL_PERSON_ORGANIZATION (#335, #326, #332);
#337 = CC_DESIGN_APPROVAL (#326, (#324));
#338 = DATE_TIME_ROLE ('classification_date');
#339 = CALENDAR_DATE (2021, 26, 3);
#340 = COORDINATED_UNIVERSAL_TIME_OFFSET (0, $, .AHEAD.);
#341 = LOCAL_TIME (13, 12, 50., #340);
#342 = DATE_AND_TIME (#339, #341);
#343 = CC_DESIGN_DATE_AND_TIME_ASSIGNMENT (#342, #338, (#324));
#344 = PERSON_AND_ORGANIZATION_ROLE ('classification_officer');
#345 = PERSON ('', '', $, $, $, $);
#346 = ORGANIZATION ($, '', '');
#347 = PERSON_AND_ORGANIZATION (#345, #346);
#348 = CC_DESIGN_PERSON_AND_ORGANIZATION_ASSIGNMENT (#347, #344, (#324));
#349 = CC_DESIGN_SECURITY_CLASSIFICATION (#324, (#299));
#350 = DESIGN_CONTEXT ('', #289, 'design');
#351 = PRODUCT_DEFINITION ('', '', #299, #350);
#352 = APPROVAL_STATUS ('approved');
#353 = APPROVAL (#352, '');
#354 = CALENDAR_DATE (2021, 26, 3);
#355 = COORDINATED_UNIVERSAL_TIME_OFFSET (0, $, .AHEAD.);
#356 = LOCAL_TIME (13, 12, 50., #355);
#357 = DATE_AND_TIME (#354, #356);
#358 = APPROVAL_DATE_TIME (#357, #353);
#359 = APPROVAL_ROLE ('');
#360 = PERSON ('', '', $, $, $, $);
#361 = ORGANIZATION ($, '', '');
#362 = PERSON_AND_ORGANIZATION (#360, #361);
#363 = APPROVAL_PERSON_ORGANIZATION (#362, #353, #359);
#364 = CC_DESIGN_APPROVAL (#353, (#351));
#365 = DATE_TIME_ROLE ('creation_date');
#366 = CALENDAR_DATE (2021, 26, 3);
#367 = COORDINATED_UNIVERSAL_TIME_OFFSET (0, $, .AHEAD.);
#368 = LOCAL_TIME (13, 12, 50., #367);
#369 = DATE_AND_TIME (#366, #368);
#370 = CC_DESIGN_DATE_AND_TIME_ASSIGNMENT (#369, #365, (#351));
#371 = PERSON_AND_ORGANIZATION_ROLE ('creator');
#372 = PERSON ('', '', $, $, $, $);
#373 = ORGANIZATION ($, '', '');
#374 = PERSON_AND_ORGANIZATION (#372, #373);
#375 = CC_DESIGN_PERSON_AND_ORGANIZATION_ASSIGNMENT (#374, #371, (#351));
#376 = PRODUCT_DEFINITION_SHAPE ('', '', #351);
#377 = SHAPE_DEFINITION_REPRESENTATION (#376, #288);
#378 = SHAPE_REPRESENTATION_RELATIONSHIP ('', '', #288, #379);
#379 = ADVANCED_BREP_SHAPE_REPRESENTATION ('', (#282), #287);
ENDSEC;
END-ISO-10303-21;
