ISO-10303-21;
HEADER;
FILE_DESCRIPTION ((), '1');
FILE_NAME ('C:\\Users\\kevin\\CXD, SR &CR\\CXD__ 0400AP.STP', '2021-03-18T14:00:12', ('Unknown'), ('m.a.ford europe'), 'OneCNC-XR8 Mill 3D Expert', 'OneCNC-XR8 Mill 3D Expert', '');
FILE_SCHEMA (('CONFIG_CONTROL_DESIGN'));
ENDSEC;

DATA;
#1 = CARTESIAN_POINT ('', (-73.75, 2., -4.89858719658941E-16));
#2 = VERTEX_POINT ('', #1);
#3 = CARTESIAN_POINT ('', (-74., 1.75, -4.28626379701572E-16));
#4 = VERTEX_POINT ('', #3);
#5 = CARTESIAN_POINT ('', (-73.75, 2., -4.89858719658941E-16));
#6 = CARTESIAN_POINT ('', (-73.8333333333335, 1.91666666666666, -4.6944793967315E-16));
#7 = CARTESIAN_POINT ('', (-73.9166666666666, 1.83333333333334, -4.49037159687363E-16));
#8 = CARTESIAN_POINT ('', (-74., 1.75, -4.28626379701572E-16));
#9 = B_SPLINE_CURVE_WITH_KNOTS ('', 3, (#5, #6, #7, #8), .UNSPECIFIED., .F., .U., (4, 4), (0., 1.), .UNSPECIFIED.);
#10 = EDGE_CURVE ('', #2, #4, #9, .T.);
#11 = ORIENTED_EDGE ('', *, *, #10, .F.);
#12 = CARTESIAN_POINT ('', (-73.75, 2., -4.89858719658941E-16));
#13 = CARTESIAN_POINT ('', (-73.75, 1.99999999999998, 7.99999999999998));
#14 = CARTESIAN_POINT ('', (-73.75, -5.99999999999999, 3.99999999999997));
#15 = CARTESIAN_POINT ('', (-73.75, -5.99999999999997, -4.00000000000001));
#16 = CARTESIAN_POINT ('', (-73.75, 2.00000000000002, -7.99999999999998));
#17 = CARTESIAN_POINT ('', (-73.75, 2., -4.89858719658941E-16));
#18 = (
   BOUNDED_CURVE ()
   B_SPLINE_CURVE (5, (#12, #13, #14, #15, #16, #17), .UNSPECIFIED., .T., .U.)
   B_SPLINE_CURVE_WITH_KNOTS ((6, 6), (0., 1.), .UNSPECIFIED.)
   CURVE ()
   GEOMETRIC_REPRESENTATION_ITEM ()
   RATIONAL_B_SPLINE_CURVE ((5., 1., 1., 1., 1., 5.))
   REPRESENTATION_ITEM ('')
);
#19 = EDGE_CURVE ('', #2, #2, #18, .T.);
#20 = ORIENTED_EDGE ('', *, *, #19, .T.);
#21 = ORIENTED_EDGE ('', *, *, #10, .T.);
#22 = CARTESIAN_POINT ('', (-74., 1.75, -4.28626379701572E-16));
#23 = CARTESIAN_POINT ('', (-74., 1.74999999999998, 6.99999999999998));
#24 = CARTESIAN_POINT ('', (-74., -5.24999999999999, 3.49999999999997));
#25 = CARTESIAN_POINT ('', (-74., -5.24999999999997, -3.50000000000001));
#26 = CARTESIAN_POINT ('', (-74., 1.75000000000002, -6.99999999999998));
#27 = CARTESIAN_POINT ('', (-74., 1.75, -4.28626379701572E-16));
#28 = (
   BOUNDED_CURVE ()
   B_SPLINE_CURVE (5, (#22, #23, #24, #25, #26, #27), .UNSPECIFIED., .T., .U.)
   B_SPLINE_CURVE_WITH_KNOTS ((6, 6), (0., 1.), .UNSPECIFIED.)
   CURVE ()
   GEOMETRIC_REPRESENTATION_ITEM ()
   RATIONAL_B_SPLINE_CURVE ((5., 1., 1., 1., 1., 5.))
   REPRESENTATION_ITEM ('')
);
#29 = EDGE_CURVE ('', #4, #4, #28, .T.);
#30 = ORIENTED_EDGE ('', *, *, #29, .F.);
#31 = EDGE_LOOP ('', (#11, #20, #21, #30));
#32 = FACE_OUTER_BOUND ('', #31, .F.);
#33 = CARTESIAN_POINT ('', (-73.75, 2., -4.89858719658941E-16));
#34 = CARTESIAN_POINT ('', (-73.8333333333335, 1.91666666666666, -4.6944793967315E-16));
#35 = CARTESIAN_POINT ('', (-73.9166666666666, 1.83333333333334, -4.49037159687363E-16));
#36 = CARTESIAN_POINT ('', (-74., 1.75, -4.28626379701572E-16));
#37 = CARTESIAN_POINT ('', (-73.75, 1.99999999999998, 7.99999999999998));
#38 = CARTESIAN_POINT ('', (-73.8333333333335, 1.91666666666664, 7.66666666666663));
#39 = CARTESIAN_POINT ('', (-73.9166666666666, 1.83333333333332, 7.33333333333333));
#40 = CARTESIAN_POINT ('', (-74., 1.74999999999998, 6.99999999999998));
#41 = CARTESIAN_POINT ('', (-73.75, -5.99999999999999, 3.99999999999997));
#42 = CARTESIAN_POINT ('', (-73.8333333333335, -5.74999999999997, 3.8333333333333));
#43 = CARTESIAN_POINT ('', (-73.9166666666666, -5.5, 3.66666666666665));
#44 = CARTESIAN_POINT ('', (-74., -5.24999999999999, 3.49999999999997));
#45 = CARTESIAN_POINT ('', (-73.75, -5.99999999999997, -4.00000000000001));
#46 = CARTESIAN_POINT ('', (-73.8333333333335, -5.74999999999996, -3.83333333333333));
#47 = CARTESIAN_POINT ('', (-73.9166666666666, -5.49999999999998, -3.66666666666668));
#48 = CARTESIAN_POINT ('', (-74., -5.24999999999997, -3.50000000000001));
#49 = CARTESIAN_POINT ('', (-73.75, 2.00000000000002, -7.99999999999998));
#50 = CARTESIAN_POINT ('', (-73.8333333333335, 1.91666666666668, -7.66666666666663));
#51 = CARTESIAN_POINT ('', (-73.9166666666666, 1.83333333333335, -7.33333333333333));
#52 = CARTESIAN_POINT ('', (-74., 1.75000000000002, -6.99999999999998));
#53 = CARTESIAN_POINT ('', (-73.75, 2., -4.89858719658941E-16));
#54 = CARTESIAN_POINT ('', (-73.8333333333335, 1.91666666666666, -4.6944793967315E-16));
#55 = CARTESIAN_POINT ('', (-73.9166666666666, 1.83333333333334, -4.49037159687363E-16));
#56 = CARTESIAN_POINT ('', (-74., 1.75, -4.28626379701572E-16));
#57 = (
   BOUNDED_SURFACE ()
   B_SPLINE_SURFACE (5, 3, ((#33, #34, #35, #36), (#37, #38, #39, #40), (#41, #42, #43, #44), (#45, #46, #47, #48), (#49, #50, #51, #52), (#53, #54, #55, #56)), .UNSPECIFIED., .T., .F., .U.)
   B_SPLINE_SURFACE_WITH_KNOTS ((6, 6), (4, 4), (0., 1.), (0., 1.), .UNSPECIFIED.)
   SURFACE ()
   GEOMETRIC_REPRESENTATION_ITEM ()
   RATIONAL_B_SPLINE_SURFACE (((5., 5., 5., 5.), (1., 1., 1., 1.), (1., 1., 1., 1.), (1., 1., 1., 1.), (1., 1., 1., 1.), (5., 5., 5., 5.)))
   REPRESENTATION_ITEM ('')
);
#58 = ADVANCED_FACE ('', (#32), #57, .F.);
#59 = CARTESIAN_POINT ('', (-74., 4.53119315684521E-15, -4.53119315684521E-15));
#60 = VERTEX_POINT ('', #59);
#61 = CARTESIAN_POINT ('', (-74., 1.75, -4.28626379701572E-16));
#62 = CARTESIAN_POINT ('', (-74., 1.16666666666667, -2.85750919801048E-16));
#63 = CARTESIAN_POINT ('', (-74., 0.583333333333333, -1.42875459900524E-16));
#64 = CARTESIAN_POINT ('', (-74., 4.53119315684521E-15, -4.53119315684521E-15));
#65 = B_SPLINE_CURVE_WITH_KNOTS ('', 3, (#61, #62, #63, #64), .UNSPECIFIED., .F., .U., (4, 4), (0., 1.), .UNSPECIFIED.);
#66 = EDGE_CURVE ('', #4, #60, #65, .T.);
#67 = ORIENTED_EDGE ('', *, *, #66, .F.);
#68 = ORIENTED_EDGE ('', *, *, #29, .T.);
#69 = ORIENTED_EDGE ('', *, *, #66, .T.);
#70 = EDGE_LOOP ('', (#67, #68, #69));
#71 = FACE_OUTER_BOUND ('', #70, .F.);
#72 = CARTESIAN_POINT ('', (-74., 1.75, -4.28626379701572E-16));
#73 = CARTESIAN_POINT ('', (-74., 1.16666666666667, -2.85750919801048E-16));
#74 = CARTESIAN_POINT ('', (-74., 0.583333333333333, -1.42875459900524E-16));
#75 = CARTESIAN_POINT ('', (-74., 4.53119315684521E-15, -4.53119315684521E-15));
#76 = CARTESIAN_POINT ('', (-74., 1.74999999999998, 6.99999999999998));
#77 = CARTESIAN_POINT ('', (-74., 1.16666666666665, 4.66666666666665));
#78 = CARTESIAN_POINT ('', (-74., 0.583333333333316, 2.33333333333332));
#79 = CARTESIAN_POINT ('', (-74., 4.53119315684521E-15, -4.53119315684521E-15));
#80 = CARTESIAN_POINT ('', (-74., -5.24999999999999, 3.49999999999997));
#81 = CARTESIAN_POINT ('', (-74., -3.49999999999999, 2.33333333333331));
#82 = CARTESIAN_POINT ('', (-74., -1.74999999999999, 1.16666666666664));
#83 = CARTESIAN_POINT ('', (-74., 4.53119315684521E-15, -4.53119315684521E-15));
#84 = CARTESIAN_POINT ('', (-74., -5.24999999999997, -3.50000000000001));
#85 = CARTESIAN_POINT ('', (-74., -3.49999999999998, -2.33333333333334));
#86 = CARTESIAN_POINT ('', (-74., -1.74999999999997, -1.16666666666668));
#87 = CARTESIAN_POINT ('', (-74., 4.53119315684521E-15, -4.53119315684521E-15));
#88 = CARTESIAN_POINT ('', (-74., 1.75000000000002, -6.99999999999998));
#89 = CARTESIAN_POINT ('', (-74., 1.16666666666668, -4.66666666666665));
#90 = CARTESIAN_POINT ('', (-74., 0.583333333333351, -2.33333333333332));
#91 = CARTESIAN_POINT ('', (-74., 4.53119315684521E-15, -4.53119315684521E-15));
#92 = CARTESIAN_POINT ('', (-74., 1.75, -4.28626379701572E-16));
#93 = CARTESIAN_POINT ('', (-74., 1.16666666666667, -2.85750919801048E-16));
#94 = CARTESIAN_POINT ('', (-74., 0.583333333333333, -1.42875459900524E-16));
#95 = CARTESIAN_POINT ('', (-74., 4.53119315684521E-15, -4.53119315684521E-15));
#96 = (
   BOUNDED_SURFACE ()
   B_SPLINE_SURFACE (5, 3, ((#72, #73, #74, #75), (#76, #77, #78, #79), (#80, #81, #82, #83), (#84, #85, #86, #87), (#88, #89, #90, #91), (#92, #93, #94, #95)), .UNSPECIFIED., .T., .F., .U.)
   B_SPLINE_SURFACE_WITH_KNOTS ((6, 6), (4, 4), (0., 1.), (0., 1.), .UNSPECIFIED.)
   SURFACE ()
   GEOMETRIC_REPRESENTATION_ITEM ()
   RATIONAL_B_SPLINE_SURFACE (((5., 5., 5., 5.), (1., 1., 1., 1.), (1., 1., 1., 1.), (1., 1., 1., 1.), (1., 1., 1., 1.), (5., 5., 5., 5.)))
   REPRESENTATION_ITEM ('')
);
#97 = ADVANCED_FACE ('', (#71), #96, .F.);
#98 = CARTESIAN_POINT ('', (-36., 2., -4.89858719658941E-16));
#99 = VERTEX_POINT ('', #98);
#100 = CARTESIAN_POINT ('', (-36., 2., -4.89858719658941E-16));
#101 = CARTESIAN_POINT ('', (-48.5833333333332, 2., -4.8985871965894E-16));
#102 = CARTESIAN_POINT ('', (-61.1666666666665, 2., -4.89858719658941E-16));
#103 = CARTESIAN_POINT ('', (-73.75, 2., -4.89858719658941E-16));
#104 = B_SPLINE_CURVE_WITH_KNOTS ('', 3, (#100, #101, #102, #103), .UNSPECIFIED., .F., .U., (4, 4), (0., 1.), .UNSPECIFIED.);
#105 = EDGE_CURVE ('', #99, #2, #104, .T.);
#106 = ORIENTED_EDGE ('', *, *, #105, .F.);
#107 = CARTESIAN_POINT ('', (-36., 2., -4.89858719658941E-16));
#108 = CARTESIAN_POINT ('', (-36., 1.99999999999999, 7.99999999999999));
#109 = CARTESIAN_POINT ('', (-36., -5.99999999999999, 3.99999999999999));
#110 = CARTESIAN_POINT ('', (-36., -5.99999999999999, -4.));
#111 = CARTESIAN_POINT ('', (-36., 2.00000000000001, -7.99999999999999));
#112 = CARTESIAN_POINT ('', (-36., 2., -4.89858719658941E-16));
#113 = (
   BOUNDED_CURVE ()
   B_SPLINE_CURVE (5, (#107, #108, #109, #110, #111, #112), .UNSPECIFIED., .T., .U.)
   B_SPLINE_CURVE_WITH_KNOTS ((6, 6), (0., 1.), .UNSPECIFIED.)
   CURVE ()
   GEOMETRIC_REPRESENTATION_ITEM ()
   RATIONAL_B_SPLINE_CURVE ((5., 1., 1., 1., 1., 5.))
   REPRESENTATION_ITEM ('')
);
#114 = EDGE_CURVE ('', #99, #99, #113, .T.);
#115 = ORIENTED_EDGE ('', *, *, #114, .T.);
#116 = ORIENTED_EDGE ('', *, *, #105, .T.);
#117 = ORIENTED_EDGE ('', *, *, #19, .F.);
#118 = EDGE_LOOP ('', (#106, #115, #116, #117));
#119 = FACE_OUTER_BOUND ('', #118, .F.);
#120 = CARTESIAN_POINT ('', (-36., 2., -4.89858719658941E-16));
#121 = CARTESIAN_POINT ('', (-48.5833333333332, 2., -4.8985871965894E-16));
#122 = CARTESIAN_POINT ('', (-61.1666666666665, 2., -4.89858719658941E-16));
#123 = CARTESIAN_POINT ('', (-73.75, 2., -4.89858719658941E-16));
#124 = CARTESIAN_POINT ('', (-36., 1.99999999999999, 7.99999999999999));
#125 = CARTESIAN_POINT ('', (-48.5833333333332, 1.99999999999999, 7.99999999999999));
#126 = CARTESIAN_POINT ('', (-61.1666666666665, 1.99999999999999, 7.99999999999998));
#127 = CARTESIAN_POINT ('', (-73.75, 1.99999999999998, 7.99999999999998));
#128 = CARTESIAN_POINT ('', (-36., -5.99999999999999, 3.99999999999999));
#129 = CARTESIAN_POINT ('', (-48.5833333333332, -5.99999999999999, 3.99999999999998));
#130 = CARTESIAN_POINT ('', (-61.1666666666665, -5.99999999999999, 3.99999999999998));
#131 = CARTESIAN_POINT ('', (-73.75, -5.99999999999999, 3.99999999999997));
#132 = CARTESIAN_POINT ('', (-36., -5.99999999999999, -4.));
#133 = CARTESIAN_POINT ('', (-48.5833333333332, -5.99999999999998, -4.));
#134 = CARTESIAN_POINT ('', (-61.1666666666665, -5.99999999999998, -4.00000000000001));
#135 = CARTESIAN_POINT ('', (-73.75, -5.99999999999997, -4.00000000000001));
#136 = CARTESIAN_POINT ('', (-36., 2.00000000000001, -7.99999999999999));
#137 = CARTESIAN_POINT ('', (-48.5833333333332, 2.00000000000001, -7.99999999999999));
#138 = CARTESIAN_POINT ('', (-61.1666666666665, 2.00000000000001, -7.99999999999998));
#139 = CARTESIAN_POINT ('', (-73.75, 2.00000000000002, -7.99999999999998));
#140 = CARTESIAN_POINT ('', (-36., 2., -4.89858719658941E-16));
#141 = CARTESIAN_POINT ('', (-48.5833333333332, 2., -4.8985871965894E-16));
#142 = CARTESIAN_POINT ('', (-61.1666666666665, 2., -4.89858719658941E-16));
#143 = CARTESIAN_POINT ('', (-73.75, 2., -4.89858719658941E-16));
#144 = (
   BOUNDED_SURFACE ()
   B_SPLINE_SURFACE (5, 3, ((#120, #121, #122, #123), (#124, #125, #126, #127), (#128, #129, #130, #131), (#132, #133, #134, #135), (#136, #137, #138, #139), (#140, #141, #142, #143)), .UNSPECIFIED., .T., .F., .U.)
   B_SPLINE_SURFACE_WITH_KNOTS ((6, 6), (4, 4), (0., 1.), (0., 1.), .UNSPECIFIED.)
   SURFACE ()
   GEOMETRIC_REPRESENTATION_ITEM ()
   RATIONAL_B_SPLINE_SURFACE (((5., 5., 5., 5.), (1., 1., 1., 1.), (1., 1., 1., 1.), (1., 1., 1., 1.), (1., 1., 1., 1.), (5., 5., 5., 5.)))
   REPRESENTATION_ITEM ('')
);
#145 = ADVANCED_FACE ('', (#119), #144, .F.);
#146 = CARTESIAN_POINT ('', (-0.727940468532404, 2., -4.89858719658941E-16));
#147 = VERTEX_POINT ('', #146);
#148 = CARTESIAN_POINT ('', (-0.727940468532404, 2., -4.89858719658941E-16));
#149 = CARTESIAN_POINT ('', (-12.4852936456883, 2., -4.89858719658941E-16));
#150 = CARTESIAN_POINT ('', (-24.242646822844, 2., -4.89858719658941E-16));
#151 = CARTESIAN_POINT ('', (-36., 2., -4.89858719658941E-16));
#152 = B_SPLINE_CURVE_WITH_KNOTS ('', 3, (#148, #149, #150, #151), .UNSPECIFIED., .F., .U., (4, 4), (0., 1.), .UNSPECIFIED.);
#153 = EDGE_CURVE ('', #147, #99, #152, .T.);
#154 = ORIENTED_EDGE ('', *, *, #153, .F.);
#155 = CARTESIAN_POINT ('', (-0.727940468532404, 2., -4.89858719658941E-16));
#156 = CARTESIAN_POINT ('', (-0.727940468532405, 2., 8.));
#157 = CARTESIAN_POINT ('', (-0.727940468532405, -6., 4.));
#158 = CARTESIAN_POINT ('', (-0.727940468532405, -6., -4.));
#159 = CARTESIAN_POINT ('', (-0.727940468532404, 2., -8.));
#160 = CARTESIAN_POINT ('', (-0.727940468532404, 2., -4.89858719658941E-16));
#161 = (
   BOUNDED_CURVE ()
   B_SPLINE_CURVE (5, (#155, #156, #157, #158, #159, #160), .UNSPECIFIED., .T., .U.)
   B_SPLINE_CURVE_WITH_KNOTS ((6, 6), (0., 1.), .UNSPECIFIED.)
   CURVE ()
   GEOMETRIC_REPRESENTATION_ITEM ()
   RATIONAL_B_SPLINE_CURVE ((5., 1., 1., 1., 1., 5.))
   REPRESENTATION_ITEM ('')
);
#162 = EDGE_CURVE ('', #147, #147, #161, .T.);
#163 = ORIENTED_EDGE ('', *, *, #162, .T.);
#164 = ORIENTED_EDGE ('', *, *, #153, .T.);
#165 = ORIENTED_EDGE ('', *, *, #114, .F.);
#166 = EDGE_LOOP ('', (#154, #163, #164, #165));
#167 = FACE_OUTER_BOUND ('', #166, .F.);
#168 = CARTESIAN_POINT ('', (-0.727940468532404, 2., -4.89858719658941E-16));
#169 = CARTESIAN_POINT ('', (-12.4852936456883, 2., -4.89858719658941E-16));
#170 = CARTESIAN_POINT ('', (-24.242646822844, 2., -4.89858719658941E-16));
#171 = CARTESIAN_POINT ('', (-36., 2., -4.89858719658941E-16));
#172 = CARTESIAN_POINT ('', (-0.727940468532405, 2., 8.));
#173 = CARTESIAN_POINT ('', (-12.4852936456883, 2., 8.));
#174 = CARTESIAN_POINT ('', (-24.242646822844, 2., 7.99999999999999));
#175 = CARTESIAN_POINT ('', (-36., 1.99999999999999, 7.99999999999999));
#176 = CARTESIAN_POINT ('', (-0.727940468532405, -6., 4.));
#177 = CARTESIAN_POINT ('', (-12.4852936456883, -6., 4.));
#178 = CARTESIAN_POINT ('', (-24.242646822844, -6., 3.99999999999999));
#179 = CARTESIAN_POINT ('', (-36., -5.99999999999999, 3.99999999999999));
#180 = CARTESIAN_POINT ('', (-0.727940468532405, -6., -4.));
#181 = CARTESIAN_POINT ('', (-12.4852936456883, -6., -4.));
#182 = CARTESIAN_POINT ('', (-24.242646822844, -5.99999999999999, -4.));
#183 = CARTESIAN_POINT ('', (-36., -5.99999999999999, -4.));
#184 = CARTESIAN_POINT ('', (-0.727940468532404, 2., -8.));
#185 = CARTESIAN_POINT ('', (-12.4852936456883, 2., -8.));
#186 = CARTESIAN_POINT ('', (-24.242646822844, 2., -7.99999999999999));
#187 = CARTESIAN_POINT ('', (-36., 2.00000000000001, -7.99999999999999));
#188 = CARTESIAN_POINT ('', (-0.727940468532404, 2., -4.89858719658941E-16));
#189 = CARTESIAN_POINT ('', (-12.4852936456883, 2., -4.89858719658941E-16));
#190 = CARTESIAN_POINT ('', (-24.242646822844, 2., -4.89858719658941E-16));
#191 = CARTESIAN_POINT ('', (-36., 2., -4.89858719658941E-16));
#192 = (
   BOUNDED_SURFACE ()
   B_SPLINE_SURFACE (5, 3, ((#168, #169, #170, #171), (#172, #173, #174, #175), (#176, #177, #178, #179), (#180, #181, #182, #183), (#184, #185, #186, #187), (#188, #189, #190, #191)), .UNSPECIFIED., .T., .F., .U.)
   B_SPLINE_SURFACE_WITH_KNOTS ((6, 6), (4, 4), (0., 1.), (0., 1.), .UNSPECIFIED.)
   SURFACE ()
   GEOMETRIC_REPRESENTATION_ITEM ()
   RATIONAL_B_SPLINE_SURFACE (((5., 5., 5., 5.), (1., 1., 1., 1.), (1., 1., 1., 1.), (1., 1., 1., 1.), (1., 1., 1., 1.), (5., 5., 5., 5.)))
   REPRESENTATION_ITEM ('')
);
#193 = ADVANCED_FACE ('', (#167), #192, .F.);
#194 = CARTESIAN_POINT ('', (0., 0., 0.));
#195 = VERTEX_POINT ('', #194);
#196 = CARTESIAN_POINT ('', (0., 0., 0.));
#197 = CARTESIAN_POINT ('', (-0.242646822844135, 0.666666666666667, -1.63286239886314E-16));
#198 = CARTESIAN_POINT ('', (-0.485293645688269, 1.33333333333333, -3.26572479772627E-16));
#199 = CARTESIAN_POINT ('', (-0.727940468532404, 2., -4.89858719658941E-16));
#200 = B_SPLINE_CURVE_WITH_KNOTS ('', 3, (#196, #197, #198, #199), .UNSPECIFIED., .F., .U., (4, 4), (0., 1.), .UNSPECIFIED.);
#201 = EDGE_CURVE ('', #195, #147, #200, .T.);
#202 = ORIENTED_EDGE ('', *, *, #201, .F.);
#203 = ORIENTED_EDGE ('', *, *, #201, .T.);
#204 = ORIENTED_EDGE ('', *, *, #162, .F.);
#205 = EDGE_LOOP ('', (#202, #203, #204));
#206 = FACE_OUTER_BOUND ('', #205, .F.);
#207 = CARTESIAN_POINT ('', (0., 0., 0.));
#208 = CARTESIAN_POINT ('', (-0.242646822844135, 0.666666666666667, -1.63286239886314E-16));
#209 = CARTESIAN_POINT ('', (-0.485293645688269, 1.33333333333333, -3.26572479772627E-16));
#210 = CARTESIAN_POINT ('', (-0.727940468532404, 2., -4.89858719658941E-16));
#211 = CARTESIAN_POINT ('', (0., 0., 0.));
#212 = CARTESIAN_POINT ('', (-0.242646822844135, 0.666666666666667, 2.66666666666667));
#213 = CARTESIAN_POINT ('', (-0.485293645688269, 1.33333333333333, 5.33333333333333));
#214 = CARTESIAN_POINT ('', (-0.727940468532405, 2., 8.));
#215 = CARTESIAN_POINT ('', (0., 0., 0.));
#216 = CARTESIAN_POINT ('', (-0.242646822844135, -2., 1.33333333333333));
#217 = CARTESIAN_POINT ('', (-0.485293645688269, -4., 2.66666666666667));
#218 = CARTESIAN_POINT ('', (-0.727940468532405, -6., 4.));
#219 = CARTESIAN_POINT ('', (0., 0., 0.));
#220 = CARTESIAN_POINT ('', (-0.242646822844135, -2., -1.33333333333333));
#221 = CARTESIAN_POINT ('', (-0.485293645688269, -4., -2.66666666666667));
#222 = CARTESIAN_POINT ('', (-0.727940468532405, -6., -4.));
#223 = CARTESIAN_POINT ('', (0., 0., 0.));
#224 = CARTESIAN_POINT ('', (-0.242646822844135, 0.666666666666666, -2.66666666666667));
#225 = CARTESIAN_POINT ('', (-0.485293645688268, 1.33333333333333, -5.33333333333333));
#226 = CARTESIAN_POINT ('', (-0.727940468532404, 2., -8.));
#227 = CARTESIAN_POINT ('', (0., 0., 0.));
#228 = CARTESIAN_POINT ('', (-0.242646822844135, 0.666666666666667, -1.63286239886314E-16));
#229 = CARTESIAN_POINT ('', (-0.485293645688269, 1.33333333333333, -3.26572479772627E-16));
#230 = CARTESIAN_POINT ('', (-0.727940468532404, 2., -4.89858719658941E-16));
#231 = (
   BOUNDED_SURFACE ()
   B_SPLINE_SURFACE (5, 3, ((#207, #208, #209, #210), (#211, #212, #213, #214), (#215, #216, #217, #218), (#219, #220, #221, #222), (#223, #224, #225, #226), (#227, #228, #229, #230)), .UNSPECIFIED., .T., .F., .U.)
   B_SPLINE_SURFACE_WITH_KNOTS ((6, 6), (4, 4), (0., 1.), (0., 1.), .UNSPECIFIED.)
   SURFACE ()
   GEOMETRIC_REPRESENTATION_ITEM ()
   RATIONAL_B_SPLINE_SURFACE (((5., 5., 5., 5.), (1., 1., 1., 1.), (1., 1., 1., 1.), (1., 1., 1., 1.), (1., 1., 1., 1.), (5., 5., 5., 5.)))
   REPRESENTATION_ITEM ('')
);
#232 = ADVANCED_FACE ('', (#206), #231, .F.);
#233 = CLOSED_SHELL ('', (#58, #97, #145, #193, #232));
#234 = MANIFOLD_SOLID_BREP ('', #233);
#235 = (
   LENGTH_UNIT ()
   NAMED_UNIT (*)
   SI_UNIT (.MILLI., .METRE.)
);
#236 = (
   NAMED_UNIT (*)
   SI_UNIT ($, .STERADIAN.)
   SOLID_ANGLE_UNIT ()
);
#237 = (
   NAMED_UNIT (*)
   SI_UNIT ($, .RADIAN.)
   PLANE_ANGLE_UNIT ()
);
#238 = UNCERTAINTY_MEASURE_WITH_UNIT (LENGTH_MEASURE(0.001), #235, 'DISTANCE_ACCURACY_VALUE', '');
#239 = (
   GEOMETRIC_REPRESENTATION_CONTEXT (3)
   GLOBAL_UNCERTAINTY_ASSIGNED_CONTEXT ((#238))
   GLOBAL_UNIT_ASSIGNED_CONTEXT ((#235, #236, #237))
   REPRESENTATION_CONTEXT ('', '3D')
);
#240 = SHAPE_REPRESENTATION ('', (), #239);
#241 = APPLICATION_CONTEXT ('configuration controlled 3D designs of mechanical parts and assemblies');
#242 = APPLICATION_PROTOCOL_DEFINITION ('International Standard', 'config_control_design', 1997, #241);
#243 = MECHANICAL_CONTEXT ('', #241, 'mechanical');
#244 = PRODUCT ('', '', '', (#243));
#245 = PERSON_AND_ORGANIZATION_ROLE ('design_owner');
#246 = PERSON ('', '', $, $, $, $);
#247 = ORGANIZATION ($, '', '');
#248 = PERSON_AND_ORGANIZATION (#246, #247);
#249 = CC_DESIGN_PERSON_AND_ORGANIZATION_ASSIGNMENT (#248, #245, (#244));
#250 = PRODUCT_RELATED_PRODUCT_CATEGORY ('detail', $, (#244));
#251 = PRODUCT_DEFINITION_FORMATION_WITH_SPECIFIED_SOURCE ('', '', #244, .NOT_KNOWN.);
#252 = APPROVAL_STATUS ('approved');
#253 = APPROVAL (#252, '');
#254 = CALENDAR_DATE (2021, 18, 3);
#255 = COORDINATED_UNIVERSAL_TIME_OFFSET (0, $, .AHEAD.);
#256 = LOCAL_TIME (14, 0, 12., #255);
#257 = DATE_AND_TIME (#254, #256);
#258 = APPROVAL_DATE_TIME (#257, #253);
#259 = APPROVAL_ROLE ('');
#260 = PERSON ('', '', $, $, $, $);
#261 = ORGANIZATION ($, '', '');
#262 = PERSON_AND_ORGANIZATION (#260, #261);
#263 = APPROVAL_PERSON_ORGANIZATION (#262, #253, #259);
#264 = CC_DESIGN_APPROVAL (#253, (#251));
#265 = PERSON_AND_ORGANIZATION_ROLE ('creator');
#266 = PERSON ('', '', $, $, $, $);
#267 = ORGANIZATION ($, '', '');
#268 = PERSON_AND_ORGANIZATION (#266, #267);
#269 = CC_DESIGN_PERSON_AND_ORGANIZATION_ASSIGNMENT (#268, #265, (#251));
#270 = PERSON_AND_ORGANIZATION_ROLE ('part_supplier');
#271 = PERSON ('', '', $, $, $, $);
#272 = ORGANIZATION ($, '', '');
#273 = PERSON_AND_ORGANIZATION (#271, #272);
#274 = CC_DESIGN_PERSON_AND_ORGANIZATION_ASSIGNMENT (#273, #270, (#251));
#275 = SECURITY_CLASSIFICATION_LEVEL ('unclassified');
#276 = SECURITY_CLASSIFICATION ('', '', #275);
#277 = APPROVAL_STATUS ('approved');
#278 = APPROVAL (#277, '');
#279 = CALENDAR_DATE (2021, 18, 3);
#280 = COORDINATED_UNIVERSAL_TIME_OFFSET (0, $, .AHEAD.);
#281 = LOCAL_TIME (14, 0, 12., #280);
#282 = DATE_AND_TIME (#279, #281);
#283 = APPROVAL_DATE_TIME (#282, #278);
#284 = APPROVAL_ROLE ('');
#285 = PERSON ('', '', $, $, $, $);
#286 = ORGANIZATION ($, '', '');
#287 = PERSON_AND_ORGANIZATION (#285, #286);
#288 = APPROVAL_PERSON_ORGANIZATION (#287, #278, #284);
#289 = CC_DESIGN_APPROVAL (#278, (#276));
#290 = DATE_TIME_ROLE ('classification_date');
#291 = CALENDAR_DATE (2021, 18, 3);
#292 = COORDINATED_UNIVERSAL_TIME_OFFSET (0, $, .AHEAD.);
#293 = LOCAL_TIME (14, 0, 12., #292);
#294 = DATE_AND_TIME (#291, #293);
#295 = CC_DESIGN_DATE_AND_TIME_ASSIGNMENT (#294, #290, (#276));
#296 = PERSON_AND_ORGANIZATION_ROLE ('classification_officer');
#297 = PERSON ('', '', $, $, $, $);
#298 = ORGANIZATION ($, '', '');
#299 = PERSON_AND_ORGANIZATION (#297, #298);
#300 = CC_DESIGN_PERSON_AND_ORGANIZATION_ASSIGNMENT (#299, #296, (#276));
#301 = CC_DESIGN_SECURITY_CLASSIFICATION (#276, (#251));
#302 = DESIGN_CONTEXT ('', #241, 'design');
#303 = PRODUCT_DEFINITION ('', '', #251, #302);
#304 = APPROVAL_STATUS ('approved');
#305 = APPROVAL (#304, '');
#306 = CALENDAR_DATE (2021, 18, 3);
#307 = COORDINATED_UNIVERSAL_TIME_OFFSET (0, $, .AHEAD.);
#308 = LOCAL_TIME (14, 0, 12., #307);
#309 = DATE_AND_TIME (#306, #308);
#310 = APPROVAL_DATE_TIME (#309, #305);
#311 = APPROVAL_ROLE ('');
#312 = PERSON ('', '', $, $, $, $);
#313 = ORGANIZATION ($, '', '');
#314 = PERSON_AND_ORGANIZATION (#312, #313);
#315 = APPROVAL_PERSON_ORGANIZATION (#314, #305, #311);
#316 = CC_DESIGN_APPROVAL (#305, (#303));
#317 = DATE_TIME_ROLE ('creation_date');
#318 = CALENDAR_DATE (2021, 18, 3);
#319 = COORDINATED_UNIVERSAL_TIME_OFFSET (0, $, .AHEAD.);
#320 = LOCAL_TIME (14, 0, 12., #319);
#321 = DATE_AND_TIME (#318, #320);
#322 = CC_DESIGN_DATE_AND_TIME_ASSIGNMENT (#321, #317, (#303));
#323 = PERSON_AND_ORGANIZATION_ROLE ('creator');
#324 = PERSON ('', '', $, $, $, $);
#325 = ORGANIZATION ($, '', '');
#326 = PERSON_AND_ORGANIZATION (#324, #325);
#327 = CC_DESIGN_PERSON_AND_ORGANIZATION_ASSIGNMENT (#326, #323, (#303));
#328 = PRODUCT_DEFINITION_SHAPE ('', '', #303);
#329 = SHAPE_DEFINITION_REPRESENTATION (#328, #240);
#330 = SHAPE_REPRESENTATION_RELATIONSHIP ('', '', #240, #331);
#331 = ADVANCED_BREP_SHAPE_REPRESENTATION ('', (#234), #239);
ENDSEC;
END-ISO-10303-21;
