ISO-10303-21;
HEADER;
FILE_DESCRIPTION ((), '1');
FILE_NAME ('C:\\Users\\kevin\\CXD, SR &CR\\CXD__ 1280AP.STP', '2021-03-19T09:28:13', ('Unknown'), ('m.a.ford europe'), 'OneCNC-XR8 Mill 3D Expert', 'OneCNC-XR8 Mill 3D Expert', '');
FILE_SCHEMA (('CONFIG_CONTROL_DESIGN'));
ENDSEC;

DATA;
#1 = CARTESIAN_POINT ('', (-77., 6.4, 0.));
#2 = CARTESIAN_POINT ('', (-77., 7., 0.));
#3 = B_SPLINE_CURVE_WITH_KNOTS ('', 1, (#1, #2), .UNSPECIFIED., .F., .U., (2, 2), (0., 1.), .UNSPECIFIED.);
#4 = GEOMETRIC_CURVE_SET ('', (#3, #7, #10, #13, #16, #19));
#5 = CARTESIAN_POINT ('', (-77., 7., 0.));
#6 = CARTESIAN_POINT ('', (-123.75, 7., 0.));
#7 = B_SPLINE_CURVE_WITH_KNOTS ('', 1, (#5, #6), .UNSPECIFIED., .F., .U., (2, 2), (0., 1.), .UNSPECIFIED.);
#8 = CARTESIAN_POINT ('', (-124., 6.75, 0.));
#9 = CARTESIAN_POINT ('', (-124., 0., 0.));
#10 = B_SPLINE_CURVE_WITH_KNOTS ('', 1, (#8, #9), .UNSPECIFIED., .F., .U., (2, 2), (0., 1.), .UNSPECIFIED.);
#11 = CARTESIAN_POINT ('', (-123.75, 7., 0.));
#12 = CARTESIAN_POINT ('', (-124., 6.75, 0.));
#13 = B_SPLINE_CURVE_WITH_KNOTS ('', 1, (#11, #12), .UNSPECIFIED., .F., .U., (2, 2), (0., 1.), .UNSPECIFIED.);
#14 = CARTESIAN_POINT ('', (0., 0., 0.));
#15 = CARTESIAN_POINT ('', (-2.32940949930369, 6.4, 0.));
#16 = B_SPLINE_CURVE_WITH_KNOTS ('', 1, (#14, #15), .UNSPECIFIED., .F., .U., (2, 2), (0., 1.), .UNSPECIFIED.);
#17 = CARTESIAN_POINT ('', (-2.32940949930369, 6.4, 0.));
#18 = CARTESIAN_POINT ('', (-77., 6.4, 0.));
#19 = B_SPLINE_CURVE_WITH_KNOTS ('', 1, (#17, #18), .UNSPECIFIED., .F., .U., (2, 2), (0., 1.), .UNSPECIFIED.);
#20 = CARTESIAN_POINT ('', (-123.75, 7., -1.71450551880629E-15));
#21 = VERTEX_POINT ('', #20);
#22 = CARTESIAN_POINT ('', (-124., 6.75, -1.65327317884892E-15));
#23 = VERTEX_POINT ('', #22);
#24 = CARTESIAN_POINT ('', (-123.75, 7., -1.71450551880629E-15));
#25 = CARTESIAN_POINT ('', (-123.833333333333, 6.91666666666665, -1.6940947388205E-15));
#26 = CARTESIAN_POINT ('', (-123.916666666667, 6.83333333333333, -1.67368395883471E-15));
#27 = CARTESIAN_POINT ('', (-124., 6.75, -1.65327317884892E-15));
#28 = B_SPLINE_CURVE_WITH_KNOTS ('', 3, (#24, #25, #26, #27), .UNSPECIFIED., .F., .U., (4, 4), (0., 1.), .UNSPECIFIED.);
#29 = EDGE_CURVE ('', #21, #23, #28, .T.);
#30 = ORIENTED_EDGE ('', *, *, #29, .F.);
#31 = CARTESIAN_POINT ('', (-123.75, 7., -1.71450551880629E-15));
#32 = CARTESIAN_POINT ('', (-123.75, 6.99999999999998, 28.));
#33 = CARTESIAN_POINT ('', (-123.75, -21., 14.));
#34 = CARTESIAN_POINT ('', (-123.75, -21., -14.));
#35 = CARTESIAN_POINT ('', (-123.75, 7.00000000000002, -28.));
#36 = CARTESIAN_POINT ('', (-123.75, 7., -1.71450551880629E-15));
#37 = (
   BOUNDED_CURVE ()
   B_SPLINE_CURVE (5, (#31, #32, #33, #34, #35, #36), .UNSPECIFIED., .T., .U.)
   B_SPLINE_CURVE_WITH_KNOTS ((6, 6), (0., 1.), .UNSPECIFIED.)
   CURVE ()
   GEOMETRIC_REPRESENTATION_ITEM ()
   RATIONAL_B_SPLINE_CURVE ((5., 1., 1., 1., 1., 5.))
   REPRESENTATION_ITEM ('')
);
#38 = EDGE_CURVE ('', #21, #21, #37, .T.);
#39 = ORIENTED_EDGE ('', *, *, #38, .T.);
#40 = ORIENTED_EDGE ('', *, *, #29, .T.);
#41 = CARTESIAN_POINT ('', (-124., 6.75, -1.65327317884892E-15));
#42 = CARTESIAN_POINT ('', (-124., 6.74999999999998, 27.));
#43 = CARTESIAN_POINT ('', (-124., -20.25, 13.5));
#44 = CARTESIAN_POINT ('', (-124., -20.25, -13.5));
#45 = CARTESIAN_POINT ('', (-124., 6.75000000000002, -27.));
#46 = CARTESIAN_POINT ('', (-124., 6.75, -1.65327317884892E-15));
#47 = (
   BOUNDED_CURVE ()
   B_SPLINE_CURVE (5, (#41, #42, #43, #44, #45, #46), .UNSPECIFIED., .T., .U.)
   B_SPLINE_CURVE_WITH_KNOTS ((6, 6), (0., 1.), .UNSPECIFIED.)
   CURVE ()
   GEOMETRIC_REPRESENTATION_ITEM ()
   RATIONAL_B_SPLINE_CURVE ((5., 1., 1., 1., 1., 5.))
   REPRESENTATION_ITEM ('')
);
#48 = EDGE_CURVE ('', #23, #23, #47, .T.);
#49 = ORIENTED_EDGE ('', *, *, #48, .F.);
#50 = EDGE_LOOP ('', (#30, #39, #40, #49));
#51 = FACE_OUTER_BOUND ('', #50, .F.);
#52 = CARTESIAN_POINT ('', (-123.75, 7., -1.71450551880629E-15));
#53 = CARTESIAN_POINT ('', (-123.833333333333, 6.91666666666665, -1.6940947388205E-15));
#54 = CARTESIAN_POINT ('', (-123.916666666667, 6.83333333333333, -1.67368395883471E-15));
#55 = CARTESIAN_POINT ('', (-124., 6.75, -1.65327317884892E-15));
#56 = CARTESIAN_POINT ('', (-123.75, 6.99999999999998, 28.));
#57 = CARTESIAN_POINT ('', (-123.833333333333, 6.91666666666663, 27.6666666666666));
#58 = CARTESIAN_POINT ('', (-123.916666666667, 6.83333333333331, 27.3333333333333));
#59 = CARTESIAN_POINT ('', (-124., 6.74999999999998, 27.));
#60 = CARTESIAN_POINT ('', (-123.75, -21., 14.));
#61 = CARTESIAN_POINT ('', (-123.833333333333, -20.7499999999999, 13.8333333333333));
#62 = CARTESIAN_POINT ('', (-123.916666666667, -20.5, 13.6666666666666));
#63 = CARTESIAN_POINT ('', (-124., -20.25, 13.5));
#64 = CARTESIAN_POINT ('', (-123.75, -21., -14.));
#65 = CARTESIAN_POINT ('', (-123.833333333333, -20.7499999999999, -13.8333333333333));
#66 = CARTESIAN_POINT ('', (-123.916666666667, -20.5, -13.6666666666667));
#67 = CARTESIAN_POINT ('', (-124., -20.25, -13.5));
#68 = CARTESIAN_POINT ('', (-123.75, 7.00000000000002, -28.));
#69 = CARTESIAN_POINT ('', (-123.833333333333, 6.91666666666668, -27.6666666666666));
#70 = CARTESIAN_POINT ('', (-123.916666666667, 6.83333333333336, -27.3333333333333));
#71 = CARTESIAN_POINT ('', (-124., 6.75000000000002, -27.));
#72 = CARTESIAN_POINT ('', (-123.75, 7., -1.71450551880629E-15));
#73 = CARTESIAN_POINT ('', (-123.833333333333, 6.91666666666665, -1.6940947388205E-15));
#74 = CARTESIAN_POINT ('', (-123.916666666667, 6.83333333333333, -1.67368395883471E-15));
#75 = CARTESIAN_POINT ('', (-124., 6.75, -1.65327317884892E-15));
#76 = (
   BOUNDED_SURFACE ()
   B_SPLINE_SURFACE (5, 3, ((#52, #53, #54, #55), (#56, #57, #58, #59), (#60, #61, #62, #63), (#64, #65, #66, #67), (#68, #69, #70, #71), (#72, #73, #74, #75)), .UNSPECIFIED., .T., .F., .U.)
   B_SPLINE_SURFACE_WITH_KNOTS ((6, 6), (4, 4), (0., 1.), (0., 1.), .UNSPECIFIED.)
   SURFACE ()
   GEOMETRIC_REPRESENTATION_ITEM ()
   RATIONAL_B_SPLINE_SURFACE (((5., 5., 5., 5.), (1., 1., 1., 1.), (1., 1., 1., 1.), (1., 1., 1., 1.), (1., 1., 1., 1.), (5., 5., 5., 5.)))
   REPRESENTATION_ITEM ('')
);
#77 = ADVANCED_FACE ('', (#51), #76, .F.);
#78 = CARTESIAN_POINT ('', (-124., 7.59281015471359E-15, -7.59281015471359E-15));
#79 = VERTEX_POINT ('', #78);
#80 = CARTESIAN_POINT ('', (-124., 6.75, -1.65327317884892E-15));
#81 = CARTESIAN_POINT ('', (-124., 4.5, -1.10218211923261E-15));
#82 = CARTESIAN_POINT ('', (-124., 2.25, -5.51091059616307E-16));
#83 = CARTESIAN_POINT ('', (-124., 7.59281015471359E-15, -7.59281015471359E-15));
#84 = B_SPLINE_CURVE_WITH_KNOTS ('', 3, (#80, #81, #82, #83), .UNSPECIFIED., .F., .U., (4, 4), (0., 1.), .UNSPECIFIED.);
#85 = EDGE_CURVE ('', #23, #79, #84, .T.);
#86 = ORIENTED_EDGE ('', *, *, #85, .F.);
#87 = ORIENTED_EDGE ('', *, *, #48, .T.);
#88 = ORIENTED_EDGE ('', *, *, #85, .T.);
#89 = EDGE_LOOP ('', (#86, #87, #88));
#90 = FACE_OUTER_BOUND ('', #89, .F.);
#91 = CARTESIAN_POINT ('', (-124., 6.75, -1.65327317884892E-15));
#92 = CARTESIAN_POINT ('', (-124., 4.5, -1.10218211923261E-15));
#93 = CARTESIAN_POINT ('', (-124., 2.25, -5.51091059616307E-16));
#94 = CARTESIAN_POINT ('', (-124., 7.59281015471359E-15, -7.59281015471359E-15));
#95 = CARTESIAN_POINT ('', (-124., 6.74999999999998, 27.));
#96 = CARTESIAN_POINT ('', (-124., 4.49999999999997, 18.));
#97 = CARTESIAN_POINT ('', (-124., 2.24999999999997, 8.99999999999997));
#98 = CARTESIAN_POINT ('', (-124., 7.59281015471359E-15, -7.59281015471359E-15));
#99 = CARTESIAN_POINT ('', (-124., -20.25, 13.5));
#100 = CARTESIAN_POINT ('', (-124., -13.5, 8.99999999999996));
#101 = CARTESIAN_POINT ('', (-124., -6.74999999999998, 4.49999999999996));
#102 = CARTESIAN_POINT ('', (-124., 7.59281015471359E-15, -7.59281015471359E-15));
#103 = CARTESIAN_POINT ('', (-124., -20.25, -13.5));
#104 = CARTESIAN_POINT ('', (-124., -13.5, -9.00000000000001));
#105 = CARTESIAN_POINT ('', (-124., -6.74999999999995, -4.50000000000001));
#106 = CARTESIAN_POINT ('', (-124., 7.59281015471359E-15, -7.59281015471359E-15));
#107 = CARTESIAN_POINT ('', (-124., 6.75000000000002, -27.));
#108 = CARTESIAN_POINT ('', (-124., 4.50000000000002, -18.));
#109 = CARTESIAN_POINT ('', (-124., 2.25000000000003, -8.99999999999997));
#110 = CARTESIAN_POINT ('', (-124., 7.59281015471359E-15, -7.59281015471359E-15));
#111 = CARTESIAN_POINT ('', (-124., 6.75, -1.65327317884892E-15));
#112 = CARTESIAN_POINT ('', (-124., 4.5, -1.10218211923261E-15));
#113 = CARTESIAN_POINT ('', (-124., 2.25, -5.51091059616307E-16));
#114 = CARTESIAN_POINT ('', (-124., 7.59281015471359E-15, -7.59281015471359E-15));
#115 = (
   BOUNDED_SURFACE ()
   B_SPLINE_SURFACE (5, 3, ((#91, #92, #93, #94), (#95, #96, #97, #98), (#99, #100, #101, #102), (#103, #104, #105, #106), (#107, #108, #109, #110), (#111, #112, #113, #114)), .UNSPECIFIED., .T., .F., .U.)
   B_SPLINE_SURFACE_WITH_KNOTS ((6, 6), (4, 4), (0., 1.), (0., 1.), .UNSPECIFIED.)
   SURFACE ()
   GEOMETRIC_REPRESENTATION_ITEM ()
   RATIONAL_B_SPLINE_SURFACE (((5., 5., 5., 5.), (1., 1., 1., 1.), (1., 1., 1., 1.), (1., 1., 1., 1.), (1., 1., 1., 1.), (5., 5., 5., 5.)))
   REPRESENTATION_ITEM ('')
);
#116 = ADVANCED_FACE ('', (#90), #115, .F.);
#117 = CARTESIAN_POINT ('', (-77., 7., -1.71450551880629E-15));
#118 = VERTEX_POINT ('', #117);
#119 = CARTESIAN_POINT ('', (-77., 7., -1.71450551880629E-15));
#120 = CARTESIAN_POINT ('', (-92.5833333333335, 7., -1.71450551880629E-15));
#121 = CARTESIAN_POINT ('', (-108.166666666667, 7.00000000000001, -1.71450551880629E-15));
#122 = CARTESIAN_POINT ('', (-123.75, 7., -1.71450551880629E-15));
#123 = B_SPLINE_CURVE_WITH_KNOTS ('', 3, (#119, #120, #121, #122), .UNSPECIFIED., .F., .U., (4, 4), (0., 1.), .UNSPECIFIED.);
#124 = EDGE_CURVE ('', #118, #21, #123, .T.);
#125 = ORIENTED_EDGE ('', *, *, #124, .F.);
#126 = CARTESIAN_POINT ('', (-77., 7., -1.71450551880629E-15));
#127 = CARTESIAN_POINT ('', (-77., 6.99999999999999, 28.));
#128 = CARTESIAN_POINT ('', (-77., -21., 14.));
#129 = CARTESIAN_POINT ('', (-77., -21., -14.));
#130 = CARTESIAN_POINT ('', (-77., 7.00000000000001, -28.));
#131 = CARTESIAN_POINT ('', (-77., 7., -1.71450551880629E-15));
#132 = (
   BOUNDED_CURVE ()
   B_SPLINE_CURVE (5, (#126, #127, #128, #129, #130, #131), .UNSPECIFIED., .T., .U.)
   B_SPLINE_CURVE_WITH_KNOTS ((6, 6), (0., 1.), .UNSPECIFIED.)
   CURVE ()
   GEOMETRIC_REPRESENTATION_ITEM ()
   RATIONAL_B_SPLINE_CURVE ((5., 1., 1., 1., 1., 5.))
   REPRESENTATION_ITEM ('')
);
#133 = EDGE_CURVE ('', #118, #118, #132, .T.);
#134 = ORIENTED_EDGE ('', *, *, #133, .T.);
#135 = ORIENTED_EDGE ('', *, *, #124, .T.);
#136 = ORIENTED_EDGE ('', *, *, #38, .F.);
#137 = EDGE_LOOP ('', (#125, #134, #135, #136));
#138 = FACE_OUTER_BOUND ('', #137, .F.);
#139 = CARTESIAN_POINT ('', (-77., 7., -1.71450551880629E-15));
#140 = CARTESIAN_POINT ('', (-92.5833333333335, 7., -1.71450551880629E-15));
#141 = CARTESIAN_POINT ('', (-108.166666666667, 7.00000000000001, -1.71450551880629E-15));
#142 = CARTESIAN_POINT ('', (-123.75, 7., -1.71450551880629E-15));
#143 = CARTESIAN_POINT ('', (-77., 6.99999999999999, 28.));
#144 = CARTESIAN_POINT ('', (-92.5833333333335, 6.99999999999999, 28.));
#145 = CARTESIAN_POINT ('', (-108.166666666667, 6.99999999999999, 28.));
#146 = CARTESIAN_POINT ('', (-123.75, 6.99999999999998, 28.));
#147 = CARTESIAN_POINT ('', (-77., -21., 14.));
#148 = CARTESIAN_POINT ('', (-92.5833333333335, -21., 14.));
#149 = CARTESIAN_POINT ('', (-108.166666666667, -21., 14.));
#150 = CARTESIAN_POINT ('', (-123.75, -21., 14.));
#151 = CARTESIAN_POINT ('', (-77., -21., -14.));
#152 = CARTESIAN_POINT ('', (-92.5833333333335, -21., -14.));
#153 = CARTESIAN_POINT ('', (-108.166666666667, -21., -14.));
#154 = CARTESIAN_POINT ('', (-123.75, -21., -14.));
#155 = CARTESIAN_POINT ('', (-77., 7.00000000000001, -28.));
#156 = CARTESIAN_POINT ('', (-92.5833333333335, 7.00000000000002, -28.));
#157 = CARTESIAN_POINT ('', (-108.166666666667, 7.00000000000003, -28.));
#158 = CARTESIAN_POINT ('', (-123.75, 7.00000000000002, -28.));
#159 = CARTESIAN_POINT ('', (-77., 7., -1.71450551880629E-15));
#160 = CARTESIAN_POINT ('', (-92.5833333333335, 7., -1.71450551880629E-15));
#161 = CARTESIAN_POINT ('', (-108.166666666667, 7.00000000000001, -1.71450551880629E-15));
#162 = CARTESIAN_POINT ('', (-123.75, 7., -1.71450551880629E-15));
#163 = (
   BOUNDED_SURFACE ()
   B_SPLINE_SURFACE (5, 3, ((#139, #140, #141, #142), (#143, #144, #145, #146), (#147, #148, #149, #150), (#151, #152, #153, #154), (#155, #156, #157, #158), (#159, #160, #161, #162)), .UNSPECIFIED., .T., .F., .U.)
   B_SPLINE_SURFACE_WITH_KNOTS ((6, 6), (4, 4), (0., 1.), (0., 1.), .UNSPECIFIED.)
   SURFACE ()
   GEOMETRIC_REPRESENTATION_ITEM ()
   RATIONAL_B_SPLINE_SURFACE (((5., 5., 5., 5.), (1., 1., 1., 1.), (1., 1., 1., 1.), (1., 1., 1., 1.), (1., 1., 1., 1.), (5., 5., 5., 5.)))
   REPRESENTATION_ITEM ('')
);
#164 = ADVANCED_FACE ('', (#138), #163, .F.);
#165 = CARTESIAN_POINT ('', (-77., 6.4, -1.56754790290861E-15));
#166 = VERTEX_POINT ('', #165);
#167 = CARTESIAN_POINT ('', (-77., 6.4, -1.56754790290861E-15));
#168 = CARTESIAN_POINT ('', (-76.9999999999997, 6.6, -1.61653377487451E-15));
#169 = CARTESIAN_POINT ('', (-77.0000000000001, 6.80000000000002, -1.6655196468404E-15));
#170 = CARTESIAN_POINT ('', (-77., 7., -1.71450551880629E-15));
#171 = B_SPLINE_CURVE_WITH_KNOTS ('', 3, (#167, #168, #169, #170), .UNSPECIFIED., .F., .U., (4, 4), (0., 1.), .UNSPECIFIED.);
#172 = EDGE_CURVE ('', #166, #118, #171, .T.);
#173 = ORIENTED_EDGE ('', *, *, #172, .F.);
#174 = CARTESIAN_POINT ('', (-77., 6.4, -1.56754790290861E-15));
#175 = CARTESIAN_POINT ('', (-77., 6.39999999999999, 25.6));
#176 = CARTESIAN_POINT ('', (-77., -19.2, 12.8));
#177 = CARTESIAN_POINT ('', (-77., -19.2, -12.8));
#178 = CARTESIAN_POINT ('', (-77., 6.40000000000001, -25.6));
#179 = CARTESIAN_POINT ('', (-77., 6.4, -1.56754790290861E-15));
#180 = (
   BOUNDED_CURVE ()
   B_SPLINE_CURVE (5, (#174, #175, #176, #177, #178, #179), .UNSPECIFIED., .T., .U.)
   B_SPLINE_CURVE_WITH_KNOTS ((6, 6), (0., 1.), .UNSPECIFIED.)
   CURVE ()
   GEOMETRIC_REPRESENTATION_ITEM ()
   RATIONAL_B_SPLINE_CURVE ((5., 1., 1., 1., 1., 5.))
   REPRESENTATION_ITEM ('')
);
#181 = EDGE_CURVE ('', #166, #166, #180, .T.);
#182 = ORIENTED_EDGE ('', *, *, #181, .T.);
#183 = ORIENTED_EDGE ('', *, *, #172, .T.);
#184 = ORIENTED_EDGE ('', *, *, #133, .F.);
#185 = EDGE_LOOP ('', (#173, #182, #183, #184));
#186 = FACE_OUTER_BOUND ('', #185, .F.);
#187 = CARTESIAN_POINT ('', (-77., 6.4, -1.56754790290861E-15));
#188 = CARTESIAN_POINT ('', (-76.9999999999997, 6.6, -1.61653377487451E-15));
#189 = CARTESIAN_POINT ('', (-77.0000000000001, 6.80000000000002, -1.6655196468404E-15));
#190 = CARTESIAN_POINT ('', (-77., 7., -1.71450551880629E-15));
#191 = CARTESIAN_POINT ('', (-77., 6.39999999999999, 25.6));
#192 = CARTESIAN_POINT ('', (-76.9999999999997, 6.59999999999999, 26.4));
#193 = CARTESIAN_POINT ('', (-77.0000000000001, 6.80000000000001, 27.2000000000001));
#194 = CARTESIAN_POINT ('', (-77., 6.99999999999999, 28.));
#195 = CARTESIAN_POINT ('', (-77., -19.2, 12.8));
#196 = CARTESIAN_POINT ('', (-76.9999999999997, -19.8, 13.2));
#197 = CARTESIAN_POINT ('', (-77.0000000000001, -20.4, 13.6));
#198 = CARTESIAN_POINT ('', (-77., -21., 14.));
#199 = CARTESIAN_POINT ('', (-77., -19.2, -12.8));
#200 = CARTESIAN_POINT ('', (-76.9999999999997, -19.8, -13.2));
#201 = CARTESIAN_POINT ('', (-77.0000000000001, -20.4, -13.6));
#202 = CARTESIAN_POINT ('', (-77., -21., -14.));
#203 = CARTESIAN_POINT ('', (-77., 6.40000000000001, -25.6));
#204 = CARTESIAN_POINT ('', (-76.9999999999997, 6.60000000000001, -26.4));
#205 = CARTESIAN_POINT ('', (-77.0000000000001, 6.80000000000003, -27.2000000000001));
#206 = CARTESIAN_POINT ('', (-77., 7.00000000000001, -28.));
#207 = CARTESIAN_POINT ('', (-77., 6.4, -1.56754790290861E-15));
#208 = CARTESIAN_POINT ('', (-76.9999999999997, 6.6, -1.61653377487451E-15));
#209 = CARTESIAN_POINT ('', (-77.0000000000001, 6.80000000000002, -1.6655196468404E-15));
#210 = CARTESIAN_POINT ('', (-77., 7., -1.71450551880629E-15));
#211 = (
   BOUNDED_SURFACE ()
   B_SPLINE_SURFACE (5, 3, ((#187, #188, #189, #190), (#191, #192, #193, #194), (#195, #196, #197, #198), (#199, #200, #201, #202), (#203, #204, #205, #206), (#207, #208, #209, #210)), .UNSPECIFIED., .T., .F., .U.)
   B_SPLINE_SURFACE_WITH_KNOTS ((6, 6), (4, 4), (0., 1.), (0., 1.), .UNSPECIFIED.)
   SURFACE ()
   GEOMETRIC_REPRESENTATION_ITEM ()
   RATIONAL_B_SPLINE_SURFACE (((5., 5., 5., 5.), (1., 1., 1., 1.), (1., 1., 1., 1.), (1., 1., 1., 1.), (1., 1., 1., 1.), (5., 5., 5., 5.)))
   REPRESENTATION_ITEM ('')
);
#212 = ADVANCED_FACE ('', (#186), #211, .F.);
#213 = CARTESIAN_POINT ('', (-2.32940949930369, 6.4, -1.56754790290861E-15));
#214 = VERTEX_POINT ('', #213);
#215 = CARTESIAN_POINT ('', (-2.32940949930369, 6.4, -1.56754790290861E-15));
#216 = CARTESIAN_POINT ('', (-27.2196063328691, 6.4, -1.56754790290861E-15));
#217 = CARTESIAN_POINT ('', (-52.1098031664349, 6.4, -1.56754790290861E-15));
#218 = CARTESIAN_POINT ('', (-77., 6.4, -1.56754790290861E-15));
#219 = B_SPLINE_CURVE_WITH_KNOTS ('', 3, (#215, #216, #217, #218), .UNSPECIFIED., .F., .U., (4, 4), (0., 1.), .UNSPECIFIED.);
#220 = EDGE_CURVE ('', #214, #166, #219, .T.);
#221 = ORIENTED_EDGE ('', *, *, #220, .F.);
#222 = CARTESIAN_POINT ('', (-2.32940949930369, 6.4, -1.56754790290861E-15));
#223 = CARTESIAN_POINT ('', (-2.3294094993037, 6.40000000000001, 25.6));
#224 = CARTESIAN_POINT ('', (-2.3294094993037, -19.2, 12.8));
#225 = CARTESIAN_POINT ('', (-2.32940949930369, -19.2, -12.8));
#226 = CARTESIAN_POINT ('', (-2.32940949930369, 6.4, -25.6));
#227 = CARTESIAN_POINT ('', (-2.32940949930369, 6.4, -1.56754790290861E-15));
#228 = (
   BOUNDED_CURVE ()
   B_SPLINE_CURVE (5, (#222, #223, #224, #225, #226, #227), .UNSPECIFIED., .T., .U.)
   B_SPLINE_CURVE_WITH_KNOTS ((6, 6), (0., 1.), .UNSPECIFIED.)
   CURVE ()
   GEOMETRIC_REPRESENTATION_ITEM ()
   RATIONAL_B_SPLINE_CURVE ((5., 1., 1., 1., 1., 5.))
   REPRESENTATION_ITEM ('')
);
#229 = EDGE_CURVE ('', #214, #214, #228, .T.);
#230 = ORIENTED_EDGE ('', *, *, #229, .T.);
#231 = ORIENTED_EDGE ('', *, *, #220, .T.);
#232 = ORIENTED_EDGE ('', *, *, #181, .F.);
#233 = EDGE_LOOP ('', (#221, #230, #231, #232));
#234 = FACE_OUTER_BOUND ('', #233, .F.);
#235 = CARTESIAN_POINT ('', (-2.32940949930369, 6.4, -1.56754790290861E-15));
#236 = CARTESIAN_POINT ('', (-27.2196063328691, 6.4, -1.56754790290861E-15));
#237 = CARTESIAN_POINT ('', (-52.1098031664349, 6.4, -1.56754790290861E-15));
#238 = CARTESIAN_POINT ('', (-77., 6.4, -1.56754790290861E-15));
#239 = CARTESIAN_POINT ('', (-2.3294094993037, 6.40000000000001, 25.6));
#240 = CARTESIAN_POINT ('', (-27.2196063328691, 6.4, 25.6));
#241 = CARTESIAN_POINT ('', (-52.1098031664349, 6.39999999999999, 25.6));
#242 = CARTESIAN_POINT ('', (-77., 6.39999999999999, 25.6));
#243 = CARTESIAN_POINT ('', (-2.3294094993037, -19.2, 12.8));
#244 = CARTESIAN_POINT ('', (-27.2196063328691, -19.2, 12.8));
#245 = CARTESIAN_POINT ('', (-52.1098031664349, -19.2, 12.8));
#246 = CARTESIAN_POINT ('', (-77., -19.2, 12.8));
#247 = CARTESIAN_POINT ('', (-2.32940949930369, -19.2, -12.8));
#248 = CARTESIAN_POINT ('', (-27.2196063328691, -19.2, -12.8));
#249 = CARTESIAN_POINT ('', (-52.1098031664349, -19.2, -12.8));
#250 = CARTESIAN_POINT ('', (-77., -19.2, -12.8));
#251 = CARTESIAN_POINT ('', (-2.32940949930369, 6.4, -25.6));
#252 = CARTESIAN_POINT ('', (-27.2196063328691, 6.4, -25.6));
#253 = CARTESIAN_POINT ('', (-52.1098031664349, 6.4, -25.6));
#254 = CARTESIAN_POINT ('', (-77., 6.40000000000001, -25.6));
#255 = CARTESIAN_POINT ('', (-2.32940949930369, 6.4, -1.56754790290861E-15));
#256 = CARTESIAN_POINT ('', (-27.2196063328691, 6.4, -1.56754790290861E-15));
#257 = CARTESIAN_POINT ('', (-52.1098031664349, 6.4, -1.56754790290861E-15));
#258 = CARTESIAN_POINT ('', (-77., 6.4, -1.56754790290861E-15));
#259 = (
   BOUNDED_SURFACE ()
   B_SPLINE_SURFACE (5, 3, ((#235, #236, #237, #238), (#239, #240, #241, #242), (#243, #244, #245, #246), (#247, #248, #249, #250), (#251, #252, #253, #254), (#255, #256, #257, #258)), .UNSPECIFIED., .T., .F., .U.)
   B_SPLINE_SURFACE_WITH_KNOTS ((6, 6), (4, 4), (0., 1.), (0., 1.), .UNSPECIFIED.)
   SURFACE ()
   GEOMETRIC_REPRESENTATION_ITEM ()
   RATIONAL_B_SPLINE_SURFACE (((5., 5., 5., 5.), (1., 1., 1., 1.), (1., 1., 1., 1.), (1., 1., 1., 1.), (1., 1., 1., 1.), (5., 5., 5., 5.)))
   REPRESENTATION_ITEM ('')
);
#260 = ADVANCED_FACE ('', (#234), #259, .F.);
#261 = CARTESIAN_POINT ('', (0., 0., 0.));
#262 = VERTEX_POINT ('', #261);
#263 = CARTESIAN_POINT ('', (0., 0., 0.));
#264 = CARTESIAN_POINT ('', (-0.776469833101231, 2.13333333333333, -5.22515967636204E-16));
#265 = CARTESIAN_POINT ('', (-1.55293966620246, 4.26666666666668, -1.04503193527241E-15));
#266 = CARTESIAN_POINT ('', (-2.32940949930369, 6.4, -1.56754790290861E-15));
#267 = B_SPLINE_CURVE_WITH_KNOTS ('', 3, (#263, #264, #265, #266), .UNSPECIFIED., .F., .U., (4, 4), (0., 1.), .UNSPECIFIED.);
#268 = EDGE_CURVE ('', #262, #214, #267, .T.);
#269 = ORIENTED_EDGE ('', *, *, #268, .F.);
#270 = ORIENTED_EDGE ('', *, *, #268, .T.);
#271 = ORIENTED_EDGE ('', *, *, #229, .F.);
#272 = EDGE_LOOP ('', (#269, #270, #271));
#273 = FACE_OUTER_BOUND ('', #272, .F.);
#274 = CARTESIAN_POINT ('', (0., 0., 0.));
#275 = CARTESIAN_POINT ('', (-0.776469833101231, 2.13333333333333, -5.22515967636204E-16));
#276 = CARTESIAN_POINT ('', (-1.55293966620246, 4.26666666666668, -1.04503193527241E-15));
#277 = CARTESIAN_POINT ('', (-2.32940949930369, 6.4, -1.56754790290861E-15));
#278 = CARTESIAN_POINT ('', (0., 0., 0.));
#279 = CARTESIAN_POINT ('', (-0.776469833101232, 2.13333333333334, 8.53333333333333));
#280 = CARTESIAN_POINT ('', (-1.55293966620246, 4.26666666666668, 17.0666666666667));
#281 = CARTESIAN_POINT ('', (-2.3294094993037, 6.40000000000001, 25.6));
#282 = CARTESIAN_POINT ('', (0., 0., 0.));
#283 = CARTESIAN_POINT ('', (-0.776469833101232, -6.4, 4.26666666666667));
#284 = CARTESIAN_POINT ('', (-1.55293966620246, -12.8, 8.53333333333336));
#285 = CARTESIAN_POINT ('', (-2.3294094993037, -19.2, 12.8));
#286 = CARTESIAN_POINT ('', (0., 0., 0.));
#287 = CARTESIAN_POINT ('', (-0.776469833101231, -6.4, -4.26666666666666));
#288 = CARTESIAN_POINT ('', (-1.55293966620246, -12.8, -8.53333333333336));
#289 = CARTESIAN_POINT ('', (-2.32940949930369, -19.2, -12.8));
#290 = CARTESIAN_POINT ('', (0., 0., 0.));
#291 = CARTESIAN_POINT ('', (-0.776469833101231, 2.13333333333333, -8.53333333333333));
#292 = CARTESIAN_POINT ('', (-1.55293966620246, 4.26666666666668, -17.0666666666667));
#293 = CARTESIAN_POINT ('', (-2.32940949930369, 6.4, -25.6));
#294 = CARTESIAN_POINT ('', (0., 0., 0.));
#295 = CARTESIAN_POINT ('', (-0.776469833101231, 2.13333333333333, -5.22515967636204E-16));
#296 = CARTESIAN_POINT ('', (-1.55293966620246, 4.26666666666668, -1.04503193527241E-15));
#297 = CARTESIAN_POINT ('', (-2.32940949930369, 6.4, -1.56754790290861E-15));
#298 = (
   BOUNDED_SURFACE ()
   B_SPLINE_SURFACE (5, 3, ((#274, #275, #276, #277), (#278, #279, #280, #281), (#282, #283, #284, #285), (#286, #287, #288, #289), (#290, #291, #292, #293), (#294, #295, #296, #297)), .UNSPECIFIED., .T., .F., .U.)
   B_SPLINE_SURFACE_WITH_KNOTS ((6, 6), (4, 4), (0., 1.), (0., 1.), .UNSPECIFIED.)
   SURFACE ()
   GEOMETRIC_REPRESENTATION_ITEM ()
   RATIONAL_B_SPLINE_SURFACE (((5., 5., 5., 5.), (1., 1., 1., 1.), (1., 1., 1., 1.), (1., 1., 1., 1.), (1., 1., 1., 1.), (5., 5., 5., 5.)))
   REPRESENTATION_ITEM ('')
);
#299 = ADVANCED_FACE ('', (#273), #298, .F.);
#300 = CLOSED_SHELL ('', (#77, #116, #164, #212, #260, #299));
#301 = MANIFOLD_SOLID_BREP ('', #300);
#302 = (
   LENGTH_UNIT ()
   NAMED_UNIT (*)
   SI_UNIT (.MILLI., .METRE.)
);
#303 = (
   NAMED_UNIT (*)
   SI_UNIT ($, .STERADIAN.)
   SOLID_ANGLE_UNIT ()
);
#304 = (
   NAMED_UNIT (*)
   SI_UNIT ($, .RADIAN.)
   PLANE_ANGLE_UNIT ()
);
#305 = UNCERTAINTY_MEASURE_WITH_UNIT (LENGTH_MEASURE(0.001), #302, 'DISTANCE_ACCURACY_VALUE', '');
#306 = (
   GEOMETRIC_REPRESENTATION_CONTEXT (3)
   GLOBAL_UNCERTAINTY_ASSIGNED_CONTEXT ((#305))
   GLOBAL_UNIT_ASSIGNED_CONTEXT ((#302, #303, #304))
   REPRESENTATION_CONTEXT ('', '3D')
);
#307 = SHAPE_REPRESENTATION ('', (), #306);
#308 = APPLICATION_CONTEXT ('configuration controlled 3D designs of mechanical parts and assemblies');
#309 = APPLICATION_PROTOCOL_DEFINITION ('International Standard', 'config_control_design', 1997, #308);
#310 = MECHANICAL_CONTEXT ('', #308, 'mechanical');
#311 = PRODUCT ('', '', '', (#310));
#312 = PERSON_AND_ORGANIZATION_ROLE ('design_owner');
#313 = PERSON ('', '', $, $, $, $);
#314 = ORGANIZATION ($, '', '');
#315 = PERSON_AND_ORGANIZATION (#313, #314);
#316 = CC_DESIGN_PERSON_AND_ORGANIZATION_ASSIGNMENT (#315, #312, (#311));
#317 = PRODUCT_RELATED_PRODUCT_CATEGORY ('detail', $, (#311));
#318 = PRODUCT_DEFINITION_FORMATION_WITH_SPECIFIED_SOURCE ('', '', #311, .NOT_KNOWN.);
#319 = APPROVAL_STATUS ('approved');
#320 = APPROVAL (#319, '');
#321 = CALENDAR_DATE (2021, 19, 3);
#322 = COORDINATED_UNIVERSAL_TIME_OFFSET (0, $, .AHEAD.);
#323 = LOCAL_TIME (9, 28, 13., #322);
#324 = DATE_AND_TIME (#321, #323);
#325 = APPROVAL_DATE_TIME (#324, #320);
#326 = APPROVAL_ROLE ('');
#327 = PERSON ('', '', $, $, $, $);
#328 = ORGANIZATION ($, '', '');
#329 = PERSON_AND_ORGANIZATION (#327, #328);
#330 = APPROVAL_PERSON_ORGANIZATION (#329, #320, #326);
#331 = CC_DESIGN_APPROVAL (#320, (#318));
#332 = PERSON_AND_ORGANIZATION_ROLE ('creator');
#333 = PERSON ('', '', $, $, $, $);
#334 = ORGANIZATION ($, '', '');
#335 = PERSON_AND_ORGANIZATION (#333, #334);
#336 = CC_DESIGN_PERSON_AND_ORGANIZATION_ASSIGNMENT (#335, #332, (#318));
#337 = PERSON_AND_ORGANIZATION_ROLE ('part_supplier');
#338 = PERSON ('', '', $, $, $, $);
#339 = ORGANIZATION ($, '', '');
#340 = PERSON_AND_ORGANIZATION (#338, #339);
#341 = CC_DESIGN_PERSON_AND_ORGANIZATION_ASSIGNMENT (#340, #337, (#318));
#342 = SECURITY_CLASSIFICATION_LEVEL ('unclassified');
#343 = SECURITY_CLASSIFICATION ('', '', #342);
#344 = APPROVAL_STATUS ('approved');
#345 = APPROVAL (#344, '');
#346 = CALENDAR_DATE (2021, 19, 3);
#347 = COORDINATED_UNIVERSAL_TIME_OFFSET (0, $, .AHEAD.);
#348 = LOCAL_TIME (9, 28, 13., #347);
#349 = DATE_AND_TIME (#346, #348);
#350 = APPROVAL_DATE_TIME (#349, #345);
#351 = APPROVAL_ROLE ('');
#352 = PERSON ('', '', $, $, $, $);
#353 = ORGANIZATION ($, '', '');
#354 = PERSON_AND_ORGANIZATION (#352, #353);
#355 = APPROVAL_PERSON_ORGANIZATION (#354, #345, #351);
#356 = CC_DESIGN_APPROVAL (#345, (#343));
#357 = DATE_TIME_ROLE ('classification_date');
#358 = CALENDAR_DATE (2021, 19, 3);
#359 = COORDINATED_UNIVERSAL_TIME_OFFSET (0, $, .AHEAD.);
#360 = LOCAL_TIME (9, 28, 13., #359);
#361 = DATE_AND_TIME (#358, #360);
#362 = CC_DESIGN_DATE_AND_TIME_ASSIGNMENT (#361, #357, (#343));
#363 = PERSON_AND_ORGANIZATION_ROLE ('classification_officer');
#364 = PERSON ('', '', $, $, $, $);
#365 = ORGANIZATION ($, '', '');
#366 = PERSON_AND_ORGANIZATION (#364, #365);
#367 = CC_DESIGN_PERSON_AND_ORGANIZATION_ASSIGNMENT (#366, #363, (#343));
#368 = CC_DESIGN_SECURITY_CLASSIFICATION (#343, (#318));
#369 = DESIGN_CONTEXT ('', #308, 'design');
#370 = PRODUCT_DEFINITION ('', '', #318, #369);
#371 = APPROVAL_STATUS ('approved');
#372 = APPROVAL (#371, '');
#373 = CALENDAR_DATE (2021, 19, 3);
#374 = COORDINATED_UNIVERSAL_TIME_OFFSET (0, $, .AHEAD.);
#375 = LOCAL_TIME (9, 28, 13., #374);
#376 = DATE_AND_TIME (#373, #375);
#377 = APPROVAL_DATE_TIME (#376, #372);
#378 = APPROVAL_ROLE ('');
#379 = PERSON ('', '', $, $, $, $);
#380 = ORGANIZATION ($, '', '');
#381 = PERSON_AND_ORGANIZATION (#379, #380);
#382 = APPROVAL_PERSON_ORGANIZATION (#381, #372, #378);
#383 = CC_DESIGN_APPROVAL (#372, (#370));
#384 = DATE_TIME_ROLE ('creation_date');
#385 = CALENDAR_DATE (2021, 19, 3);
#386 = COORDINATED_UNIVERSAL_TIME_OFFSET (0, $, .AHEAD.);
#387 = LOCAL_TIME (9, 28, 13., #386);
#388 = DATE_AND_TIME (#385, #387);
#389 = CC_DESIGN_DATE_AND_TIME_ASSIGNMENT (#388, #384, (#370));
#390 = PERSON_AND_ORGANIZATION_ROLE ('creator');
#391 = PERSON ('', '', $, $, $, $);
#392 = ORGANIZATION ($, '', '');
#393 = PERSON_AND_ORGANIZATION (#391, #392);
#394 = CC_DESIGN_PERSON_AND_ORGANIZATION_ASSIGNMENT (#393, #390, (#370));
#395 = PRODUCT_DEFINITION_SHAPE ('', '', #370);
#396 = SHAPE_DEFINITION_REPRESENTATION (#395, #307);
#397 = SHAPE_REPRESENTATION_RELATIONSHIP ('', '', #307, #398);
#398 = GEOMETRICALLY_BOUNDED_WIREFRAME_SHAPE_REPRESENTATION ('', (#4), #306);
#399 = SHAPE_REPRESENTATION_RELATIONSHIP ('', '', #307, #400);
#400 = ADVANCED_BREP_SHAPE_REPRESENTATION ('', (#301), #306);
ENDSEC;
END-ISO-10303-21;
