ISO-10303-21;
HEADER;
FILE_DESCRIPTION ((), '1');
FILE_NAME ('C:\\Users\\kevin\\CXD, SS & CS\\CXD__1600AP.STP', '2021-03-01T16:07:35', ('Unknown'), ('m.a.ford europe'), 'OneCNC-XR8 Mill 3D Expert', 'OneCNC-XR8 Mill 3D Expert', '');
FILE_SCHEMA (('CONFIG_CONTROL_DESIGN'));
ENDSEC;

DATA;
#1 = CARTESIAN_POINT ('', (-114.75, 8., -1.95943487863576E-15));
#2 = VERTEX_POINT ('', #1);
#3 = CARTESIAN_POINT ('', (-115., 7.75, -1.8982025386784E-15));
#4 = VERTEX_POINT ('', #3);
#5 = CARTESIAN_POINT ('', (-114.75, 8., -1.95943487863576E-15));
#6 = CARTESIAN_POINT ('', (-114.833333333333, 7.91666666666664, -1.93902409864997E-15));
#7 = CARTESIAN_POINT ('', (-114.916666666667, 7.83333333333333, -1.91861331866418E-15));
#8 = CARTESIAN_POINT ('', (-115., 7.75, -1.8982025386784E-15));
#9 = B_SPLINE_CURVE_WITH_KNOTS ('', 3, (#5, #6, #7, #8), .UNSPECIFIED., .F., .U., (4, 4), (0., 1.), .UNSPECIFIED.);
#10 = EDGE_CURVE ('', #2, #4, #9, .T.);
#11 = ORIENTED_EDGE ('', *, *, #10, .F.);
#12 = CARTESIAN_POINT ('', (-114.75, 8., -1.95943487863576E-15));
#13 = CARTESIAN_POINT ('', (-114.75, 7.99999999999998, 32.));
#14 = CARTESIAN_POINT ('', (-114.75, -24., 16.));
#15 = CARTESIAN_POINT ('', (-114.75, -24., -16.));
#16 = CARTESIAN_POINT ('', (-114.75, 8.00000000000002, -32.));
#17 = CARTESIAN_POINT ('', (-114.75, 8., -1.95943487863576E-15));
#18 = (
   BOUNDED_CURVE ()
   B_SPLINE_CURVE (5, (#12, #13, #14, #15, #16, #17), .UNSPECIFIED., .T., .U.)
   B_SPLINE_CURVE_WITH_KNOTS ((6, 6), (0., 1.), .UNSPECIFIED.)
   CURVE ()
   GEOMETRIC_REPRESENTATION_ITEM ()
   RATIONAL_B_SPLINE_CURVE ((5., 1., 1., 1., 1., 5.))
   REPRESENTATION_ITEM ('')
);
#19 = EDGE_CURVE ('', #2, #2, #18, .T.);
#20 = ORIENTED_EDGE ('', *, *, #19, .T.);
#21 = ORIENTED_EDGE ('', *, *, #10, .T.);
#22 = CARTESIAN_POINT ('', (-115., 7.75, -1.8982025386784E-15));
#23 = CARTESIAN_POINT ('', (-115., 7.74999999999998, 31.));
#24 = CARTESIAN_POINT ('', (-115., -23.25, 15.5));
#25 = CARTESIAN_POINT ('', (-115., -23.25, -15.5));
#26 = CARTESIAN_POINT ('', (-115., 7.75000000000002, -31.));
#27 = CARTESIAN_POINT ('', (-115., 7.75, -1.8982025386784E-15));
#28 = (
   BOUNDED_CURVE ()
   B_SPLINE_CURVE (5, (#22, #23, #24, #25, #26, #27), .UNSPECIFIED., .T., .U.)
   B_SPLINE_CURVE_WITH_KNOTS ((6, 6), (0., 1.), .UNSPECIFIED.)
   CURVE ()
   GEOMETRIC_REPRESENTATION_ITEM ()
   RATIONAL_B_SPLINE_CURVE ((5., 1., 1., 1., 1., 5.))
   REPRESENTATION_ITEM ('')
);
#29 = EDGE_CURVE ('', #4, #4, #28, .T.);
#30 = ORIENTED_EDGE ('', *, *, #29, .F.);
#31 = EDGE_LOOP ('', (#11, #20, #21, #30));
#32 = FACE_OUTER_BOUND ('', #31, .F.);
#33 = CARTESIAN_POINT ('', (-114.75, 8., -1.95943487863576E-15));
#34 = CARTESIAN_POINT ('', (-114.833333333333, 7.91666666666664, -1.93902409864997E-15));
#35 = CARTESIAN_POINT ('', (-114.916666666667, 7.83333333333333, -1.91861331866418E-15));
#36 = CARTESIAN_POINT ('', (-115., 7.75, -1.8982025386784E-15));
#37 = CARTESIAN_POINT ('', (-114.75, 7.99999999999998, 32.));
#38 = CARTESIAN_POINT ('', (-114.833333333333, 7.91666666666662, 31.6666666666665));
#39 = CARTESIAN_POINT ('', (-114.916666666667, 7.83333333333331, 31.3333333333333));
#40 = CARTESIAN_POINT ('', (-115., 7.74999999999998, 31.));
#41 = CARTESIAN_POINT ('', (-114.75, -24., 16.));
#42 = CARTESIAN_POINT ('', (-114.833333333333, -23.7499999999999, 15.8333333333332));
#43 = CARTESIAN_POINT ('', (-114.916666666667, -23.5, 15.6666666666666));
#44 = CARTESIAN_POINT ('', (-115., -23.25, 15.5));
#45 = CARTESIAN_POINT ('', (-114.75, -24., -16.));
#46 = CARTESIAN_POINT ('', (-114.833333333333, -23.7499999999999, -15.8333333333333));
#47 = CARTESIAN_POINT ('', (-114.916666666667, -23.5, -15.6666666666667));
#48 = CARTESIAN_POINT ('', (-115., -23.25, -15.5));
#49 = CARTESIAN_POINT ('', (-114.75, 8.00000000000002, -32.));
#50 = CARTESIAN_POINT ('', (-114.833333333333, 7.91666666666666, -31.6666666666665));
#51 = CARTESIAN_POINT ('', (-114.916666666667, 7.83333333333335, -31.3333333333333));
#52 = CARTESIAN_POINT ('', (-115., 7.75000000000002, -31.));
#53 = CARTESIAN_POINT ('', (-114.75, 8., -1.95943487863576E-15));
#54 = CARTESIAN_POINT ('', (-114.833333333333, 7.91666666666664, -1.93902409864997E-15));
#55 = CARTESIAN_POINT ('', (-114.916666666667, 7.83333333333333, -1.91861331866418E-15));
#56 = CARTESIAN_POINT ('', (-115., 7.75, -1.8982025386784E-15));
#57 = (
   BOUNDED_SURFACE ()
   B_SPLINE_SURFACE (5, 3, ((#33, #34, #35, #36), (#37, #38, #39, #40), (#41, #42, #43, #44), (#45, #46, #47, #48), (#49, #50, #51, #52), (#53, #54, #55, #56)), .UNSPECIFIED., .T., .F., .U.)
   B_SPLINE_SURFACE_WITH_KNOTS ((6, 6), (4, 4), (0., 1.), (0., 1.), .UNSPECIFIED.)
   SURFACE ()
   GEOMETRIC_REPRESENTATION_ITEM ()
   RATIONAL_B_SPLINE_SURFACE (((5., 5., 5., 5.), (1., 1., 1., 1.), (1., 1., 1., 1.), (1., 1., 1., 1.), (1., 1., 1., 1.), (5., 5., 5., 5.)))
   REPRESENTATION_ITEM ('')
);
#58 = ADVANCED_FACE ('', (#32), #57, .F.);
#59 = CARTESIAN_POINT ('', (-115., 7.04171909509728E-15, -7.04171909509728E-15));
#60 = VERTEX_POINT ('', #59);
#61 = CARTESIAN_POINT ('', (-115., 7.75, -1.8982025386784E-15));
#62 = CARTESIAN_POINT ('', (-115., 5.16666666666668, -1.26546835911893E-15));
#63 = CARTESIAN_POINT ('', (-115., 2.58333333333333, -6.32734179559464E-16));
#64 = CARTESIAN_POINT ('', (-115., 7.04171909509728E-15, -7.04171909509728E-15));
#65 = B_SPLINE_CURVE_WITH_KNOTS ('', 3, (#61, #62, #63, #64), .UNSPECIFIED., .F., .U., (4, 4), (0., 1.), .UNSPECIFIED.);
#66 = EDGE_CURVE ('', #4, #60, #65, .T.);
#67 = ORIENTED_EDGE ('', *, *, #66, .F.);
#68 = ORIENTED_EDGE ('', *, *, #29, .T.);
#69 = ORIENTED_EDGE ('', *, *, #66, .T.);
#70 = EDGE_LOOP ('', (#67, #68, #69));
#71 = FACE_OUTER_BOUND ('', #70, .F.);
#72 = CARTESIAN_POINT ('', (-115., 7.75, -1.8982025386784E-15));
#73 = CARTESIAN_POINT ('', (-115., 5.16666666666668, -1.26546835911893E-15));
#74 = CARTESIAN_POINT ('', (-115., 2.58333333333333, -6.32734179559464E-16));
#75 = CARTESIAN_POINT ('', (-115., 7.04171909509728E-15, -7.04171909509728E-15));
#76 = CARTESIAN_POINT ('', (-115., 7.74999999999998, 31.));
#77 = CARTESIAN_POINT ('', (-115., 5.16666666666666, 20.6666666666667));
#78 = CARTESIAN_POINT ('', (-115., 2.58333333333331, 10.3333333333333));
#79 = CARTESIAN_POINT ('', (-115., 7.04171909509728E-15, -7.04171909509728E-15));
#80 = CARTESIAN_POINT ('', (-115., -23.25, 15.5));
#81 = CARTESIAN_POINT ('', (-115., -15.5, 10.3333333333333));
#82 = CARTESIAN_POINT ('', (-115., -7.74999999999998, 5.16666666666663));
#83 = CARTESIAN_POINT ('', (-115., 7.04171909509728E-15, -7.04171909509728E-15));
#84 = CARTESIAN_POINT ('', (-115., -23.25, -15.5));
#85 = CARTESIAN_POINT ('', (-115., -15.5, -10.3333333333334));
#86 = CARTESIAN_POINT ('', (-115., -7.74999999999996, -5.16666666666668));
#87 = CARTESIAN_POINT ('', (-115., 7.04171909509728E-15, -7.04171909509728E-15));
#88 = CARTESIAN_POINT ('', (-115., 7.75000000000002, -31.));
#89 = CARTESIAN_POINT ('', (-115., 5.1666666666667, -20.6666666666667));
#90 = CARTESIAN_POINT ('', (-115., 2.58333333333336, -10.3333333333333));
#91 = CARTESIAN_POINT ('', (-115., 7.04171909509728E-15, -7.04171909509728E-15));
#92 = CARTESIAN_POINT ('', (-115., 7.75, -1.8982025386784E-15));
#93 = CARTESIAN_POINT ('', (-115., 5.16666666666668, -1.26546835911893E-15));
#94 = CARTESIAN_POINT ('', (-115., 2.58333333333333, -6.32734179559464E-16));
#95 = CARTESIAN_POINT ('', (-115., 7.04171909509728E-15, -7.04171909509728E-15));
#96 = (
   BOUNDED_SURFACE ()
   B_SPLINE_SURFACE (5, 3, ((#72, #73, #74, #75), (#76, #77, #78, #79), (#80, #81, #82, #83), (#84, #85, #86, #87), (#88, #89, #90, #91), (#92, #93, #94, #95)), .UNSPECIFIED., .T., .F., .U.)
   B_SPLINE_SURFACE_WITH_KNOTS ((6, 6), (4, 4), (0., 1.), (0., 1.), .UNSPECIFIED.)
   SURFACE ()
   GEOMETRIC_REPRESENTATION_ITEM ()
   RATIONAL_B_SPLINE_SURFACE (((5., 5., 5., 5.), (1., 1., 1., 1.), (1., 1., 1., 1.), (1., 1., 1., 1.), (1., 1., 1., 1.), (5., 5., 5., 5.)))
   REPRESENTATION_ITEM ('')
);
#97 = ADVANCED_FACE ('', (#71), #96, .F.);
#98 = CARTESIAN_POINT ('', (-65., 8., -1.95943487863576E-15));
#99 = VERTEX_POINT ('', #98);
#100 = CARTESIAN_POINT ('', (-65., 8., -1.95943487863576E-15));
#101 = CARTESIAN_POINT ('', (-81.5833333333335, 8., -1.95943487863576E-15));
#102 = CARTESIAN_POINT ('', (-98.1666666666665, 8., -1.95943487863576E-15));
#103 = CARTESIAN_POINT ('', (-114.75, 8., -1.95943487863576E-15));
#104 = B_SPLINE_CURVE_WITH_KNOTS ('', 3, (#100, #101, #102, #103), .UNSPECIFIED., .F., .U., (4, 4), (0., 1.), .UNSPECIFIED.);
#105 = EDGE_CURVE ('', #99, #2, #104, .T.);
#106 = ORIENTED_EDGE ('', *, *, #105, .F.);
#107 = CARTESIAN_POINT ('', (-65., 8., -1.95943487863576E-15));
#108 = CARTESIAN_POINT ('', (-65., 7.99999999999999, 32.));
#109 = CARTESIAN_POINT ('', (-65., -24., 16.));
#110 = CARTESIAN_POINT ('', (-65., -24., -16.));
#111 = CARTESIAN_POINT ('', (-65., 8.00000000000001, -32.));
#112 = CARTESIAN_POINT ('', (-65., 8., -1.95943487863576E-15));
#113 = (
   BOUNDED_CURVE ()
   B_SPLINE_CURVE (5, (#107, #108, #109, #110, #111, #112), .UNSPECIFIED., .T., .U.)
   B_SPLINE_CURVE_WITH_KNOTS ((6, 6), (0., 1.), .UNSPECIFIED.)
   CURVE ()
   GEOMETRIC_REPRESENTATION_ITEM ()
   RATIONAL_B_SPLINE_CURVE ((5., 1., 1., 1., 1., 5.))
   REPRESENTATION_ITEM ('')
);
#114 = EDGE_CURVE ('', #99, #99, #113, .T.);
#115 = ORIENTED_EDGE ('', *, *, #114, .T.);
#116 = ORIENTED_EDGE ('', *, *, #105, .T.);
#117 = ORIENTED_EDGE ('', *, *, #19, .F.);
#118 = EDGE_LOOP ('', (#106, #115, #116, #117));
#119 = FACE_OUTER_BOUND ('', #118, .F.);
#120 = CARTESIAN_POINT ('', (-65., 8., -1.95943487863576E-15));
#121 = CARTESIAN_POINT ('', (-81.5833333333335, 8., -1.95943487863576E-15));
#122 = CARTESIAN_POINT ('', (-98.1666666666665, 8., -1.95943487863576E-15));
#123 = CARTESIAN_POINT ('', (-114.75, 8., -1.95943487863576E-15));
#124 = CARTESIAN_POINT ('', (-65., 7.99999999999999, 32.));
#125 = CARTESIAN_POINT ('', (-81.5833333333335, 7.99999999999999, 32.));
#126 = CARTESIAN_POINT ('', (-98.1666666666665, 7.99999999999998, 32.));
#127 = CARTESIAN_POINT ('', (-114.75, 7.99999999999998, 32.));
#128 = CARTESIAN_POINT ('', (-65., -24., 16.));
#129 = CARTESIAN_POINT ('', (-81.5833333333335, -24., 16.));
#130 = CARTESIAN_POINT ('', (-98.1666666666665, -24., 16.));
#131 = CARTESIAN_POINT ('', (-114.75, -24., 16.));
#132 = CARTESIAN_POINT ('', (-65., -24., -16.));
#133 = CARTESIAN_POINT ('', (-81.5833333333335, -24., -16.));
#134 = CARTESIAN_POINT ('', (-98.1666666666665, -24., -16.));
#135 = CARTESIAN_POINT ('', (-114.75, -24., -16.));
#136 = CARTESIAN_POINT ('', (-65., 8.00000000000001, -32.));
#137 = CARTESIAN_POINT ('', (-81.5833333333335, 8.00000000000001, -32.));
#138 = CARTESIAN_POINT ('', (-98.1666666666665, 8.00000000000002, -32.));
#139 = CARTESIAN_POINT ('', (-114.75, 8.00000000000002, -32.));
#140 = CARTESIAN_POINT ('', (-65., 8., -1.95943487863576E-15));
#141 = CARTESIAN_POINT ('', (-81.5833333333335, 8., -1.95943487863576E-15));
#142 = CARTESIAN_POINT ('', (-98.1666666666665, 8., -1.95943487863576E-15));
#143 = CARTESIAN_POINT ('', (-114.75, 8., -1.95943487863576E-15));
#144 = (
   BOUNDED_SURFACE ()
   B_SPLINE_SURFACE (5, 3, ((#120, #121, #122, #123), (#124, #125, #126, #127), (#128, #129, #130, #131), (#132, #133, #134, #135), (#136, #137, #138, #139), (#140, #141, #142, #143)), .UNSPECIFIED., .T., .F., .U.)
   B_SPLINE_SURFACE_WITH_KNOTS ((6, 6), (4, 4), (0., 1.), (0., 1.), .UNSPECIFIED.)
   SURFACE ()
   GEOMETRIC_REPRESENTATION_ITEM ()
   RATIONAL_B_SPLINE_SURFACE (((5., 5., 5., 5.), (1., 1., 1., 1.), (1., 1., 1., 1.), (1., 1., 1., 1.), (1., 1., 1., 1.), (5., 5., 5., 5.)))
   REPRESENTATION_ITEM ('')
);
#145 = ADVANCED_FACE ('', (#119), #144, .F.);
#146 = CARTESIAN_POINT ('', (-2.91176187412962, 8., -1.95943487863576E-15));
#147 = VERTEX_POINT ('', #146);
#148 = CARTESIAN_POINT ('', (-2.91176187412962, 8., -1.95943487863577E-15));
#149 = CARTESIAN_POINT ('', (-23.6078412494197, 8., -1.95943487863576E-15));
#150 = CARTESIAN_POINT ('', (-44.3039206247099, 8., -1.95943487863576E-15));
#151 = CARTESIAN_POINT ('', (-65., 8., -1.95943487863576E-15));
#152 = B_SPLINE_CURVE_WITH_KNOTS ('', 3, (#148, #149, #150, #151), .UNSPECIFIED., .F., .U., (4, 4), (0., 1.), .UNSPECIFIED.);
#153 = EDGE_CURVE ('', #147, #99, #152, .T.);
#154 = ORIENTED_EDGE ('', *, *, #153, .F.);
#155 = CARTESIAN_POINT ('', (-2.91176187412962, 8., -1.95943487863576E-15));
#156 = CARTESIAN_POINT ('', (-2.91176187412962, 8.00000000000001, 32.));
#157 = CARTESIAN_POINT ('', (-2.91176187412962, -24., 16.));
#158 = CARTESIAN_POINT ('', (-2.91176187412962, -24., -16.));
#159 = CARTESIAN_POINT ('', (-2.91176187412961, 7.99999999999999, -32.));
#160 = CARTESIAN_POINT ('', (-2.91176187412962, 8., -1.95943487863576E-15));
#161 = (
   BOUNDED_CURVE ()
   B_SPLINE_CURVE (5, (#155, #156, #157, #158, #159, #160), .UNSPECIFIED., .T., .U.)
   B_SPLINE_CURVE_WITH_KNOTS ((6, 6), (0., 1.), .UNSPECIFIED.)
   CURVE ()
   GEOMETRIC_REPRESENTATION_ITEM ()
   RATIONAL_B_SPLINE_CURVE ((5., 1., 1., 1., 1., 5.))
   REPRESENTATION_ITEM ('')
);
#162 = EDGE_CURVE ('', #147, #147, #161, .T.);
#163 = ORIENTED_EDGE ('', *, *, #162, .T.);
#164 = ORIENTED_EDGE ('', *, *, #153, .T.);
#165 = ORIENTED_EDGE ('', *, *, #114, .F.);
#166 = EDGE_LOOP ('', (#154, #163, #164, #165));
#167 = FACE_OUTER_BOUND ('', #166, .F.);
#168 = CARTESIAN_POINT ('', (-2.91176187412962, 8., -1.95943487863577E-15));
#169 = CARTESIAN_POINT ('', (-23.6078412494197, 8., -1.95943487863576E-15));
#170 = CARTESIAN_POINT ('', (-44.3039206247099, 8., -1.95943487863576E-15));
#171 = CARTESIAN_POINT ('', (-65., 8., -1.95943487863576E-15));
#172 = CARTESIAN_POINT ('', (-2.91176187412962, 8.00000000000001, 32.));
#173 = CARTESIAN_POINT ('', (-23.6078412494197, 8., 32.));
#174 = CARTESIAN_POINT ('', (-44.3039206247099, 8., 32.));
#175 = CARTESIAN_POINT ('', (-65., 7.99999999999999, 32.));
#176 = CARTESIAN_POINT ('', (-2.91176187412962, -24., 16.));
#177 = CARTESIAN_POINT ('', (-23.6078412494198, -24., 16.));
#178 = CARTESIAN_POINT ('', (-44.3039206247099, -24., 16.));
#179 = CARTESIAN_POINT ('', (-65., -24., 16.));
#180 = CARTESIAN_POINT ('', (-2.91176187412962, -24., -16.));
#181 = CARTESIAN_POINT ('', (-23.6078412494197, -24., -16.));
#182 = CARTESIAN_POINT ('', (-44.3039206247099, -24., -16.));
#183 = CARTESIAN_POINT ('', (-65., -24., -16.));
#184 = CARTESIAN_POINT ('', (-2.91176187412962, 7.99999999999999, -32.));
#185 = CARTESIAN_POINT ('', (-23.6078412494197, 8., -32.));
#186 = CARTESIAN_POINT ('', (-44.3039206247099, 8., -32.));
#187 = CARTESIAN_POINT ('', (-65., 8.00000000000001, -32.));
#188 = CARTESIAN_POINT ('', (-2.91176187412962, 8., -1.95943487863577E-15));
#189 = CARTESIAN_POINT ('', (-23.6078412494197, 8., -1.95943487863576E-15));
#190 = CARTESIAN_POINT ('', (-44.3039206247099, 8., -1.95943487863576E-15));
#191 = CARTESIAN_POINT ('', (-65., 8., -1.95943487863576E-15));
#192 = (
   BOUNDED_SURFACE ()
   B_SPLINE_SURFACE (5, 3, ((#168, #169, #170, #171), (#172, #173, #174, #175), (#176, #177, #178, #179), (#180, #181, #182, #183), (#184, #185, #186, #187), (#188, #189, #190, #191)), .UNSPECIFIED., .T., .F., .U.)
   B_SPLINE_SURFACE_WITH_KNOTS ((6, 6), (4, 4), (0., 1.), (0., 1.), .UNSPECIFIED.)
   SURFACE ()
   GEOMETRIC_REPRESENTATION_ITEM ()
   RATIONAL_B_SPLINE_SURFACE (((5., 5., 5., 5.), (1., 1., 1., 1.), (1., 1., 1., 1.), (1., 1., 1., 1.), (1., 1., 1., 1.), (5., 5., 5., 5.)))
   REPRESENTATION_ITEM ('')
);
#193 = ADVANCED_FACE ('', (#167), #192, .F.);
#194 = CARTESIAN_POINT ('', (0., 0., 0.));
#195 = VERTEX_POINT ('', #194);
#196 = CARTESIAN_POINT ('', (0., 0., 0.));
#197 = CARTESIAN_POINT ('', (-0.970587291376539, 2.66666666666667, -6.53144959545255E-16));
#198 = CARTESIAN_POINT ('', (-1.94117458275306, 5.33333333333335, -1.30628991909051E-15));
#199 = CARTESIAN_POINT ('', (-2.91176187412962, 8., -1.95943487863576E-15));
#200 = B_SPLINE_CURVE_WITH_KNOTS ('', 3, (#196, #197, #198, #199), .UNSPECIFIED., .F., .U., (4, 4), (0., 1.), .UNSPECIFIED.);
#201 = EDGE_CURVE ('', #195, #147, #200, .T.);
#202 = ORIENTED_EDGE ('', *, *, #201, .F.);
#203 = ORIENTED_EDGE ('', *, *, #201, .T.);
#204 = ORIENTED_EDGE ('', *, *, #162, .F.);
#205 = EDGE_LOOP ('', (#202, #203, #204));
#206 = FACE_OUTER_BOUND ('', #205, .F.);
#207 = CARTESIAN_POINT ('', (0., 0., 0.));
#208 = CARTESIAN_POINT ('', (-0.970587291376539, 2.66666666666667, -6.53144959545255E-16));
#209 = CARTESIAN_POINT ('', (-1.94117458275306, 5.33333333333335, -1.30628991909051E-15));
#210 = CARTESIAN_POINT ('', (-2.91176187412962, 8., -1.95943487863576E-15));
#211 = CARTESIAN_POINT ('', (0., 0., 0.));
#212 = CARTESIAN_POINT ('', (-0.970587291376539, 2.66666666666667, 10.6666666666667));
#213 = CARTESIAN_POINT ('', (-1.94117458275306, 5.33333333333336, 21.3333333333334));
#214 = CARTESIAN_POINT ('', (-2.91176187412962, 8.00000000000001, 32.));
#215 = CARTESIAN_POINT ('', (0., 0., 0.));
#216 = CARTESIAN_POINT ('', (-0.97058729137654, -8., 5.33333333333333));
#217 = CARTESIAN_POINT ('', (-1.94117458275306, -16.0000000000001, 10.6666666666667));
#218 = CARTESIAN_POINT ('', (-2.91176187412962, -24., 16.));
#219 = CARTESIAN_POINT ('', (0., 0., 0.));
#220 = CARTESIAN_POINT ('', (-0.970587291376539, -8., -5.33333333333333));
#221 = CARTESIAN_POINT ('', (-1.94117458275306, -16.0000000000001, -10.6666666666667));
#222 = CARTESIAN_POINT ('', (-2.91176187412962, -24., -16.));
#223 = CARTESIAN_POINT ('', (0., 0., 0.));
#224 = CARTESIAN_POINT ('', (-0.970587291376538, 2.66666666666666, -10.6666666666667));
#225 = CARTESIAN_POINT ('', (-1.94117458275306, 5.33333333333335, -21.3333333333334));
#226 = CARTESIAN_POINT ('', (-2.91176187412961, 7.99999999999999, -32.));
#227 = CARTESIAN_POINT ('', (0., 0., 0.));
#228 = CARTESIAN_POINT ('', (-0.970587291376539, 2.66666666666667, -6.53144959545255E-16));
#229 = CARTESIAN_POINT ('', (-1.94117458275306, 5.33333333333335, -1.30628991909051E-15));
#230 = CARTESIAN_POINT ('', (-2.91176187412962, 8., -1.95943487863576E-15));
#231 = (
   BOUNDED_SURFACE ()
   B_SPLINE_SURFACE (5, 3, ((#207, #208, #209, #210), (#211, #212, #213, #214), (#215, #216, #217, #218), (#219, #220, #221, #222), (#223, #224, #225, #226), (#227, #228, #229, #230)), .UNSPECIFIED., .T., .F., .U.)
   B_SPLINE_SURFACE_WITH_KNOTS ((6, 6), (4, 4), (0., 1.), (0., 1.), .UNSPECIFIED.)
   SURFACE ()
   GEOMETRIC_REPRESENTATION_ITEM ()
   RATIONAL_B_SPLINE_SURFACE (((5., 5., 5., 5.), (1., 1., 1., 1.), (1., 1., 1., 1.), (1., 1., 1., 1.), (1., 1., 1., 1.), (5., 5., 5., 5.)))
   REPRESENTATION_ITEM ('')
);
#232 = ADVANCED_FACE ('', (#206), #231, .F.);
#233 = CLOSED_SHELL ('', (#58, #97, #145, #193, #232));
#234 = MANIFOLD_SOLID_BREP ('', #233);
#235 = (
   LENGTH_UNIT ()
   NAMED_UNIT (*)
   SI_UNIT (.MILLI., .METRE.)
);
#236 = (
   NAMED_UNIT (*)
   SI_UNIT ($, .STERADIAN.)
   SOLID_ANGLE_UNIT ()
);
#237 = (
   NAMED_UNIT (*)
   SI_UNIT ($, .RADIAN.)
   PLANE_ANGLE_UNIT ()
);
#238 = UNCERTAINTY_MEASURE_WITH_UNIT (LENGTH_MEASURE(0.001), #235, 'DISTANCE_ACCURACY_VALUE', '');
#239 = (
   GEOMETRIC_REPRESENTATION_CONTEXT (3)
   GLOBAL_UNCERTAINTY_ASSIGNED_CONTEXT ((#238))
   GLOBAL_UNIT_ASSIGNED_CONTEXT ((#235, #236, #237))
   REPRESENTATION_CONTEXT ('', '3D')
);
#240 = SHAPE_REPRESENTATION ('', (), #239);
#241 = APPLICATION_CONTEXT ('configuration controlled 3D designs of mechanical parts and assemblies');
#242 = APPLICATION_PROTOCOL_DEFINITION ('International Standard', 'config_control_design', 1997, #241);
#243 = MECHANICAL_CONTEXT ('', #241, 'mechanical');
#244 = PRODUCT ('', '', '', (#243));
#245 = PERSON_AND_ORGANIZATION_ROLE ('design_owner');
#246 = PERSON ('', '', $, $, $, $);
#247 = ORGANIZATION ($, '', '');
#248 = PERSON_AND_ORGANIZATION (#246, #247);
#249 = CC_DESIGN_PERSON_AND_ORGANIZATION_ASSIGNMENT (#248, #245, (#244));
#250 = PRODUCT_RELATED_PRODUCT_CATEGORY ('detail', $, (#244));
#251 = PRODUCT_DEFINITION_FORMATION_WITH_SPECIFIED_SOURCE ('', '', #244, .NOT_KNOWN.);
#252 = APPROVAL_STATUS ('approved');
#253 = APPROVAL (#252, '');
#254 = CALENDAR_DATE (2021, 1, 3);
#255 = COORDINATED_UNIVERSAL_TIME_OFFSET (0, $, .AHEAD.);
#256 = LOCAL_TIME (16, 7, 35., #255);
#257 = DATE_AND_TIME (#254, #256);
#258 = APPROVAL_DATE_TIME (#257, #253);
#259 = APPROVAL_ROLE ('');
#260 = PERSON ('', '', $, $, $, $);
#261 = ORGANIZATION ($, '', '');
#262 = PERSON_AND_ORGANIZATION (#260, #261);
#263 = APPROVAL_PERSON_ORGANIZATION (#262, #253, #259);
#264 = CC_DESIGN_APPROVAL (#253, (#251));
#265 = PERSON_AND_ORGANIZATION_ROLE ('creator');
#266 = PERSON ('', '', $, $, $, $);
#267 = ORGANIZATION ($, '', '');
#268 = PERSON_AND_ORGANIZATION (#266, #267);
#269 = CC_DESIGN_PERSON_AND_ORGANIZATION_ASSIGNMENT (#268, #265, (#251));
#270 = PERSON_AND_ORGANIZATION_ROLE ('part_supplier');
#271 = PERSON ('', '', $, $, $, $);
#272 = ORGANIZATION ($, '', '');
#273 = PERSON_AND_ORGANIZATION (#271, #272);
#274 = CC_DESIGN_PERSON_AND_ORGANIZATION_ASSIGNMENT (#273, #270, (#251));
#275 = SECURITY_CLASSIFICATION_LEVEL ('unclassified');
#276 = SECURITY_CLASSIFICATION ('', '', #275);
#277 = APPROVAL_STATUS ('approved');
#278 = APPROVAL (#277, '');
#279 = CALENDAR_DATE (2021, 1, 3);
#280 = COORDINATED_UNIVERSAL_TIME_OFFSET (0, $, .AHEAD.);
#281 = LOCAL_TIME (16, 7, 35., #280);
#282 = DATE_AND_TIME (#279, #281);
#283 = APPROVAL_DATE_TIME (#282, #278);
#284 = APPROVAL_ROLE ('');
#285 = PERSON ('', '', $, $, $, $);
#286 = ORGANIZATION ($, '', '');
#287 = PERSON_AND_ORGANIZATION (#285, #286);
#288 = APPROVAL_PERSON_ORGANIZATION (#287, #278, #284);
#289 = CC_DESIGN_APPROVAL (#278, (#276));
#290 = DATE_TIME_ROLE ('classification_date');
#291 = CALENDAR_DATE (2021, 1, 3);
#292 = COORDINATED_UNIVERSAL_TIME_OFFSET (0, $, .AHEAD.);
#293 = LOCAL_TIME (16, 7, 35., #292);
#294 = DATE_AND_TIME (#291, #293);
#295 = CC_DESIGN_DATE_AND_TIME_ASSIGNMENT (#294, #290, (#276));
#296 = PERSON_AND_ORGANIZATION_ROLE ('classification_officer');
#297 = PERSON ('', '', $, $, $, $);
#298 = ORGANIZATION ($, '', '');
#299 = PERSON_AND_ORGANIZATION (#297, #298);
#300 = CC_DESIGN_PERSON_AND_ORGANIZATION_ASSIGNMENT (#299, #296, (#276));
#301 = CC_DESIGN_SECURITY_CLASSIFICATION (#276, (#251));
#302 = DESIGN_CONTEXT ('', #241, 'design');
#303 = PRODUCT_DEFINITION ('', '', #251, #302);
#304 = APPROVAL_STATUS ('approved');
#305 = APPROVAL (#304, '');
#306 = CALENDAR_DATE (2021, 1, 3);
#307 = COORDINATED_UNIVERSAL_TIME_OFFSET (0, $, .AHEAD.);
#308 = LOCAL_TIME (16, 7, 35., #307);
#309 = DATE_AND_TIME (#306, #308);
#310 = APPROVAL_DATE_TIME (#309, #305);
#311 = APPROVAL_ROLE ('');
#312 = PERSON ('', '', $, $, $, $);
#313 = ORGANIZATION ($, '', '');
#314 = PERSON_AND_ORGANIZATION (#312, #313);
#315 = APPROVAL_PERSON_ORGANIZATION (#314, #305, #311);
#316 = CC_DESIGN_APPROVAL (#305, (#303));
#317 = DATE_TIME_ROLE ('creation_date');
#318 = CALENDAR_DATE (2021, 1, 3);
#319 = COORDINATED_UNIVERSAL_TIME_OFFSET (0, $, .AHEAD.);
#320 = LOCAL_TIME (16, 7, 35., #319);
#321 = DATE_AND_TIME (#318, #320);
#322 = CC_DESIGN_DATE_AND_TIME_ASSIGNMENT (#321, #317, (#303));
#323 = PERSON_AND_ORGANIZATION_ROLE ('creator');
#324 = PERSON ('', '', $, $, $, $);
#325 = ORGANIZATION ($, '', '');
#326 = PERSON_AND_ORGANIZATION (#324, #325);
#327 = CC_DESIGN_PERSON_AND_ORGANIZATION_ASSIGNMENT (#326, #323, (#303));
#328 = PRODUCT_DEFINITION_SHAPE ('', '', #303);
#329 = SHAPE_DEFINITION_REPRESENTATION (#328, #240);
#330 = SHAPE_REPRESENTATION_RELATIONSHIP ('', '', #240, #331);
#331 = ADVANCED_BREP_SHAPE_REPRESENTATION ('', (#234), #239);
ENDSEC;
END-ISO-10303-21;
