ISO-10303-21;

HEADER;
FILE_DESCRIPTION((' '),'2;1');
FILE_NAME( 'FHFP10N5-CCAQ.stp',
           '2023-11-29T13:19:20',
           (' '),
           ('--- Datakit www.datakit.com---'),
           ' Datakit CrossCadWare V2023.1  Dec 17 2022',
           'Mastercam 2024',
           ' ');
FILE_SCHEMA(('AUTOMOTIVE_DESIGN { 1 0 10303 214 1 1 1 1 }'));
ENDSEC;

DATA;
#1=APPLICATION_CONTEXT('core data for automotive mechanical design processes');
#2=APPLICATION_PROTOCOL_DEFINITION('international standard','automotive_design',2000,#1);
#3=(LENGTH_UNIT()NAMED_UNIT(*)SI_UNIT(.MILLI.,.METRE.));
#4=LENGTH_MEASURE_WITH_UNIT(LENGTH_MEASURE(25.4),#3);
#5=DIMENSIONAL_EXPONENTS(1.,0.,0.,0.,0.,0.,0.);
#6=(CONVERSION_BASED_UNIT('INCH',#4)LENGTH_UNIT()NAMED_UNIT(#5));
#7=(NAMED_UNIT(*)PLANE_ANGLE_UNIT()SI_UNIT($,.RADIAN.));
#8=( GEOMETRIC_REPRESENTATION_CONTEXT(3)
       GLOBAL_UNCERTAINTY_ASSIGNED_CONTEXT((#9)) GLOBAL_UNIT_ASSIGNED_CONTEXT
  ((#6,#7)) REPRESENTATION_CONTEXT('Context #1',
  '3D Context with UNIT and UNCERTAINTY') );
#9=UNCERTAINTY_MEASURE_WITH_UNIT(LENGTH_MEASURE(0.005),#6,'distance_accuracy_value','Confusion accuracy');
#10=PRODUCT_CONTEXT('',#1,'mechanical');
#11=PRODUCT('FHFP10N5-CCAQ','','',(#10));
#12=PRODUCT_DEFINITION_FORMATION('','',#11);
#13=PRODUCT_DEFINITION_CONTEXT('part definition',#1,'design');
#14=PRODUCT_DEFINITION('design','',#12,#13);
#15=PRODUCT_DEFINITION_SHAPE('','',#14);
#16=PRODUCT_CATEGORY('part',$);
#17=PRODUCT_RELATED_PRODUCT_CATEGORY('part',$,(#11));
#18=PRODUCT_CATEGORY_RELATIONSHIP('','',#16,#17);
#19=CARTESIAN_POINT('',(0.0,0.0101322564,0.0));
#20=VERTEX_POINT('',#19);
#21=CARTESIAN_POINT('',(-0.0561647549,0.0,-0.0182490351));
#22=VERTEX_POINT('',#21);
#23=CARTESIAN_POINT('',(-0.0561647549,0.1771653543,-0.0182490351));
#24=DIRECTION('',(0.3090169944,0.0,-0.9510565163));
#25=DIRECTION('',(0.3170188388,-0.9428090416,0.1030056648));
#26=AXIS2_PLACEMENT_3D('',#23,#24,#25);
#27=CIRCLE('',#26,0.1771653543);
#28=EDGE_CURVE('n° 213',#20,#22,#27,.T.);
#29=ORIENTED_EDGE('',*,*,#28,.T.);
#30=CARTESIAN_POINT('',(0.0,0.0,-0.0590551181));
#31=VERTEX_POINT('',#30);
#32=CARTESIAN_POINT('',(0.0,0.0,0.0));
#33=DIRECTION('',(0.0,-1.0,0.0));
#34=DIRECTION('',(0.0,0.0,-1.0));
#35=AXIS2_PLACEMENT_3D('',#32,#33,#34);
#36=CIRCLE('',#35,0.0590551181);
#37=EDGE_CURVE('n° 219',#22,#31,#36,.T.);
#38=ORIENTED_EDGE('',*,*,#37,.T.);
#39=CARTESIAN_POINT('',(0.0561647549,0.0,0.0182490351));
#40=VERTEX_POINT('',#39);
#41=CARTESIAN_POINT('',(0.0,0.0,0.0));
#42=DIRECTION('',(0.0,-1.0,0.0));
#43=DIRECTION('',(0.0,0.0,-1.0));
#44=AXIS2_PLACEMENT_3D('',#41,#42,#43);
#45=CIRCLE('',#44,0.0590551181);
#46=EDGE_CURVE('n° 225',#31,#40,#45,.T.);
#47=ORIENTED_EDGE('',*,*,#46,.T.);
#48=CARTESIAN_POINT('',(0.0561647549,0.1771653543,0.0182490351));
#49=DIRECTION('',(-0.3090169944,-0.0,0.9510565163));
#50=DIRECTION('',(-0.3170188388,-0.9428090416,-0.1030056648));
#51=AXIS2_PLACEMENT_3D('',#48,#49,#50);
#52=CIRCLE('',#51,0.1771653543);
#53=EDGE_CURVE('n° 229',#20,#40,#52,.T.);
#54=ORIENTED_EDGE('',*,*,#53,.F.);
#55=EDGE_LOOP('',(#29,#38,#47,#54));
#56=FACE_OUTER_BOUND('',#55,.T.);
#57=CARTESIAN_POINT('',(0.0,0.1771653543,0.0));
#58=DIRECTION('',(0.0,-1.0,0.0));
#59=DIRECTION('',(-0.3090169944,0.0,0.9510565163));
#60=AXIS2_PLACEMENT_3D('',#57,#58,#59);
#61=DEGENERATE_TOROIDAL_SURFACE('',#60,0.0590551181,0.1771653543,.T.);
#62=ADVANCED_FACE('n° 204',(#56),#61,.T.);
#63=CARTESIAN_POINT('',(0.0,3.937007874,0.1968503937));
#64=VERTEX_POINT('',#63);
#65=CARTESIAN_POINT('',(0.0,3.937007874,-0.1968503937));
#66=VERTEX_POINT('',#65);
#67=CARTESIAN_POINT('',(0.0,3.937007874,0.0));
#68=DIRECTION('',(0.0,-1.0,0.0));
#69=DIRECTION('',(0.0,0.0,-1.0));
#70=AXIS2_PLACEMENT_3D('',#67,#68,#69);
#71=CIRCLE('',#70,0.1968503937);
#72=EDGE_CURVE('n° 246',#64,#66,#71,.T.);
#73=ORIENTED_EDGE('',*,*,#72,.F.);
#74=CARTESIAN_POINT('',(0.0,3.937007874,0.0));
#75=DIRECTION('',(0.0,-1.0,0.0));
#76=DIRECTION('',(0.0,0.0,-1.0));
#77=AXIS2_PLACEMENT_3D('',#74,#75,#76);
#78=CIRCLE('',#77,0.1968503937);
#79=EDGE_CURVE('n° 250',#66,#64,#78,.T.);
#80=ORIENTED_EDGE('',*,*,#79,.F.);
#81=EDGE_LOOP('',(#73,#80));
#82=FACE_OUTER_BOUND('',#81,.T.);
#83=CARTESIAN_POINT('',(0.0,3.937007874,0.0));
#84=DIRECTION('',(0.0,-1.0,0.0));
#85=DIRECTION('',(0.0,0.0,-1.0));
#86=AXIS2_PLACEMENT_3D('',#83,#84,#85);
#87=PLANE('',#86);
#88=ADVANCED_FACE('n° 237',(#82),#87,.F.);
#89=CARTESIAN_POINT('',(0.0,2.0472440945,0.1968503937));
#90=VERTEX_POINT('',#89);
#91=CARTESIAN_POINT('',(0.0,3.937007874,0.1968503937));
#92=DIRECTION('',(0.0,-1.0,0.0));
#93=VECTOR('',#92,1.0);
#94=LINE('',#91,#93);
#95=EDGE_CURVE('n° 260',#64,#90,#94,.T.);
#96=ORIENTED_EDGE('',*,*,#95,.F.);
#97=ORIENTED_EDGE('',*,*,#72,.T.);
#98=CARTESIAN_POINT('',(0.0,2.0472440945,-0.1968503937));
#99=VERTEX_POINT('',#98);
#100=CARTESIAN_POINT('',(0.0,3.937007874,-0.1968503937));
#101=DIRECTION('',(0.0,-1.0,0.0));
#102=VECTOR('',#101,1.0);
#103=LINE('',#100,#102);
#104=EDGE_CURVE('n° 268',#66,#99,#103,.T.);
#105=ORIENTED_EDGE('',*,*,#104,.T.);
#106=CARTESIAN_POINT('',(0.0,2.0472440945,0.0));
#107=DIRECTION('',(0.0,-1.0,0.0));
#108=DIRECTION('',(0.0,0.0,-1.0));
#109=AXIS2_PLACEMENT_3D('',#106,#107,#108);
#110=CIRCLE('',#109,0.1968503937);
#111=EDGE_CURVE('n° 272',#90,#99,#110,.T.);
#112=ORIENTED_EDGE('',*,*,#111,.F.);
#113=EDGE_LOOP('',(#96,#97,#105,#112));
#114=FACE_OUTER_BOUND('',#113,.T.);
#115=CARTESIAN_POINT('',(0.0,0.0101322564,0.0));
#116=DIRECTION('',(0.0,-1.0,0.0));
#117=DIRECTION('',(1.0,0.0,-0.0));
#118=AXIS2_PLACEMENT_3D('',#115,#116,#117);
#119=CYLINDRICAL_SURFACE('',#118,0.1968503937);
#120=ADVANCED_FACE('n° 253',(#114),#119,.T.);
#121=CARTESIAN_POINT('',(0.0,2.0472440945,0.0));
#122=DIRECTION('',(0.0,-1.0,0.0));
#123=DIRECTION('',(0.0,0.0,-1.0));
#124=AXIS2_PLACEMENT_3D('',#121,#122,#123);
#125=CIRCLE('',#124,0.1968503937);
#126=EDGE_CURVE('n° 279',#99,#90,#125,.T.);
#127=ORIENTED_EDGE('',*,*,#126,.T.);
#128=ORIENTED_EDGE('',*,*,#111,.T.);
#129=EDGE_LOOP('',(#127,#128));
#130=FACE_OUTER_BOUND('',#129,.T.);
#131=CARTESIAN_POINT('',(0.0,2.0472440945,0.1929133858));
#132=VERTEX_POINT('',#131);
#133=CARTESIAN_POINT('',(0.0,2.0472440945,-0.1929133858));
#134=VERTEX_POINT('',#133);
#135=CARTESIAN_POINT('',(0.0,2.0472440945,0.0));
#136=DIRECTION('',(0.0,-1.0,0.0));
#137=DIRECTION('',(0.0,0.0,-1.0));
#138=AXIS2_PLACEMENT_3D('',#135,#136,#137);
#139=CIRCLE('',#138,0.1929133858);
#140=EDGE_CURVE('n° 290',#132,#134,#139,.T.);
#141=ORIENTED_EDGE('',*,*,#140,.F.);
#142=CARTESIAN_POINT('',(0.0,2.0472440945,0.0));
#143=DIRECTION('',(0.0,-1.0,0.0));
#144=DIRECTION('',(0.0,0.0,-1.0));
#145=AXIS2_PLACEMENT_3D('',#142,#143,#144);
#146=CIRCLE('',#145,0.1929133858);
#147=EDGE_CURVE('n° 294',#134,#132,#146,.T.);
#148=ORIENTED_EDGE('',*,*,#147,.F.);
#149=EDGE_LOOP('',(#141,#148));
#150=FACE_BOUND('',#149,.T.);
#151=CARTESIAN_POINT('',(0.1929133858,2.0472440945,0.0));
#152=DIRECTION('',(0.0,-1.0,0.0));
#153=DIRECTION('',(0.0,0.0,-1.0));
#154=AXIS2_PLACEMENT_3D('',#151,#152,#153);
#155=PLANE('',#154);
#156=ADVANCED_FACE('n° 274',(#130,#150),#155,.T.);
#157=CARTESIAN_POINT('',(0.0,0.3937007874,0.1929133858));
#158=VERTEX_POINT('',#157);
#159=CARTESIAN_POINT('',(0.0,2.0472440945,0.1929133858));
#160=DIRECTION('',(0.0,-1.0,0.0));
#161=VECTOR('',#160,1.0);
#162=LINE('',#159,#161);
#163=EDGE_CURVE('n° 304',#132,#158,#162,.T.);
#164=ORIENTED_EDGE('',*,*,#163,.F.);
#165=ORIENTED_EDGE('',*,*,#140,.T.);
#166=CARTESIAN_POINT('',(0.0,0.3937007874,-0.1929133858));
#167=VERTEX_POINT('',#166);
#168=CARTESIAN_POINT('',(0.0,2.0472440945,-0.1929133858));
#169=DIRECTION('',(0.0,-1.0,0.0));
#170=VECTOR('',#169,1.0);
#171=LINE('',#168,#170);
#172=EDGE_CURVE('n° 312',#134,#167,#171,.T.);
#173=ORIENTED_EDGE('',*,*,#172,.T.);
#174=CARTESIAN_POINT('',(0.0,0.3937007874,0.0));
#175=DIRECTION('',(0.0,-1.0,0.0));
#176=DIRECTION('',(0.0,0.0,-1.0));
#177=AXIS2_PLACEMENT_3D('',#174,#175,#176);
#178=CIRCLE('',#177,0.1929133858);
#179=EDGE_CURVE('n° 316',#158,#167,#178,.T.);
#180=ORIENTED_EDGE('',*,*,#179,.F.);
#181=EDGE_LOOP('',(#164,#165,#173,#180));
#182=FACE_OUTER_BOUND('',#181,.T.);
#183=CARTESIAN_POINT('',(0.0,0.0101322564,0.0));
#184=DIRECTION('',(0.0,-1.0,0.0));
#185=DIRECTION('',(1.0,0.0,-0.0));
#186=AXIS2_PLACEMENT_3D('',#183,#184,#185);
#187=CYLINDRICAL_SURFACE('',#186,0.1929133858);
#188=ADVANCED_FACE('n° 297',(#182),#187,.T.);
#189=CARTESIAN_POINT('',(0.0,0.3937007874,0.0));
#190=DIRECTION('',(0.0,-1.0,0.0));
#191=DIRECTION('',(0.0,0.0,-1.0));
#192=AXIS2_PLACEMENT_3D('',#189,#190,#191);
#193=CIRCLE('',#192,0.1929133858);
#194=EDGE_CURVE('n° 323',#167,#158,#193,.T.);
#195=ORIENTED_EDGE('',*,*,#194,.T.);
#196=ORIENTED_EDGE('',*,*,#179,.T.);
#197=EDGE_LOOP('',(#195,#196));
#198=FACE_BOUND('',#197,.T.);
#199=CARTESIAN_POINT('',(0.0,0.3937007874,0.1968503937));
#200=VERTEX_POINT('',#199);
#201=CARTESIAN_POINT('',(0.0,0.3937007874,-0.1968503937));
#202=VERTEX_POINT('',#201);
#203=CARTESIAN_POINT('',(0.0,0.3937007874,0.0));
#204=DIRECTION('',(0.0,-1.0,0.0));
#205=DIRECTION('',(0.0,0.0,-1.0));
#206=AXIS2_PLACEMENT_3D('',#203,#204,#205);
#207=CIRCLE('',#206,0.1968503937);
#208=EDGE_CURVE('n° 334',#200,#202,#207,.T.);
#209=ORIENTED_EDGE('',*,*,#208,.F.);
#210=CARTESIAN_POINT('',(0.0,0.3937007874,0.0));
#211=DIRECTION('',(0.0,-1.0,0.0));
#212=DIRECTION('',(0.0,0.0,-1.0));
#213=AXIS2_PLACEMENT_3D('',#210,#211,#212);
#214=CIRCLE('',#213,0.1968503937);
#215=EDGE_CURVE('n° 338',#202,#200,#214,.T.);
#216=ORIENTED_EDGE('',*,*,#215,.F.);
#217=EDGE_LOOP('',(#209,#216));
#218=FACE_OUTER_BOUND('',#217,.T.);
#219=CARTESIAN_POINT('',(0.1968503937,0.3937007874,0.0));
#220=DIRECTION('',(0.0,1.0,0.0));
#221=DIRECTION('',(0.0,0.0,1.0));
#222=AXIS2_PLACEMENT_3D('',#219,#220,#221);
#223=PLANE('',#222);
#224=ADVANCED_FACE('n° 318',(#198,#218),#223,.T.);
#225=CARTESIAN_POINT('',(0.0,0.0439556248,0.1968503937));
#226=VERTEX_POINT('',#225);
#227=CARTESIAN_POINT('',(0.0,0.3937007874,0.1968503937));
#228=DIRECTION('',(0.0,-1.0,0.0));
#229=VECTOR('',#228,1.0);
#230=LINE('',#227,#229);
#231=EDGE_CURVE('n° 348',#200,#226,#230,.T.);
#232=ORIENTED_EDGE('',*,*,#231,.F.);
#233=ORIENTED_EDGE('',*,*,#208,.T.);
#234=CARTESIAN_POINT('',(0.0,0.0439556248,-0.1968503937));
#235=VERTEX_POINT('',#234);
#236=CARTESIAN_POINT('',(0.0,0.3937007874,-0.1968503937));
#237=DIRECTION('',(0.0,-1.0,0.0));
#238=VECTOR('',#237,1.0);
#239=LINE('',#236,#238);
#240=EDGE_CURVE('n° 356',#202,#235,#239,.T.);
#241=ORIENTED_EDGE('',*,*,#240,.T.);
#242=CARTESIAN_POINT('',(-0.1872158497,0.0439556248,-0.060830117));
#243=VERTEX_POINT('',#242);
#244=CARTESIAN_POINT('',(0.0,0.0439556248,0.0));
#245=DIRECTION('',(0.0,-1.0,0.0));
#246=DIRECTION('',(0.0,0.0,-1.0));
#247=AXIS2_PLACEMENT_3D('',#244,#245,#246);
#248=CIRCLE('',#247,0.1968503937);
#249=EDGE_CURVE('n° 362',#243,#235,#248,.T.);
#250=ORIENTED_EDGE('',*,*,#249,.F.);
#251=CARTESIAN_POINT('',(0.0,0.0439556248,0.0));
#252=DIRECTION('',(0.0,-1.0,0.0));
#253=DIRECTION('',(0.0,0.0,-1.0));
#254=AXIS2_PLACEMENT_3D('',#251,#252,#253);
#255=CIRCLE('',#254,0.1968503937);
#256=EDGE_CURVE('n° 366',#226,#243,#255,.T.);
#257=ORIENTED_EDGE('',*,*,#256,.F.);
#258=EDGE_LOOP('',(#232,#233,#241,#250,#257));
#259=FACE_OUTER_BOUND('',#258,.T.);
#260=CARTESIAN_POINT('',(0.0,0.0101322564,0.0));
#261=DIRECTION('',(0.0,-1.0,0.0));
#262=DIRECTION('',(1.0,0.0,-0.0));
#263=AXIS2_PLACEMENT_3D('',#260,#261,#262);
#264=CYLINDRICAL_SURFACE('',#263,0.1968503937);
#265=ADVANCED_FACE('n° 341',(#259),#264,.T.);
#266=CARTESIAN_POINT('',(-0.1725060329,0.021785976,-0.0560506078));
#267=VERTEX_POINT('',#266);
#268=CARTESIAN_POINT('',(-0.1647499477,0.0439556248,-0.053530503));
#269=DIRECTION('',(0.3090169944,0.0,-0.9510565163));
#270=DIRECTION('',(-0.3283409401,-0.9385151345,-0.1066844385));
#271=AXIS2_PLACEMENT_3D('',#268,#269,#270);
#272=CIRCLE('',#271,0.0236220472);
#273=EDGE_CURVE('n° 376',#267,#243,#272,.T.);
#274=ORIENTED_EDGE('',*,*,#273,.T.);
#275=ORIENTED_EDGE('',*,*,#249,.T.);
#276=CARTESIAN_POINT('',(0.1872158497,0.0439556248,0.060830117));
#277=VERTEX_POINT('',#276);
#278=CARTESIAN_POINT('',(0.0,0.0439556248,0.0));
#279=DIRECTION('',(0.0,-1.0,0.0));
#280=DIRECTION('',(0.0,0.0,-1.0));
#281=AXIS2_PLACEMENT_3D('',#278,#279,#280);
#282=CIRCLE('',#281,0.1968503937);
#283=EDGE_CURVE('n° 384',#235,#277,#282,.T.);
#284=ORIENTED_EDGE('',*,*,#283,.T.);
#285=CARTESIAN_POINT('',(0.1725060329,0.021785976,0.0560506078));
#286=VERTEX_POINT('',#285);
#287=CARTESIAN_POINT('',(0.1647499477,0.0439556248,0.053530503));
#288=DIRECTION('',(-0.3090169944,-0.0,0.9510565163));
#289=DIRECTION('',(0.3283409401,-0.9385151345,0.1066844385));
#290=AXIS2_PLACEMENT_3D('',#287,#288,#289);
#291=CIRCLE('',#290,0.0236220472);
#292=EDGE_CURVE('n° 390',#286,#277,#291,.T.);
#293=ORIENTED_EDGE('',*,*,#292,.F.);
#294=CARTESIAN_POINT('',(0.0,0.021785976,-0.1813835771));
#295=VERTEX_POINT('',#294);
#296=CARTESIAN_POINT('',(0.0,0.021785976,0.0));
#297=DIRECTION('',(0.0,-1.0,0.0));
#298=DIRECTION('',(0.0,0.0,-1.0));
#299=AXIS2_PLACEMENT_3D('',#296,#297,#298);
#300=CIRCLE('',#299,0.1813835771);
#301=EDGE_CURVE('n° 396',#295,#286,#300,.T.);
#302=ORIENTED_EDGE('',*,*,#301,.F.);
#303=CARTESIAN_POINT('',(0.0,0.021785976,0.0));
#304=DIRECTION('',(0.0,-1.0,0.0));
#305=DIRECTION('',(0.0,0.0,-1.0));
#306=AXIS2_PLACEMENT_3D('',#303,#304,#305);
#307=CIRCLE('',#306,0.1813835771);
#308=EDGE_CURVE('n° 400',#267,#295,#307,.T.);
#309=ORIENTED_EDGE('',*,*,#308,.F.);
#310=EDGE_LOOP('',(#274,#275,#284,#293,#302,#309));
#311=FACE_OUTER_BOUND('',#310,.T.);
#312=CARTESIAN_POINT('',(0.0,0.0439556248,0.0));
#313=DIRECTION('',(0.0,-1.0,0.0));
#314=DIRECTION('',(-0.3090169944,0.0,0.9510565163));
#315=AXIS2_PLACEMENT_3D('',#312,#313,#314);
#316=TOROIDAL_SURFACE('',#315,0.1732283465,0.0236220472);
#317=ADVANCED_FACE('n° 369',(#311),#316,.T.);
#318=CARTESIAN_POINT('',(-0.0561647549,0.3543307087,-0.0182490351));
#319=DIRECTION('',(0.3090169944,-0.0,-0.9510565163));
#320=DIRECTION('',(-0.0,-1.0,-0.0));
#321=AXIS2_PLACEMENT_3D('',#318,#319,#320);
#322=CIRCLE('',#321,0.3543307087);
#323=EDGE_CURVE('n° 408',#22,#267,#322,.T.);
#324=ORIENTED_EDGE('',*,*,#323,.T.);
#325=ORIENTED_EDGE('',*,*,#308,.T.);
#326=ORIENTED_EDGE('',*,*,#301,.T.);
#327=CARTESIAN_POINT('',(0.0561647549,0.3543307087,0.0182490351));
#328=DIRECTION('',(-0.3090169944,0.0,0.9510565163));
#329=DIRECTION('',(0.0,-1.0,0.0));
#330=AXIS2_PLACEMENT_3D('',#327,#328,#329);
#331=CIRCLE('',#330,0.3543307087);
#332=EDGE_CURVE('n° 416',#40,#286,#331,.T.);
#333=ORIENTED_EDGE('',*,*,#332,.F.);
#334=ORIENTED_EDGE('',*,*,#46,.F.);
#335=ORIENTED_EDGE('',*,*,#37,.F.);
#336=EDGE_LOOP('',(#324,#325,#326,#333,#334,#335));
#337=FACE_OUTER_BOUND('',#336,.T.);
#338=CARTESIAN_POINT('',(0.0,0.3543307087,0.0));
#339=DIRECTION('',(0.0,-1.0,0.0));
#340=DIRECTION('',(-0.3090169944,0.0,0.9510565163));
#341=AXIS2_PLACEMENT_3D('',#338,#339,#340);
#342=DEGENERATE_TOROIDAL_SURFACE('',#341,0.0590551181,0.3543307087,.T.);
#343=ADVANCED_FACE('n° 403',(#337),#342,.T.);
#344=ORIENTED_EDGE('',*,*,#53,.T.);
#345=CARTESIAN_POINT('',(0.0,0.0,0.0));
#346=DIRECTION('',(0.0,-1.0,0.0));
#347=DIRECTION('',(0.0,0.0,-1.0));
#348=AXIS2_PLACEMENT_3D('',#345,#346,#347);
#349=CIRCLE('',#348,0.0590551181);
#350=EDGE_CURVE('n° 430',#40,#22,#349,.T.);
#351=ORIENTED_EDGE('',*,*,#350,.T.);
#352=ORIENTED_EDGE('',*,*,#28,.F.);
#353=EDGE_LOOP('',(#344,#351,#352));
#354=FACE_OUTER_BOUND('',#353,.T.);
#355=CARTESIAN_POINT('',(0.0,0.1771653543,0.0));
#356=DIRECTION('',(0.0,-1.0,0.0));
#357=DIRECTION('',(0.3090169944,0.0,-0.9510565163));
#358=AXIS2_PLACEMENT_3D('',#355,#356,#357);
#359=DEGENERATE_TOROIDAL_SURFACE('',#358,0.0590551181,0.1771653543,.T.);
#360=ADVANCED_FACE('n° 423',(#354),#359,.T.);
#361=ORIENTED_EDGE('',*,*,#95,.T.);
#362=ORIENTED_EDGE('',*,*,#126,.F.);
#363=ORIENTED_EDGE('',*,*,#104,.F.);
#364=ORIENTED_EDGE('',*,*,#79,.T.);
#365=EDGE_LOOP('',(#361,#362,#363,#364));
#366=FACE_OUTER_BOUND('',#365,.T.);
#367=CARTESIAN_POINT('',(0.0,0.0101322564,0.0));
#368=DIRECTION('',(0.0,-1.0,0.0));
#369=DIRECTION('',(-1.0,0.0,-0.0));
#370=AXIS2_PLACEMENT_3D('',#367,#368,#369);
#371=CYLINDRICAL_SURFACE('',#370,0.1968503937);
#372=ADVANCED_FACE('n° 438',(#366),#371,.T.);
#373=ORIENTED_EDGE('',*,*,#163,.T.);
#374=ORIENTED_EDGE('',*,*,#194,.F.);
#375=ORIENTED_EDGE('',*,*,#172,.F.);
#376=ORIENTED_EDGE('',*,*,#147,.T.);
#377=EDGE_LOOP('',(#373,#374,#375,#376));
#378=FACE_OUTER_BOUND('',#377,.T.);
#379=CARTESIAN_POINT('',(0.0,0.0101322564,0.0));
#380=DIRECTION('',(0.0,-1.0,0.0));
#381=DIRECTION('',(-1.0,0.0,-0.0));
#382=AXIS2_PLACEMENT_3D('',#379,#380,#381);
#383=CYLINDRICAL_SURFACE('',#382,0.1929133858);
#384=ADVANCED_FACE('n° 450',(#378),#383,.T.);
#385=ORIENTED_EDGE('',*,*,#231,.T.);
#386=CARTESIAN_POINT('',(0.0,0.0439556248,0.0));
#387=DIRECTION('',(0.0,-1.0,0.0));
#388=DIRECTION('',(0.0,0.0,-1.0));
#389=AXIS2_PLACEMENT_3D('',#386,#387,#388);
#390=CIRCLE('',#389,0.1968503937);
#391=EDGE_CURVE('n° 469',#277,#226,#390,.T.);
#392=ORIENTED_EDGE('',*,*,#391,.F.);
#393=ORIENTED_EDGE('',*,*,#283,.F.);
#394=ORIENTED_EDGE('',*,*,#240,.F.);
#395=ORIENTED_EDGE('',*,*,#215,.T.);
#396=EDGE_LOOP('',(#385,#392,#393,#394,#395));
#397=FACE_OUTER_BOUND('',#396,.T.);
#398=CARTESIAN_POINT('',(0.0,0.0101322564,0.0));
#399=DIRECTION('',(0.0,-1.0,0.0));
#400=DIRECTION('',(-1.0,0.0,-0.0));
#401=AXIS2_PLACEMENT_3D('',#398,#399,#400);
#402=CYLINDRICAL_SURFACE('',#401,0.1968503937);
#403=ADVANCED_FACE('n° 462',(#397),#402,.T.);
#404=ORIENTED_EDGE('',*,*,#273,.F.);
#405=CARTESIAN_POINT('',(0.0,0.021785976,0.0));
#406=DIRECTION('',(0.0,-1.0,0.0));
#407=DIRECTION('',(0.0,0.0,-1.0));
#408=AXIS2_PLACEMENT_3D('',#405,#406,#407);
#409=CIRCLE('',#408,0.1813835771);
#410=EDGE_CURVE('n° 485',#286,#267,#409,.T.);
#411=ORIENTED_EDGE('',*,*,#410,.F.);
#412=ORIENTED_EDGE('',*,*,#292,.T.);
#413=ORIENTED_EDGE('',*,*,#391,.T.);
#414=ORIENTED_EDGE('',*,*,#256,.T.);
#415=EDGE_LOOP('',(#404,#411,#412,#413,#414));
#416=FACE_OUTER_BOUND('',#415,.T.);
#417=CARTESIAN_POINT('',(0.0,0.0439556248,0.0));
#418=DIRECTION('',(0.0,-1.0,0.0));
#419=DIRECTION('',(0.3090169944,0.0,-0.9510565163));
#420=AXIS2_PLACEMENT_3D('',#417,#418,#419);
#421=TOROIDAL_SURFACE('',#420,0.1732283465,0.0236220472);
#422=ADVANCED_FACE('n° 478',(#416),#421,.T.);
#423=ORIENTED_EDGE('',*,*,#323,.F.);
#424=ORIENTED_EDGE('',*,*,#350,.F.);
#425=ORIENTED_EDGE('',*,*,#332,.T.);
#426=ORIENTED_EDGE('',*,*,#410,.T.);
#427=EDGE_LOOP('',(#423,#424,#425,#426));
#428=FACE_OUTER_BOUND('',#427,.T.);
#429=CARTESIAN_POINT('',(0.0,0.3543307087,0.0));
#430=DIRECTION('',(0.0,-1.0,0.0));
#431=DIRECTION('',(0.3090169944,0.0,-0.9510565163));
#432=AXIS2_PLACEMENT_3D('',#429,#430,#431);
#433=DEGENERATE_TOROIDAL_SURFACE('',#432,0.0590551181,0.3543307087,.T.);
#434=ADVANCED_FACE('n° 494',(#428),#433,.T.);
#435=CLOSED_SHELL('',(
    #62,#88,#120,#156,#188,#224,#265,#317,#343,#360,
    #372,#384,#403,#422,#434));
#436=MANIFOLD_SOLID_BREP('',#435);
#437=PRESENTATION_LAYER_ASSIGNMENT('27','Layer 27',(#436));
#438=COLOUR_RGB('',0.50196,0.50196,0.50196);
#439=FILL_AREA_STYLE_COLOUR('',#438);
#440=FILL_AREA_STYLE('',(#439));
#441=SURFACE_STYLE_FILL_AREA(#440);
#442=SURFACE_SIDE_STYLE('',(#441));
#443=SURFACE_STYLE_USAGE(.BOTH.,#442);
#444=PRESENTATION_STYLE_ASSIGNMENT((#443));
#445=STYLED_ITEM('',(#444),#436);
#446=DRAUGHTING_PRE_DEFINED_COLOUR('red');
#447=FILL_AREA_STYLE_COLOUR('',#446);
#448=FILL_AREA_STYLE('',(#447));
#449=SURFACE_STYLE_FILL_AREA(#448);
#450=SURFACE_SIDE_STYLE('',(#449));
#451=SURFACE_STYLE_USAGE(.BOTH.,#450);
#452=PRESENTATION_STYLE_ASSIGNMENT((#451));
#453=OVER_RIDING_STYLED_ITEM('',(#452),#62,#445);
#454=OVER_RIDING_STYLED_ITEM('',(#452),#224,#445);
#455=OVER_RIDING_STYLED_ITEM('',(#452),#265,#445);
#456=OVER_RIDING_STYLED_ITEM('',(#452),#317,#445);
#457=OVER_RIDING_STYLED_ITEM('',(#452),#343,#445);
#458=OVER_RIDING_STYLED_ITEM('',(#452),#360,#445);
#459=OVER_RIDING_STYLED_ITEM('',(#452),#403,#445);
#460=OVER_RIDING_STYLED_ITEM('',(#452),#422,#445);
#461=OVER_RIDING_STYLED_ITEM('',(#452),#434,#445);
#462=CARTESIAN_POINT('',(0.,0.,0.));
#463=DIRECTION('',(0.,0.,1.));
#464=DIRECTION('',(1.,0.,0.));
#465=AXIS2_PLACEMENT_3D('Reference Axes',#462,#463,#464);
#466=ADVANCED_BREP_SHAPE_REPRESENTATION('',(#465,#436),#8);
#467=SHAPE_DEFINITION_REPRESENTATION(#15,#466);
#468=MECHANICAL_DESIGN_GEOMETRIC_PRESENTATION_REPRESENTATION('',(#445,#453,#454,#455,#456,#457,#458,#459,#460,#461),#8);
ENDSEC;
END-ISO-10303-21;
