ISO-10303-21;
HEADER;
FILE_DESCRIPTION ((), '1');
FILE_NAME ('C:\\Users\\kevin\\HPD CR-SR 5xD\\HPDCR 0790A.STP', '2021-12-07T16:01:37', ('Unknown'), ('m.a.ford europe'), 'OneCNC-XR8 Mill 3D Expert', 'OneCNC-XR8 Mill 3D Expert', '');
FILE_SCHEMA (('CONFIG_CONTROL_DESIGN'));
ENDSEC;

DATA;
#1 = CARTESIAN_POINT ('', (-90.75, 4., -9.7971743931788E-16));
#2 = VERTEX_POINT ('', #1);
#3 = CARTESIAN_POINT ('', (-91., 3.75, -9.18485099360514E-16));
#4 = VERTEX_POINT ('', #3);
#5 = CARTESIAN_POINT ('', (-90.75, 4., -9.7971743931788E-16));
#6 = CARTESIAN_POINT ('', (-90.8333333333333, 3.91666666666667, -9.59306659332092E-16));
#7 = CARTESIAN_POINT ('', (-90.9166666666668, 3.83333333333333, -9.38895879346302E-16));
#8 = CARTESIAN_POINT ('', (-91., 3.75, -9.18485099360514E-16));
#9 = B_SPLINE_CURVE_WITH_KNOTS ('', 3, (#5, #6, #7, #8), .UNSPECIFIED., .F., .U., (4, 4), (0., 1.), .UNSPECIFIED.);
#10 = EDGE_CURVE ('', #2, #4, #9, .T.);
#11 = ORIENTED_EDGE ('', *, *, #10, .F.);
#12 = CARTESIAN_POINT ('', (-90.75, 4., -9.7971743931788E-16));
#13 = CARTESIAN_POINT ('', (-90.75, 3.99999999999998, 16.));
#14 = CARTESIAN_POINT ('', (-90.75, -12., 7.99999999999997));
#15 = CARTESIAN_POINT ('', (-90.75, -12., -8.00000000000001));
#16 = CARTESIAN_POINT ('', (-90.75, 4.00000000000002, -16.));
#17 = CARTESIAN_POINT ('', (-90.75, 4., -9.7971743931788E-16));
#18 = (
   BOUNDED_CURVE ()
   B_SPLINE_CURVE (5, (#12, #13, #14, #15, #16, #17), .UNSPECIFIED., .T., .U.)
   B_SPLINE_CURVE_WITH_KNOTS ((6, 6), (0., 1.), .UNSPECIFIED.)
   CURVE ()
   GEOMETRIC_REPRESENTATION_ITEM ()
   RATIONAL_B_SPLINE_CURVE ((5., 1., 1., 1., 1., 5.))
   REPRESENTATION_ITEM ('')
);
#19 = EDGE_CURVE ('', #2, #2, #18, .T.);
#20 = ORIENTED_EDGE ('', *, *, #19, .T.);
#21 = ORIENTED_EDGE ('', *, *, #10, .T.);
#22 = CARTESIAN_POINT ('', (-91., 3.75, -9.18485099360514E-16));
#23 = CARTESIAN_POINT ('', (-91., 3.74999999999998, 15.));
#24 = CARTESIAN_POINT ('', (-91., -11.25, 7.49999999999997));
#25 = CARTESIAN_POINT ('', (-91., -11.25, -7.50000000000001));
#26 = CARTESIAN_POINT ('', (-91., 3.75000000000002, -15.));
#27 = CARTESIAN_POINT ('', (-91., 3.75, -9.18485099360514E-16));
#28 = (
   BOUNDED_CURVE ()
   B_SPLINE_CURVE (5, (#22, #23, #24, #25, #26, #27), .UNSPECIFIED., .T., .U.)
   B_SPLINE_CURVE_WITH_KNOTS ((6, 6), (0., 1.), .UNSPECIFIED.)
   CURVE ()
   GEOMETRIC_REPRESENTATION_ITEM ()
   RATIONAL_B_SPLINE_CURVE ((5., 1., 1., 1., 1., 5.))
   REPRESENTATION_ITEM ('')
);
#29 = EDGE_CURVE ('', #4, #4, #28, .T.);
#30 = ORIENTED_EDGE ('', *, *, #29, .F.);
#31 = EDGE_LOOP ('', (#11, #20, #21, #30));
#32 = FACE_OUTER_BOUND ('', #31, .F.);
#33 = CARTESIAN_POINT ('', (-90.75, 4., -9.7971743931788E-16));
#34 = CARTESIAN_POINT ('', (-90.8333333333333, 3.91666666666667, -9.59306659332092E-16));
#35 = CARTESIAN_POINT ('', (-90.9166666666668, 3.83333333333333, -9.38895879346302E-16));
#36 = CARTESIAN_POINT ('', (-91., 3.75, -9.18485099360514E-16));
#37 = CARTESIAN_POINT ('', (-90.75, 3.99999999999998, 16.));
#38 = CARTESIAN_POINT ('', (-90.8333333333333, 3.91666666666665, 15.6666666666666));
#39 = CARTESIAN_POINT ('', (-90.9166666666668, 3.83333333333331, 15.3333333333333));
#40 = CARTESIAN_POINT ('', (-91., 3.74999999999998, 15.));
#41 = CARTESIAN_POINT ('', (-90.75, -12., 7.99999999999997));
#42 = CARTESIAN_POINT ('', (-90.8333333333333, -11.75, 7.8333333333333));
#43 = CARTESIAN_POINT ('', (-90.9166666666668, -11.5, 7.66666666666663));
#44 = CARTESIAN_POINT ('', (-91., -11.25, 7.49999999999997));
#45 = CARTESIAN_POINT ('', (-90.75, -12., -8.00000000000001));
#46 = CARTESIAN_POINT ('', (-90.8333333333333, -11.75, -7.83333333333334));
#47 = CARTESIAN_POINT ('', (-90.9166666666668, -11.5, -7.66666666666667));
#48 = CARTESIAN_POINT ('', (-91., -11.25, -7.50000000000001));
#49 = CARTESIAN_POINT ('', (-90.75, 4.00000000000002, -16.));
#50 = CARTESIAN_POINT ('', (-90.8333333333333, 3.91666666666669, -15.6666666666666));
#51 = CARTESIAN_POINT ('', (-90.9166666666668, 3.83333333333335, -15.3333333333333));
#52 = CARTESIAN_POINT ('', (-91., 3.75000000000002, -15.));
#53 = CARTESIAN_POINT ('', (-90.75, 4., -9.7971743931788E-16));
#54 = CARTESIAN_POINT ('', (-90.8333333333333, 3.91666666666667, -9.59306659332092E-16));
#55 = CARTESIAN_POINT ('', (-90.9166666666668, 3.83333333333333, -9.38895879346302E-16));
#56 = CARTESIAN_POINT ('', (-91., 3.75, -9.18485099360514E-16));
#57 = (
   BOUNDED_SURFACE ()
   B_SPLINE_SURFACE (5, 3, ((#33, #34, #35, #36), (#37, #38, #39, #40), (#41, #42, #43, #44), (#45, #46, #47, #48), (#49, #50, #51, #52), (#53, #54, #55, #56)), .UNSPECIFIED., .T., .F., .U.)
   B_SPLINE_SURFACE_WITH_KNOTS ((6, 6), (4, 4), (0., 1.), (0., 1.), .UNSPECIFIED.)
   SURFACE ()
   GEOMETRIC_REPRESENTATION_ITEM ()
   RATIONAL_B_SPLINE_SURFACE (((5., 5., 5., 5.), (1., 1., 1., 1.), (1., 1., 1., 1.), (1., 1., 1., 1.), (1., 1., 1., 1.), (5., 5., 5., 5.)))
   REPRESENTATION_ITEM ('')
);
#58 = ADVANCED_FACE ('', (#32), #57, .F.);
#59 = CARTESIAN_POINT ('', (-91., 5.57214293612046E-15, -5.57214293612046E-15));
#60 = VERTEX_POINT ('', #59);
#61 = CARTESIAN_POINT ('', (-91., 3.75, -9.18485099360514E-16));
#62 = CARTESIAN_POINT ('', (-91., 2.5, -6.12323399573674E-16));
#63 = CARTESIAN_POINT ('', (-91., 1.25, -3.06161699786836E-16));
#64 = CARTESIAN_POINT ('', (-91., 5.57214293612046E-15, -5.57214293612046E-15));
#65 = B_SPLINE_CURVE_WITH_KNOTS ('', 3, (#61, #62, #63, #64), .UNSPECIFIED., .F., .U., (4, 4), (0., 1.), .UNSPECIFIED.);
#66 = EDGE_CURVE ('', #4, #60, #65, .T.);
#67 = ORIENTED_EDGE ('', *, *, #66, .F.);
#68 = ORIENTED_EDGE ('', *, *, #29, .T.);
#69 = ORIENTED_EDGE ('', *, *, #66, .T.);
#70 = EDGE_LOOP ('', (#67, #68, #69));
#71 = FACE_OUTER_BOUND ('', #70, .F.);
#72 = CARTESIAN_POINT ('', (-91., 3.75, -9.18485099360514E-16));
#73 = CARTESIAN_POINT ('', (-91., 2.5, -6.12323399573674E-16));
#74 = CARTESIAN_POINT ('', (-91., 1.25, -3.06161699786836E-16));
#75 = CARTESIAN_POINT ('', (-91., 5.57214293612046E-15, -5.57214293612046E-15));
#76 = CARTESIAN_POINT ('', (-91., 3.74999999999998, 15.));
#77 = CARTESIAN_POINT ('', (-91., 2.49999999999998, 9.99999999999996));
#78 = CARTESIAN_POINT ('', (-91., 1.24999999999998, 4.99999999999998));
#79 = CARTESIAN_POINT ('', (-91., 5.57214293612046E-15, -5.57214293612046E-15));
#80 = CARTESIAN_POINT ('', (-91., -11.25, 7.49999999999997));
#81 = CARTESIAN_POINT ('', (-91., -7.49999999999998, 4.99999999999996));
#82 = CARTESIAN_POINT ('', (-91., -3.74999999999999, 2.49999999999997));
#83 = CARTESIAN_POINT ('', (-91., 5.57214293612046E-15, -5.57214293612046E-15));
#84 = CARTESIAN_POINT ('', (-91., -11.25, -7.50000000000001));
#85 = CARTESIAN_POINT ('', (-91., -7.49999999999996, -5.));
#86 = CARTESIAN_POINT ('', (-91., -3.74999999999997, -2.50000000000001));
#87 = CARTESIAN_POINT ('', (-91., 5.57214293612046E-15, -5.57214293612046E-15));
#88 = CARTESIAN_POINT ('', (-91., 3.75000000000002, -15.));
#89 = CARTESIAN_POINT ('', (-91., 2.50000000000002, -9.99999999999996));
#90 = CARTESIAN_POINT ('', (-91., 1.25000000000002, -4.99999999999998));
#91 = CARTESIAN_POINT ('', (-91., 5.57214293612046E-15, -5.57214293612046E-15));
#92 = CARTESIAN_POINT ('', (-91., 3.75, -9.18485099360514E-16));
#93 = CARTESIAN_POINT ('', (-91., 2.5, -6.12323399573674E-16));
#94 = CARTESIAN_POINT ('', (-91., 1.25, -3.06161699786836E-16));
#95 = CARTESIAN_POINT ('', (-91., 5.57214293612046E-15, -5.57214293612046E-15));
#96 = (
   BOUNDED_SURFACE ()
   B_SPLINE_SURFACE (5, 3, ((#72, #73, #74, #75), (#76, #77, #78, #79), (#80, #81, #82, #83), (#84, #85, #86, #87), (#88, #89, #90, #91), (#92, #93, #94, #95)), .UNSPECIFIED., .T., .F., .U.)
   B_SPLINE_SURFACE_WITH_KNOTS ((6, 6), (4, 4), (0., 1.), (0., 1.), .UNSPECIFIED.)
   SURFACE ()
   GEOMETRIC_REPRESENTATION_ITEM ()
   RATIONAL_B_SPLINE_SURFACE (((5., 5., 5., 5.), (1., 1., 1., 1.), (1., 1., 1., 1.), (1., 1., 1., 1.), (1., 1., 1., 1.), (5., 5., 5., 5.)))
   REPRESENTATION_ITEM ('')
);
#97 = ADVANCED_FACE ('', (#71), #96, .F.);
#98 = CARTESIAN_POINT ('', (-43., 4., -9.79717439317882E-16));
#99 = VERTEX_POINT ('', #98);
#100 = CARTESIAN_POINT ('', (-43., 4., -9.79717439317882E-16));
#101 = CARTESIAN_POINT ('', (-58.9166666666667, 4., -9.79717439317881E-16));
#102 = CARTESIAN_POINT ('', (-74.8333333333333, 4., -9.79717439317881E-16));
#103 = CARTESIAN_POINT ('', (-90.75, 4., -9.7971743931788E-16));
#104 = B_SPLINE_CURVE_WITH_KNOTS ('', 3, (#100, #101, #102, #103), .UNSPECIFIED., .F., .U., (4, 4), (0., 1.), .UNSPECIFIED.);
#105 = EDGE_CURVE ('', #99, #2, #104, .T.);
#106 = ORIENTED_EDGE ('', *, *, #105, .F.);
#107 = CARTESIAN_POINT ('', (-43., 4., -9.79717439317882E-16));
#108 = CARTESIAN_POINT ('', (-43., 3.99999999999999, 16.));
#109 = CARTESIAN_POINT ('', (-43., -12., 7.99999999999999));
#110 = CARTESIAN_POINT ('', (-43., -12., -8.));
#111 = CARTESIAN_POINT ('', (-43., 4.00000000000001, -16.));
#112 = CARTESIAN_POINT ('', (-43., 4., -9.79717439317882E-16));
#113 = (
   BOUNDED_CURVE ()
   B_SPLINE_CURVE (5, (#107, #108, #109, #110, #111, #112), .UNSPECIFIED., .T., .U.)
   B_SPLINE_CURVE_WITH_KNOTS ((6, 6), (0., 1.), .UNSPECIFIED.)
   CURVE ()
   GEOMETRIC_REPRESENTATION_ITEM ()
   RATIONAL_B_SPLINE_CURVE ((5., 1., 1., 1., 1., 5.))
   REPRESENTATION_ITEM ('')
);
#114 = EDGE_CURVE ('', #99, #99, #113, .T.);
#115 = ORIENTED_EDGE ('', *, *, #114, .T.);
#116 = ORIENTED_EDGE ('', *, *, #105, .T.);
#117 = ORIENTED_EDGE ('', *, *, #19, .F.);
#118 = EDGE_LOOP ('', (#106, #115, #116, #117));
#119 = FACE_OUTER_BOUND ('', #118, .F.);
#120 = CARTESIAN_POINT ('', (-43., 4., -9.79717439317882E-16));
#121 = CARTESIAN_POINT ('', (-58.9166666666667, 4., -9.79717439317881E-16));
#122 = CARTESIAN_POINT ('', (-74.8333333333333, 4., -9.79717439317881E-16));
#123 = CARTESIAN_POINT ('', (-90.75, 4., -9.7971743931788E-16));
#124 = CARTESIAN_POINT ('', (-43., 3.99999999999999, 16.));
#125 = CARTESIAN_POINT ('', (-58.9166666666667, 3.99999999999999, 16.));
#126 = CARTESIAN_POINT ('', (-74.8333333333333, 3.99999999999999, 16.));
#127 = CARTESIAN_POINT ('', (-90.75, 3.99999999999998, 16.));
#128 = CARTESIAN_POINT ('', (-43., -12., 7.99999999999999));
#129 = CARTESIAN_POINT ('', (-58.9166666666667, -12., 7.99999999999998));
#130 = CARTESIAN_POINT ('', (-74.8333333333333, -12., 7.99999999999998));
#131 = CARTESIAN_POINT ('', (-90.75, -12., 7.99999999999997));
#132 = CARTESIAN_POINT ('', (-43., -12., -8.));
#133 = CARTESIAN_POINT ('', (-58.9166666666667, -12., -8.));
#134 = CARTESIAN_POINT ('', (-74.8333333333333, -12., -8.00000000000001));
#135 = CARTESIAN_POINT ('', (-90.75, -12., -8.00000000000001));
#136 = CARTESIAN_POINT ('', (-43., 4.00000000000001, -16.));
#137 = CARTESIAN_POINT ('', (-58.9166666666667, 4.00000000000001, -16.));
#138 = CARTESIAN_POINT ('', (-74.8333333333333, 4.00000000000001, -16.));
#139 = CARTESIAN_POINT ('', (-90.75, 4.00000000000002, -16.));
#140 = CARTESIAN_POINT ('', (-43., 4., -9.79717439317882E-16));
#141 = CARTESIAN_POINT ('', (-58.9166666666667, 4., -9.79717439317881E-16));
#142 = CARTESIAN_POINT ('', (-74.8333333333333, 4., -9.79717439317881E-16));
#143 = CARTESIAN_POINT ('', (-90.75, 4., -9.7971743931788E-16));
#144 = (
   BOUNDED_SURFACE ()
   B_SPLINE_SURFACE (5, 3, ((#120, #121, #122, #123), (#124, #125, #126, #127), (#128, #129, #130, #131), (#132, #133, #134, #135), (#136, #137, #138, #139), (#140, #141, #142, #143)), .UNSPECIFIED., .T., .F., .U.)
   B_SPLINE_SURFACE_WITH_KNOTS ((6, 6), (4, 4), (0., 1.), (0., 1.), .UNSPECIFIED.)
   SURFACE ()
   GEOMETRIC_REPRESENTATION_ITEM ()
   RATIONAL_B_SPLINE_SURFACE (((5., 5., 5., 5.), (1., 1., 1., 1.), (1., 1., 1., 1.), (1., 1., 1., 1.), (1., 1., 1., 1.), (5., 5., 5., 5.)))
   REPRESENTATION_ITEM ('')
);
#145 = ADVANCED_FACE ('', (#119), #144, .F.);
#146 = CARTESIAN_POINT ('', (-1.4376824253515, 3.95, -9.67470971326409E-16));
#147 = VERTEX_POINT ('', #146);
#148 = CARTESIAN_POINT ('', (-1.4376824253515, 3.95, -9.67470971326409E-16));
#149 = CARTESIAN_POINT ('', (-15.2917882835677, 3.96666666666666, -9.71553127323566E-16));
#150 = CARTESIAN_POINT ('', (-29.1458941417838, 3.98333333333333, -9.75635283320724E-16));
#151 = CARTESIAN_POINT ('', (-43., 4., -9.79717439317882E-16));
#152 = B_SPLINE_CURVE_WITH_KNOTS ('', 3, (#148, #149, #150, #151), .UNSPECIFIED., .F., .U., (4, 4), (0., 1.), .UNSPECIFIED.);
#153 = EDGE_CURVE ('', #147, #99, #152, .T.);
#154 = ORIENTED_EDGE ('', *, *, #153, .F.);
#155 = CARTESIAN_POINT ('', (-1.4376824253515, 3.95, -9.67470971326409E-16));
#156 = CARTESIAN_POINT ('', (-1.4376824253515, 3.95, 15.8));
#157 = CARTESIAN_POINT ('', (-1.4376824253515, -11.85, 7.9));
#158 = CARTESIAN_POINT ('', (-1.4376824253515, -11.85, -7.9));
#159 = CARTESIAN_POINT ('', (-1.4376824253515, 3.95, -15.8));
#160 = CARTESIAN_POINT ('', (-1.4376824253515, 3.95, -9.67470971326409E-16));
#161 = (
   BOUNDED_CURVE ()
   B_SPLINE_CURVE (5, (#155, #156, #157, #158, #159, #160), .UNSPECIFIED., .T., .U.)
   B_SPLINE_CURVE_WITH_KNOTS ((6, 6), (0., 1.), .UNSPECIFIED.)
   CURVE ()
   GEOMETRIC_REPRESENTATION_ITEM ()
   RATIONAL_B_SPLINE_CURVE ((5., 1., 1., 1., 1., 5.))
   REPRESENTATION_ITEM ('')
);
#162 = EDGE_CURVE ('', #147, #147, #161, .T.);
#163 = ORIENTED_EDGE ('', *, *, #162, .T.);
#164 = ORIENTED_EDGE ('', *, *, #153, .T.);
#165 = ORIENTED_EDGE ('', *, *, #114, .F.);
#166 = EDGE_LOOP ('', (#154, #163, #164, #165));
#167 = FACE_OUTER_BOUND ('', #166, .F.);
#168 = CARTESIAN_POINT ('', (-1.4376824253515, 3.95, -9.67470971326409E-16));
#169 = CARTESIAN_POINT ('', (-15.2917882835677, 3.96666666666666, -9.71553127323566E-16));
#170 = CARTESIAN_POINT ('', (-29.1458941417838, 3.98333333333333, -9.75635283320724E-16));
#171 = CARTESIAN_POINT ('', (-43., 4., -9.79717439317882E-16));
#172 = CARTESIAN_POINT ('', (-1.4376824253515, 3.95, 15.8));
#173 = CARTESIAN_POINT ('', (-15.2917882835677, 3.96666666666666, 15.8666666666667));
#174 = CARTESIAN_POINT ('', (-29.1458941417838, 3.98333333333333, 15.9333333333333));
#175 = CARTESIAN_POINT ('', (-43., 3.99999999999999, 16.));
#176 = CARTESIAN_POINT ('', (-1.4376824253515, -11.85, 7.9));
#177 = CARTESIAN_POINT ('', (-15.2917882835677, -11.9, 7.93333333333333));
#178 = CARTESIAN_POINT ('', (-29.1458941417838, -11.95, 7.96666666666666));
#179 = CARTESIAN_POINT ('', (-43., -12., 7.99999999999999));
#180 = CARTESIAN_POINT ('', (-1.4376824253515, -11.85, -7.9));
#181 = CARTESIAN_POINT ('', (-15.2917882835677, -11.9, -7.93333333333333));
#182 = CARTESIAN_POINT ('', (-29.1458941417838, -11.95, -7.96666666666667));
#183 = CARTESIAN_POINT ('', (-43., -12., -8.));
#184 = CARTESIAN_POINT ('', (-1.4376824253515, 3.95, -15.8));
#185 = CARTESIAN_POINT ('', (-15.2917882835677, 3.96666666666666, -15.8666666666667));
#186 = CARTESIAN_POINT ('', (-29.1458941417838, 3.98333333333334, -15.9333333333333));
#187 = CARTESIAN_POINT ('', (-43., 4.00000000000001, -16.));
#188 = CARTESIAN_POINT ('', (-1.4376824253515, 3.95, -9.67470971326409E-16));
#189 = CARTESIAN_POINT ('', (-15.2917882835677, 3.96666666666666, -9.71553127323566E-16));
#190 = CARTESIAN_POINT ('', (-29.1458941417838, 3.98333333333333, -9.75635283320724E-16));
#191 = CARTESIAN_POINT ('', (-43., 4., -9.79717439317882E-16));
#192 = (
   BOUNDED_SURFACE ()
   B_SPLINE_SURFACE (5, 3, ((#168, #169, #170, #171), (#172, #173, #174, #175), (#176, #177, #178, #179), (#180, #181, #182, #183), (#184, #185, #186, #187), (#188, #189, #190, #191)), .UNSPECIFIED., .T., .F., .U.)
   B_SPLINE_SURFACE_WITH_KNOTS ((6, 6), (4, 4), (0., 1.), (0., 1.), .UNSPECIFIED.)
   SURFACE ()
   GEOMETRIC_REPRESENTATION_ITEM ()
   RATIONAL_B_SPLINE_SURFACE (((5., 5., 5., 5.), (1., 1., 1., 1.), (1., 1., 1., 1.), (1., 1., 1., 1.), (1., 1., 1., 1.), (5., 5., 5., 5.)))
   REPRESENTATION_ITEM ('')
);
#193 = ADVANCED_FACE ('', (#167), #192, .F.);
#194 = CARTESIAN_POINT ('', (0., 0., 0.));
#195 = VERTEX_POINT ('', #194);
#196 = CARTESIAN_POINT ('', (0., 0., 0.));
#197 = CARTESIAN_POINT ('', (-0.479227475117166, 1.31666666666667, -3.2249032377547E-16));
#198 = CARTESIAN_POINT ('', (-0.958454950234328, 2.63333333333333, -6.44980647550939E-16));
#199 = CARTESIAN_POINT ('', (-1.4376824253515, 3.95, -9.67470971326409E-16));
#200 = B_SPLINE_CURVE_WITH_KNOTS ('', 3, (#196, #197, #198, #199), .UNSPECIFIED., .F., .U., (4, 4), (0., 1.), .UNSPECIFIED.);
#201 = EDGE_CURVE ('', #195, #147, #200, .T.);
#202 = ORIENTED_EDGE ('', *, *, #201, .F.);
#203 = ORIENTED_EDGE ('', *, *, #201, .T.);
#204 = ORIENTED_EDGE ('', *, *, #162, .F.);
#205 = EDGE_LOOP ('', (#202, #203, #204));
#206 = FACE_OUTER_BOUND ('', #205, .F.);
#207 = CARTESIAN_POINT ('', (0., 0., 0.));
#208 = CARTESIAN_POINT ('', (-0.479227475117166, 1.31666666666667, -3.2249032377547E-16));
#209 = CARTESIAN_POINT ('', (-0.958454950234328, 2.63333333333333, -6.44980647550939E-16));
#210 = CARTESIAN_POINT ('', (-1.4376824253515, 3.95, -9.67470971326409E-16));
#211 = CARTESIAN_POINT ('', (0., 0., 0.));
#212 = CARTESIAN_POINT ('', (-0.479227475117167, 1.31666666666667, 5.26666666666667));
#213 = CARTESIAN_POINT ('', (-0.958454950234329, 2.63333333333333, 10.5333333333333));
#214 = CARTESIAN_POINT ('', (-1.4376824253515, 3.95, 15.8));
#215 = CARTESIAN_POINT ('', (0., 0., 0.));
#216 = CARTESIAN_POINT ('', (-0.479227475117167, -3.95, 2.63333333333333));
#217 = CARTESIAN_POINT ('', (-0.958454950234329, -7.89999999999999, 5.26666666666666));
#218 = CARTESIAN_POINT ('', (-1.4376824253515, -11.85, 7.9));
#219 = CARTESIAN_POINT ('', (0., 0., 0.));
#220 = CARTESIAN_POINT ('', (-0.479227475117166, -3.95, -2.63333333333333));
#221 = CARTESIAN_POINT ('', (-0.958454950234328, -7.89999999999999, -5.26666666666666));
#222 = CARTESIAN_POINT ('', (-1.4376824253515, -11.85, -7.9));
#223 = CARTESIAN_POINT ('', (0., 0., 0.));
#224 = CARTESIAN_POINT ('', (-0.479227475117166, 1.31666666666667, -5.26666666666667));
#225 = CARTESIAN_POINT ('', (-0.958454950234328, 2.63333333333333, -10.5333333333333));
#226 = CARTESIAN_POINT ('', (-1.4376824253515, 3.95, -15.8));
#227 = CARTESIAN_POINT ('', (0., 0., 0.));
#228 = CARTESIAN_POINT ('', (-0.479227475117166, 1.31666666666667, -3.2249032377547E-16));
#229 = CARTESIAN_POINT ('', (-0.958454950234328, 2.63333333333333, -6.44980647550939E-16));
#230 = CARTESIAN_POINT ('', (-1.4376824253515, 3.95, -9.67470971326409E-16));
#231 = (
   BOUNDED_SURFACE ()
   B_SPLINE_SURFACE (5, 3, ((#207, #208, #209, #210), (#211, #212, #213, #214), (#215, #216, #217, #218), (#219, #220, #221, #222), (#223, #224, #225, #226), (#227, #228, #229, #230)), .UNSPECIFIED., .T., .F., .U.)
   B_SPLINE_SURFACE_WITH_KNOTS ((6, 6), (4, 4), (0., 1.), (0., 1.), .UNSPECIFIED.)
   SURFACE ()
   GEOMETRIC_REPRESENTATION_ITEM ()
   RATIONAL_B_SPLINE_SURFACE (((5., 5., 5., 5.), (1., 1., 1., 1.), (1., 1., 1., 1.), (1., 1., 1., 1.), (1., 1., 1., 1.), (5., 5., 5., 5.)))
   REPRESENTATION_ITEM ('')
);
#232 = ADVANCED_FACE ('', (#206), #231, .F.);
#233 = CLOSED_SHELL ('', (#58, #97, #145, #193, #232));
#234 = MANIFOLD_SOLID_BREP ('', #233);
#235 = (
   LENGTH_UNIT ()
   NAMED_UNIT (*)
   SI_UNIT (.MILLI., .METRE.)
);
#236 = (
   NAMED_UNIT (*)
   SI_UNIT ($, .STERADIAN.)
   SOLID_ANGLE_UNIT ()
);
#237 = (
   NAMED_UNIT (*)
   SI_UNIT ($, .RADIAN.)
   PLANE_ANGLE_UNIT ()
);
#238 = UNCERTAINTY_MEASURE_WITH_UNIT (LENGTH_MEASURE(0.001), #235, 'DISTANCE_ACCURACY_VALUE', '');
#239 = (
   GEOMETRIC_REPRESENTATION_CONTEXT (3)
   GLOBAL_UNCERTAINTY_ASSIGNED_CONTEXT ((#238))
   GLOBAL_UNIT_ASSIGNED_CONTEXT ((#235, #236, #237))
   REPRESENTATION_CONTEXT ('', '3D')
);
#240 = SHAPE_REPRESENTATION ('', (), #239);
#241 = APPLICATION_CONTEXT ('configuration controlled 3D designs of mechanical parts and assemblies');
#242 = APPLICATION_PROTOCOL_DEFINITION ('International Standard', 'config_control_design', 1997, #241);
#243 = MECHANICAL_CONTEXT ('', #241, 'mechanical');
#244 = PRODUCT ('', '', '', (#243));
#245 = PERSON_AND_ORGANIZATION_ROLE ('design_owner');
#246 = PERSON ('', '', $, $, $, $);
#247 = ORGANIZATION ($, '', '');
#248 = PERSON_AND_ORGANIZATION (#246, #247);
#249 = CC_DESIGN_PERSON_AND_ORGANIZATION_ASSIGNMENT (#248, #245, (#244));
#250 = PRODUCT_RELATED_PRODUCT_CATEGORY ('detail', $, (#244));
#251 = PRODUCT_DEFINITION_FORMATION_WITH_SPECIFIED_SOURCE ('', '', #244, .NOT_KNOWN.);
#252 = APPROVAL_STATUS ('approved');
#253 = APPROVAL (#252, '');
#254 = CALENDAR_DATE (2021, 7, 12);
#255 = COORDINATED_UNIVERSAL_TIME_OFFSET (0, $, .AHEAD.);
#256 = LOCAL_TIME (16, 1, 37., #255);
#257 = DATE_AND_TIME (#254, #256);
#258 = APPROVAL_DATE_TIME (#257, #253);
#259 = APPROVAL_ROLE ('');
#260 = PERSON ('', '', $, $, $, $);
#261 = ORGANIZATION ($, '', '');
#262 = PERSON_AND_ORGANIZATION (#260, #261);
#263 = APPROVAL_PERSON_ORGANIZATION (#262, #253, #259);
#264 = CC_DESIGN_APPROVAL (#253, (#251));
#265 = PERSON_AND_ORGANIZATION_ROLE ('creator');
#266 = PERSON ('', '', $, $, $, $);
#267 = ORGANIZATION ($, '', '');
#268 = PERSON_AND_ORGANIZATION (#266, #267);
#269 = CC_DESIGN_PERSON_AND_ORGANIZATION_ASSIGNMENT (#268, #265, (#251));
#270 = PERSON_AND_ORGANIZATION_ROLE ('part_supplier');
#271 = PERSON ('', '', $, $, $, $);
#272 = ORGANIZATION ($, '', '');
#273 = PERSON_AND_ORGANIZATION (#271, #272);
#274 = CC_DESIGN_PERSON_AND_ORGANIZATION_ASSIGNMENT (#273, #270, (#251));
#275 = SECURITY_CLASSIFICATION_LEVEL ('unclassified');
#276 = SECURITY_CLASSIFICATION ('', '', #275);
#277 = APPROVAL_STATUS ('approved');
#278 = APPROVAL (#277, '');
#279 = CALENDAR_DATE (2021, 7, 12);
#280 = COORDINATED_UNIVERSAL_TIME_OFFSET (0, $, .AHEAD.);
#281 = LOCAL_TIME (16, 1, 37., #280);
#282 = DATE_AND_TIME (#279, #281);
#283 = APPROVAL_DATE_TIME (#282, #278);
#284 = APPROVAL_ROLE ('');
#285 = PERSON ('', '', $, $, $, $);
#286 = ORGANIZATION ($, '', '');
#287 = PERSON_AND_ORGANIZATION (#285, #286);
#288 = APPROVAL_PERSON_ORGANIZATION (#287, #278, #284);
#289 = CC_DESIGN_APPROVAL (#278, (#276));
#290 = DATE_TIME_ROLE ('classification_date');
#291 = CALENDAR_DATE (2021, 7, 12);
#292 = COORDINATED_UNIVERSAL_TIME_OFFSET (0, $, .AHEAD.);
#293 = LOCAL_TIME (16, 1, 37., #292);
#294 = DATE_AND_TIME (#291, #293);
#295 = CC_DESIGN_DATE_AND_TIME_ASSIGNMENT (#294, #290, (#276));
#296 = PERSON_AND_ORGANIZATION_ROLE ('classification_officer');
#297 = PERSON ('', '', $, $, $, $);
#298 = ORGANIZATION ($, '', '');
#299 = PERSON_AND_ORGANIZATION (#297, #298);
#300 = CC_DESIGN_PERSON_AND_ORGANIZATION_ASSIGNMENT (#299, #296, (#276));
#301 = CC_DESIGN_SECURITY_CLASSIFICATION (#276, (#251));
#302 = DESIGN_CONTEXT ('', #241, 'design');
#303 = PRODUCT_DEFINITION ('', '', #251, #302);
#304 = APPROVAL_STATUS ('approved');
#305 = APPROVAL (#304, '');
#306 = CALENDAR_DATE (2021, 7, 12);
#307 = COORDINATED_UNIVERSAL_TIME_OFFSET (0, $, .AHEAD.);
#308 = LOCAL_TIME (16, 1, 37., #307);
#309 = DATE_AND_TIME (#306, #308);
#310 = APPROVAL_DATE_TIME (#309, #305);
#311 = APPROVAL_ROLE ('');
#312 = PERSON ('', '', $, $, $, $);
#313 = ORGANIZATION ($, '', '');
#314 = PERSON_AND_ORGANIZATION (#312, #313);
#315 = APPROVAL_PERSON_ORGANIZATION (#314, #305, #311);
#316 = CC_DESIGN_APPROVAL (#305, (#303));
#317 = DATE_TIME_ROLE ('creation_date');
#318 = CALENDAR_DATE (2021, 7, 12);
#319 = COORDINATED_UNIVERSAL_TIME_OFFSET (0, $, .AHEAD.);
#320 = LOCAL_TIME (16, 1, 37., #319);
#321 = DATE_AND_TIME (#318, #320);
#322 = CC_DESIGN_DATE_AND_TIME_ASSIGNMENT (#321, #317, (#303));
#323 = PERSON_AND_ORGANIZATION_ROLE ('creator');
#324 = PERSON ('', '', $, $, $, $);
#325 = ORGANIZATION ($, '', '');
#326 = PERSON_AND_ORGANIZATION (#324, #325);
#327 = CC_DESIGN_PERSON_AND_ORGANIZATION_ASSIGNMENT (#326, #323, (#303));
#328 = PRODUCT_DEFINITION_SHAPE ('', '', #303);
#329 = SHAPE_DEFINITION_REPRESENTATION (#328, #240);
#330 = SHAPE_REPRESENTATION_RELATIONSHIP ('', '', #240, #331);
#331 = ADVANCED_BREP_SHAPE_REPRESENTATION ('', (#234), #239);
ENDSEC;
END-ISO-10303-21;
