ISO-10303-21;
HEADER;
FILE_DESCRIPTION ((), '1');
FILE_NAME ('C:\\Users\\kevin\\HPD CR-SR 5xD\\HPDCR 0840A.STP', '2021-12-07T16:04:31', ('Unknown'), ('m.a.ford europe'), 'OneCNC-XR8 Mill 3D Expert', 'OneCNC-XR8 Mill 3D Expert', '');
FILE_SCHEMA (('CONFIG_CONTROL_DESIGN'));
ENDSEC;

DATA;
#1 = CARTESIAN_POINT ('', (-49., 4.2, 0.));
#2 = CARTESIAN_POINT ('', (-49., 5., 0.));
#3 = B_SPLINE_CURVE_WITH_KNOTS ('', 1, (#1, #2), .UNSPECIFIED., .F., .U., (2, 2), (0., 1.), .UNSPECIFIED.);
#4 = GEOMETRIC_CURVE_SET ('', (#3, #7, #10, #13, #16, #19));
#5 = CARTESIAN_POINT ('', (-103., 9.75, 0.));
#6 = CARTESIAN_POINT ('', (-102.75, 10., 0.));
#7 = B_SPLINE_CURVE_WITH_KNOTS ('', 1, (#5, #6), .UNSPECIFIED., .F., .U., (2, 2), (0., 1.), .UNSPECIFIED.);
#8 = CARTESIAN_POINT ('', (-103., 5., 0.));
#9 = CARTESIAN_POINT ('', (-103., 0., 0.));
#10 = B_SPLINE_CURVE_WITH_KNOTS ('', 1, (#8, #9), .UNSPECIFIED., .F., .U., (2, 2), (0., 1.), .UNSPECIFIED.);
#11 = CARTESIAN_POINT ('', (0., 0., 0.));
#12 = CARTESIAN_POINT ('', (-1.52867498391805, 4.2, 0.));
#13 = B_SPLINE_CURVE_WITH_KNOTS ('', 1, (#11, #12), .UNSPECIFIED., .F., .U., (2, 2), (0., 1.), .UNSPECIFIED.);
#14 = CARTESIAN_POINT ('', (-103., 5., 0.));
#15 = CARTESIAN_POINT ('', (-49., 5., 0.));
#16 = B_SPLINE_CURVE_WITH_KNOTS ('', 1, (#14, #15), .UNSPECIFIED., .F., .U., (2, 2), (0., 1.), .UNSPECIFIED.);
#17 = CARTESIAN_POINT ('', (-1.52867498391805, 4.2, 0.));
#18 = CARTESIAN_POINT ('', (-49., 4.2, 0.));
#19 = B_SPLINE_CURVE_WITH_KNOTS ('', 1, (#17, #18), .UNSPECIFIED., .F., .U., (2, 2), (0., 1.), .UNSPECIFIED.);
#20 = CARTESIAN_POINT ('', (-103., 5., -1.22464679914735E-15));
#21 = VERTEX_POINT ('', #20);
#22 = CARTESIAN_POINT ('', (-103., 6.30693101560887E-15, -6.30693101560887E-15));
#23 = VERTEX_POINT ('', #22);
#24 = CARTESIAN_POINT ('', (-103., 5., -1.22464679914735E-15));
#25 = CARTESIAN_POINT ('', (-103., 3.33333333333334, -8.16431199431571E-16));
#26 = CARTESIAN_POINT ('', (-103., 1.66666666666667, -4.08215599715783E-16));
#27 = CARTESIAN_POINT ('', (-103., 6.30693101560887E-15, -6.30693101560887E-15));
#28 = B_SPLINE_CURVE_WITH_KNOTS ('', 3, (#24, #25, #26, #27), .UNSPECIFIED., .F., .U., (4, 4), (0., 1.), .UNSPECIFIED.);
#29 = EDGE_CURVE ('', #21, #23, #28, .T.);
#30 = ORIENTED_EDGE ('', *, *, #29, .F.);
#31 = CARTESIAN_POINT ('', (-103., 5., -1.22464679914735E-15));
#32 = CARTESIAN_POINT ('', (-103., 4.99999999999998, 20.));
#33 = CARTESIAN_POINT ('', (-103., -15., 9.99999999999996));
#34 = CARTESIAN_POINT ('', (-103., -15., -10.));
#35 = CARTESIAN_POINT ('', (-103., 5.00000000000002, -20.));
#36 = CARTESIAN_POINT ('', (-103., 5., -1.22464679914735E-15));
#37 = (
   BOUNDED_CURVE ()
   B_SPLINE_CURVE (5, (#31, #32, #33, #34, #35, #36), .UNSPECIFIED., .T., .U.)
   B_SPLINE_CURVE_WITH_KNOTS ((6, 6), (0., 1.), .UNSPECIFIED.)
   CURVE ()
   GEOMETRIC_REPRESENTATION_ITEM ()
   RATIONAL_B_SPLINE_CURVE ((5., 1., 1., 1., 1., 5.))
   REPRESENTATION_ITEM ('')
);
#38 = EDGE_CURVE ('', #21, #21, #37, .T.);
#39 = ORIENTED_EDGE ('', *, *, #38, .T.);
#40 = ORIENTED_EDGE ('', *, *, #29, .T.);
#41 = EDGE_LOOP ('', (#30, #39, #40));
#42 = FACE_OUTER_BOUND ('', #41, .F.);
#43 = CARTESIAN_POINT ('', (-103., 5., -1.22464679914735E-15));
#44 = CARTESIAN_POINT ('', (-103., 3.33333333333334, -8.16431199431571E-16));
#45 = CARTESIAN_POINT ('', (-103., 1.66666666666667, -4.08215599715783E-16));
#46 = CARTESIAN_POINT ('', (-103., 6.30693101560887E-15, -6.30693101560887E-15));
#47 = CARTESIAN_POINT ('', (-103., 4.99999999999998, 20.));
#48 = CARTESIAN_POINT ('', (-103., 3.33333333333332, 13.3333333333333));
#49 = CARTESIAN_POINT ('', (-103., 1.66666666666664, 6.66666666666664));
#50 = CARTESIAN_POINT ('', (-103., 6.30693101560887E-15, -6.30693101560887E-15));
#51 = CARTESIAN_POINT ('', (-103., -15., 9.99999999999996));
#52 = CARTESIAN_POINT ('', (-103., -10., 6.66666666666665));
#53 = CARTESIAN_POINT ('', (-103., -4.99999999999999, 3.3333333333333));
#54 = CARTESIAN_POINT ('', (-103., 6.30693101560887E-15, -6.30693101560887E-15));
#55 = CARTESIAN_POINT ('', (-103., -15., -10.));
#56 = CARTESIAN_POINT ('', (-103., -9.99999999999999, -6.6666666666667));
#57 = CARTESIAN_POINT ('', (-103., -4.99999999999996, -3.33333333333334));
#58 = CARTESIAN_POINT ('', (-103., 6.30693101560887E-15, -6.30693101560887E-15));
#59 = CARTESIAN_POINT ('', (-103., 5.00000000000002, -20.));
#60 = CARTESIAN_POINT ('', (-103., 3.33333333333336, -13.3333333333333));
#61 = CARTESIAN_POINT ('', (-103., 1.66666666666669, -6.66666666666664));
#62 = CARTESIAN_POINT ('', (-103., 6.30693101560887E-15, -6.30693101560887E-15));
#63 = CARTESIAN_POINT ('', (-103., 5., -1.22464679914735E-15));
#64 = CARTESIAN_POINT ('', (-103., 3.33333333333334, -8.16431199431571E-16));
#65 = CARTESIAN_POINT ('', (-103., 1.66666666666667, -4.08215599715783E-16));
#66 = CARTESIAN_POINT ('', (-103., 6.30693101560887E-15, -6.30693101560887E-15));
#67 = (
   BOUNDED_SURFACE ()
   B_SPLINE_SURFACE (5, 3, ((#43, #44, #45, #46), (#47, #48, #49, #50), (#51, #52, #53, #54), (#55, #56, #57, #58), (#59, #60, #61, #62), (#63, #64, #65, #66)), .UNSPECIFIED., .T., .F., .U.)
   B_SPLINE_SURFACE_WITH_KNOTS ((6, 6), (4, 4), (0., 1.), (0., 1.), .UNSPECIFIED.)
   SURFACE ()
   GEOMETRIC_REPRESENTATION_ITEM ()
   RATIONAL_B_SPLINE_SURFACE (((5., 5., 5., 5.), (1., 1., 1., 1.), (1., 1., 1., 1.), (1., 1., 1., 1.), (1., 1., 1., 1.), (5., 5., 5., 5.)))
   REPRESENTATION_ITEM ('')
);
#68 = ADVANCED_FACE ('', (#42), #67, .F.);
#69 = CARTESIAN_POINT ('', (-49., 5., -1.22464679914735E-15));
#70 = VERTEX_POINT ('', #69);
#71 = CARTESIAN_POINT ('', (-49., 5., -1.22464679914735E-15));
#72 = CARTESIAN_POINT ('', (-67., 5., -1.22464679914735E-15));
#73 = CARTESIAN_POINT ('', (-84.9999999999999, 5., -1.22464679914735E-15));
#74 = CARTESIAN_POINT ('', (-103., 5., -1.22464679914735E-15));
#75 = B_SPLINE_CURVE_WITH_KNOTS ('', 3, (#71, #72, #73, #74), .UNSPECIFIED., .F., .U., (4, 4), (0., 1.), .UNSPECIFIED.);
#76 = EDGE_CURVE ('', #70, #21, #75, .T.);
#77 = ORIENTED_EDGE ('', *, *, #76, .F.);
#78 = CARTESIAN_POINT ('', (-49., 5., -1.22464679914735E-15));
#79 = CARTESIAN_POINT ('', (-49., 4.99999999999999, 20.));
#80 = CARTESIAN_POINT ('', (-49., -15., 9.99999999999999));
#81 = CARTESIAN_POINT ('', (-49., -15., -10.));
#82 = CARTESIAN_POINT ('', (-49., 5.00000000000001, -20.));
#83 = CARTESIAN_POINT ('', (-49., 5., -1.22464679914735E-15));
#84 = (
   BOUNDED_CURVE ()
   B_SPLINE_CURVE (5, (#78, #79, #80, #81, #82, #83), .UNSPECIFIED., .T., .U.)
   B_SPLINE_CURVE_WITH_KNOTS ((6, 6), (0., 1.), .UNSPECIFIED.)
   CURVE ()
   GEOMETRIC_REPRESENTATION_ITEM ()
   RATIONAL_B_SPLINE_CURVE ((5., 1., 1., 1., 1., 5.))
   REPRESENTATION_ITEM ('')
);
#85 = EDGE_CURVE ('', #70, #70, #84, .T.);
#86 = ORIENTED_EDGE ('', *, *, #85, .T.);
#87 = ORIENTED_EDGE ('', *, *, #76, .T.);
#88 = ORIENTED_EDGE ('', *, *, #38, .F.);
#89 = EDGE_LOOP ('', (#77, #86, #87, #88));
#90 = FACE_OUTER_BOUND ('', #89, .F.);
#91 = CARTESIAN_POINT ('', (-49., 5., -1.22464679914735E-15));
#92 = CARTESIAN_POINT ('', (-67., 5., -1.22464679914735E-15));
#93 = CARTESIAN_POINT ('', (-84.9999999999999, 5., -1.22464679914735E-15));
#94 = CARTESIAN_POINT ('', (-103., 5., -1.22464679914735E-15));
#95 = CARTESIAN_POINT ('', (-49., 4.99999999999999, 20.));
#96 = CARTESIAN_POINT ('', (-67., 4.99999999999999, 20.));
#97 = CARTESIAN_POINT ('', (-84.9999999999999, 4.99999999999998, 20.));
#98 = CARTESIAN_POINT ('', (-103., 4.99999999999998, 20.));
#99 = CARTESIAN_POINT ('', (-49., -15., 9.99999999999999));
#100 = CARTESIAN_POINT ('', (-67., -15., 9.99999999999998));
#101 = CARTESIAN_POINT ('', (-84.9999999999999, -15., 9.99999999999997));
#102 = CARTESIAN_POINT ('', (-103., -15., 9.99999999999996));
#103 = CARTESIAN_POINT ('', (-49., -15., -10.));
#104 = CARTESIAN_POINT ('', (-67., -15., -10.));
#105 = CARTESIAN_POINT ('', (-84.9999999999999, -15., -10.));
#106 = CARTESIAN_POINT ('', (-103., -15., -10.));
#107 = CARTESIAN_POINT ('', (-49., 5.00000000000001, -20.));
#108 = CARTESIAN_POINT ('', (-67., 5.00000000000001, -20.));
#109 = CARTESIAN_POINT ('', (-84.9999999999999, 5.00000000000002, -20.));
#110 = CARTESIAN_POINT ('', (-103., 5.00000000000002, -20.));
#111 = CARTESIAN_POINT ('', (-49., 5., -1.22464679914735E-15));
#112 = CARTESIAN_POINT ('', (-67., 5., -1.22464679914735E-15));
#113 = CARTESIAN_POINT ('', (-84.9999999999999, 5., -1.22464679914735E-15));
#114 = CARTESIAN_POINT ('', (-103., 5., -1.22464679914735E-15));
#115 = (
   BOUNDED_SURFACE ()
   B_SPLINE_SURFACE (5, 3, ((#91, #92, #93, #94), (#95, #96, #97, #98), (#99, #100, #101, #102), (#103, #104, #105, #106), (#107, #108, #109, #110), (#111, #112, #113, #114)), .UNSPECIFIED., .T., .F., .U.)
   B_SPLINE_SURFACE_WITH_KNOTS ((6, 6), (4, 4), (0., 1.), (0., 1.), .UNSPECIFIED.)
   SURFACE ()
   GEOMETRIC_REPRESENTATION_ITEM ()
   RATIONAL_B_SPLINE_SURFACE (((5., 5., 5., 5.), (1., 1., 1., 1.), (1., 1., 1., 1.), (1., 1., 1., 1.), (1., 1., 1., 1.), (5., 5., 5., 5.)))
   REPRESENTATION_ITEM ('')
);
#116 = ADVANCED_FACE ('', (#90), #115, .F.);
#117 = CARTESIAN_POINT ('', (-49., 4.2, -1.02870331128378E-15));
#118 = VERTEX_POINT ('', #117);
#119 = CARTESIAN_POINT ('', (-49., 4.2, -1.02870331128378E-15));
#120 = CARTESIAN_POINT ('', (-49., 4.46666666666669, -1.09401780723831E-15));
#121 = CARTESIAN_POINT ('', (-49., 4.73333333333332, -1.15933230319282E-15));
#122 = CARTESIAN_POINT ('', (-49., 5., -1.22464679914735E-15));
#123 = B_SPLINE_CURVE_WITH_KNOTS ('', 3, (#119, #120, #121, #122), .UNSPECIFIED., .F., .U., (4, 4), (0., 1.), .UNSPECIFIED.);
#124 = EDGE_CURVE ('', #118, #70, #123, .T.);
#125 = ORIENTED_EDGE ('', *, *, #124, .F.);
#126 = CARTESIAN_POINT ('', (-49., 4.2, -1.02870331128378E-15));
#127 = CARTESIAN_POINT ('', (-49., 4.19999999999999, 16.8));
#128 = CARTESIAN_POINT ('', (-49., -12.6, 8.39999999999999));
#129 = CARTESIAN_POINT ('', (-49., -12.6, -8.4));
#130 = CARTESIAN_POINT ('', (-49., 4.20000000000001, -16.8));
#131 = CARTESIAN_POINT ('', (-49., 4.2, -1.02870331128378E-15));
#132 = (
   BOUNDED_CURVE ()
   B_SPLINE_CURVE (5, (#126, #127, #128, #129, #130, #131), .UNSPECIFIED., .T., .U.)
   B_SPLINE_CURVE_WITH_KNOTS ((6, 6), (0., 1.), .UNSPECIFIED.)
   CURVE ()
   GEOMETRIC_REPRESENTATION_ITEM ()
   RATIONAL_B_SPLINE_CURVE ((5., 1., 1., 1., 1., 5.))
   REPRESENTATION_ITEM ('')
);
#133 = EDGE_CURVE ('', #118, #118, #132, .T.);
#134 = ORIENTED_EDGE ('', *, *, #133, .T.);
#135 = ORIENTED_EDGE ('', *, *, #124, .T.);
#136 = ORIENTED_EDGE ('', *, *, #85, .F.);
#137 = EDGE_LOOP ('', (#125, #134, #135, #136));
#138 = FACE_OUTER_BOUND ('', #137, .F.);
#139 = CARTESIAN_POINT ('', (-49., 4.2, -1.02870331128378E-15));
#140 = CARTESIAN_POINT ('', (-49., 4.46666666666669, -1.09401780723831E-15));
#141 = CARTESIAN_POINT ('', (-49., 4.73333333333332, -1.15933230319282E-15));
#142 = CARTESIAN_POINT ('', (-49., 5., -1.22464679914735E-15));
#143 = CARTESIAN_POINT ('', (-49., 4.19999999999999, 16.8));
#144 = CARTESIAN_POINT ('', (-49., 4.46666666666668, 17.8666666666667));
#145 = CARTESIAN_POINT ('', (-49., 4.73333333333331, 18.9333333333333));
#146 = CARTESIAN_POINT ('', (-49., 4.99999999999999, 20.));
#147 = CARTESIAN_POINT ('', (-49., -12.6, 8.39999999999999));
#148 = CARTESIAN_POINT ('', (-49., -13.4, 8.93333333333336));
#149 = CARTESIAN_POINT ('', (-49., -14.2, 9.46666666666663));
#150 = CARTESIAN_POINT ('', (-49., -15., 9.99999999999999));
#151 = CARTESIAN_POINT ('', (-49., -12.6, -8.4));
#152 = CARTESIAN_POINT ('', (-49., -13.4, -8.93333333333337));
#153 = CARTESIAN_POINT ('', (-49., -14.1999999999999, -9.46666666666665));
#154 = CARTESIAN_POINT ('', (-49., -15., -10.));
#155 = CARTESIAN_POINT ('', (-49., 4.20000000000001, -16.8));
#156 = CARTESIAN_POINT ('', (-49., 4.46666666666669, -17.8666666666667));
#157 = CARTESIAN_POINT ('', (-49., 4.73333333333333, -18.9333333333333));
#158 = CARTESIAN_POINT ('', (-49., 5.00000000000001, -20.));
#159 = CARTESIAN_POINT ('', (-49., 4.2, -1.02870331128378E-15));
#160 = CARTESIAN_POINT ('', (-49., 4.46666666666669, -1.09401780723831E-15));
#161 = CARTESIAN_POINT ('', (-49., 4.73333333333332, -1.15933230319282E-15));
#162 = CARTESIAN_POINT ('', (-49., 5., -1.22464679914735E-15));
#163 = (
   BOUNDED_SURFACE ()
   B_SPLINE_SURFACE (5, 3, ((#139, #140, #141, #142), (#143, #144, #145, #146), (#147, #148, #149, #150), (#151, #152, #153, #154), (#155, #156, #157, #158), (#159, #160, #161, #162)), .UNSPECIFIED., .T., .F., .U.)
   B_SPLINE_SURFACE_WITH_KNOTS ((6, 6), (4, 4), (0., 1.), (0., 1.), .UNSPECIFIED.)
   SURFACE ()
   GEOMETRIC_REPRESENTATION_ITEM ()
   RATIONAL_B_SPLINE_SURFACE (((5., 5., 5., 5.), (1., 1., 1., 1.), (1., 1., 1., 1.), (1., 1., 1., 1.), (1., 1., 1., 1.), (5., 5., 5., 5.)))
   REPRESENTATION_ITEM ('')
);
#164 = ADVANCED_FACE ('', (#138), #163, .F.);
#165 = CARTESIAN_POINT ('', (-1.52867498391805, 4.2, -1.02870331128378E-15));
#166 = VERTEX_POINT ('', #165);
#167 = CARTESIAN_POINT ('', (-1.52867498391805, 4.2, -1.02870331128378E-15));
#168 = CARTESIAN_POINT ('', (-17.3524499892787, 4.20000000000001, -1.02870331128378E-15));
#169 = CARTESIAN_POINT ('', (-33.1762249946394, 4.20000000000002, -1.02870331128378E-15));
#170 = CARTESIAN_POINT ('', (-49., 4.2, -1.02870331128378E-15));
#171 = B_SPLINE_CURVE_WITH_KNOTS ('', 3, (#167, #168, #169, #170), .UNSPECIFIED., .F., .U., (4, 4), (0., 1.), .UNSPECIFIED.);
#172 = EDGE_CURVE ('', #166, #118, #171, .T.);
#173 = ORIENTED_EDGE ('', *, *, #172, .F.);
#174 = CARTESIAN_POINT ('', (-1.52867498391805, 4.2, -1.02870331128378E-15));
#175 = CARTESIAN_POINT ('', (-1.52867498391805, 4.2, 16.8));
#176 = CARTESIAN_POINT ('', (-1.52867498391805, -12.6, 8.4));
#177 = CARTESIAN_POINT ('', (-1.52867498391805, -12.6, -8.4));
#178 = CARTESIAN_POINT ('', (-1.52867498391805, 4.2, -16.8));
#179 = CARTESIAN_POINT ('', (-1.52867498391805, 4.2, -1.02870331128378E-15));
#180 = (
   BOUNDED_CURVE ()
   B_SPLINE_CURVE (5, (#174, #175, #176, #177, #178, #179), .UNSPECIFIED., .T., .U.)
   B_SPLINE_CURVE_WITH_KNOTS ((6, 6), (0., 1.), .UNSPECIFIED.)
   CURVE ()
   GEOMETRIC_REPRESENTATION_ITEM ()
   RATIONAL_B_SPLINE_CURVE ((5., 1., 1., 1., 1., 5.))
   REPRESENTATION_ITEM ('')
);
#181 = EDGE_CURVE ('', #166, #166, #180, .T.);
#182 = ORIENTED_EDGE ('', *, *, #181, .T.);
#183 = ORIENTED_EDGE ('', *, *, #172, .T.);
#184 = ORIENTED_EDGE ('', *, *, #133, .F.);
#185 = EDGE_LOOP ('', (#173, #182, #183, #184));
#186 = FACE_OUTER_BOUND ('', #185, .F.);
#187 = CARTESIAN_POINT ('', (-1.52867498391805, 4.2, -1.02870331128378E-15));
#188 = CARTESIAN_POINT ('', (-17.3524499892787, 4.20000000000001, -1.02870331128378E-15));
#189 = CARTESIAN_POINT ('', (-33.1762249946394, 4.20000000000002, -1.02870331128378E-15));
#190 = CARTESIAN_POINT ('', (-49., 4.2, -1.02870331128378E-15));
#191 = CARTESIAN_POINT ('', (-1.52867498391805, 4.2, 16.8));
#192 = CARTESIAN_POINT ('', (-17.3524499892787, 4.20000000000001, 16.8000000000001));
#193 = CARTESIAN_POINT ('', (-33.1762249946394, 4.20000000000001, 16.8000000000001));
#194 = CARTESIAN_POINT ('', (-49., 4.19999999999999, 16.8));
#195 = CARTESIAN_POINT ('', (-1.52867498391805, -12.6, 8.4));
#196 = CARTESIAN_POINT ('', (-17.3524499892787, -12.6, 8.40000000000002));
#197 = CARTESIAN_POINT ('', (-33.1762249946394, -12.6, 8.40000000000002));
#198 = CARTESIAN_POINT ('', (-49., -12.6, 8.39999999999999));
#199 = CARTESIAN_POINT ('', (-1.52867498391805, -12.6, -8.4));
#200 = CARTESIAN_POINT ('', (-17.3524499892787, -12.6, -8.40000000000003));
#201 = CARTESIAN_POINT ('', (-33.1762249946394, -12.6, -8.40000000000003));
#202 = CARTESIAN_POINT ('', (-49., -12.6, -8.4));
#203 = CARTESIAN_POINT ('', (-1.52867498391805, 4.2, -16.8));
#204 = CARTESIAN_POINT ('', (-17.3524499892787, 4.20000000000001, -16.8000000000001));
#205 = CARTESIAN_POINT ('', (-33.1762249946394, 4.20000000000002, -16.8000000000001));
#206 = CARTESIAN_POINT ('', (-49., 4.20000000000001, -16.8));
#207 = CARTESIAN_POINT ('', (-1.52867498391805, 4.2, -1.02870331128378E-15));
#208 = CARTESIAN_POINT ('', (-17.3524499892787, 4.20000000000001, -1.02870331128378E-15));
#209 = CARTESIAN_POINT ('', (-33.1762249946394, 4.20000000000002, -1.02870331128378E-15));
#210 = CARTESIAN_POINT ('', (-49., 4.2, -1.02870331128378E-15));
#211 = (
   BOUNDED_SURFACE ()
   B_SPLINE_SURFACE (5, 3, ((#187, #188, #189, #190), (#191, #192, #193, #194), (#195, #196, #197, #198), (#199, #200, #201, #202), (#203, #204, #205, #206), (#207, #208, #209, #210)), .UNSPECIFIED., .T., .F., .U.)
   B_SPLINE_SURFACE_WITH_KNOTS ((6, 6), (4, 4), (0., 1.), (0., 1.), .UNSPECIFIED.)
   SURFACE ()
   GEOMETRIC_REPRESENTATION_ITEM ()
   RATIONAL_B_SPLINE_SURFACE (((5., 5., 5., 5.), (1., 1., 1., 1.), (1., 1., 1., 1.), (1., 1., 1., 1.), (1., 1., 1., 1.), (5., 5., 5., 5.)))
   REPRESENTATION_ITEM ('')
);
#212 = ADVANCED_FACE ('', (#186), #211, .F.);
#213 = CARTESIAN_POINT ('', (0., 0., 0.));
#214 = VERTEX_POINT ('', #213);
#215 = CARTESIAN_POINT ('', (0., 0., 0.));
#216 = CARTESIAN_POINT ('', (-0.509558327972683, 1.4, -3.42901103761259E-16));
#217 = CARTESIAN_POINT ('', (-1.01911665594536, 2.8, -6.85802207522518E-16));
#218 = CARTESIAN_POINT ('', (-1.52867498391805, 4.2, -1.02870331128378E-15));
#219 = B_SPLINE_CURVE_WITH_KNOTS ('', 3, (#215, #216, #217, #218), .UNSPECIFIED., .F., .U., (4, 4), (0., 1.), .UNSPECIFIED.);
#220 = EDGE_CURVE ('', #214, #166, #219, .T.);
#221 = ORIENTED_EDGE ('', *, *, #220, .F.);
#222 = ORIENTED_EDGE ('', *, *, #220, .T.);
#223 = ORIENTED_EDGE ('', *, *, #181, .F.);
#224 = EDGE_LOOP ('', (#221, #222, #223));
#225 = FACE_OUTER_BOUND ('', #224, .F.);
#226 = CARTESIAN_POINT ('', (0., 0., 0.));
#227 = CARTESIAN_POINT ('', (-0.509558327972683, 1.4, -3.42901103761259E-16));
#228 = CARTESIAN_POINT ('', (-1.01911665594536, 2.8, -6.85802207522518E-16));
#229 = CARTESIAN_POINT ('', (-1.52867498391805, 4.2, -1.02870331128378E-15));
#230 = CARTESIAN_POINT ('', (0., 0., 0.));
#231 = CARTESIAN_POINT ('', (-0.509558327972684, 1.4, 5.6));
#232 = CARTESIAN_POINT ('', (-1.01911665594536, 2.8, 11.2));
#233 = CARTESIAN_POINT ('', (-1.52867498391805, 4.2, 16.8));
#234 = CARTESIAN_POINT ('', (0., 0., 0.));
#235 = CARTESIAN_POINT ('', (-0.509558327972684, -4.2, 2.8));
#236 = CARTESIAN_POINT ('', (-1.01911665594536, -8.4, 5.6));
#237 = CARTESIAN_POINT ('', (-1.52867498391805, -12.6, 8.4));
#238 = CARTESIAN_POINT ('', (0., 0., 0.));
#239 = CARTESIAN_POINT ('', (-0.509558327972684, -4.2, -2.8));
#240 = CARTESIAN_POINT ('', (-1.01911665594536, -8.4, -5.6));
#241 = CARTESIAN_POINT ('', (-1.52867498391805, -12.6, -8.4));
#242 = CARTESIAN_POINT ('', (0., 0., 0.));
#243 = CARTESIAN_POINT ('', (-0.509558327972683, 1.4, -5.6));
#244 = CARTESIAN_POINT ('', (-1.01911665594536, 2.8, -11.2));
#245 = CARTESIAN_POINT ('', (-1.52867498391805, 4.2, -16.8));
#246 = CARTESIAN_POINT ('', (0., 0., 0.));
#247 = CARTESIAN_POINT ('', (-0.509558327972683, 1.4, -3.42901103761259E-16));
#248 = CARTESIAN_POINT ('', (-1.01911665594536, 2.8, -6.85802207522518E-16));
#249 = CARTESIAN_POINT ('', (-1.52867498391805, 4.2, -1.02870331128378E-15));
#250 = (
   BOUNDED_SURFACE ()
   B_SPLINE_SURFACE (5, 3, ((#226, #227, #228, #229), (#230, #231, #232, #233), (#234, #235, #236, #237), (#238, #239, #240, #241), (#242, #243, #244, #245), (#246, #247, #248, #249)), .UNSPECIFIED., .T., .F., .U.)
   B_SPLINE_SURFACE_WITH_KNOTS ((6, 6), (4, 4), (0., 1.), (0., 1.), .UNSPECIFIED.)
   SURFACE ()
   GEOMETRIC_REPRESENTATION_ITEM ()
   RATIONAL_B_SPLINE_SURFACE (((5., 5., 5., 5.), (1., 1., 1., 1.), (1., 1., 1., 1.), (1., 1., 1., 1.), (1., 1., 1., 1.), (5., 5., 5., 5.)))
   REPRESENTATION_ITEM ('')
);
#251 = ADVANCED_FACE ('', (#225), #250, .F.);
#252 = CLOSED_SHELL ('', (#68, #116, #164, #212, #251));
#253 = MANIFOLD_SOLID_BREP ('', #252);
#254 = (
   LENGTH_UNIT ()
   NAMED_UNIT (*)
   SI_UNIT (.MILLI., .METRE.)
);
#255 = (
   NAMED_UNIT (*)
   SI_UNIT ($, .STERADIAN.)
   SOLID_ANGLE_UNIT ()
);
#256 = (
   NAMED_UNIT (*)
   SI_UNIT ($, .RADIAN.)
   PLANE_ANGLE_UNIT ()
);
#257 = UNCERTAINTY_MEASURE_WITH_UNIT (LENGTH_MEASURE(0.001), #254, 'DISTANCE_ACCURACY_VALUE', '');
#258 = (
   GEOMETRIC_REPRESENTATION_CONTEXT (3)
   GLOBAL_UNCERTAINTY_ASSIGNED_CONTEXT ((#257))
   GLOBAL_UNIT_ASSIGNED_CONTEXT ((#254, #255, #256))
   REPRESENTATION_CONTEXT ('', '3D')
);
#259 = SHAPE_REPRESENTATION ('', (), #258);
#260 = APPLICATION_CONTEXT ('configuration controlled 3D designs of mechanical parts and assemblies');
#261 = APPLICATION_PROTOCOL_DEFINITION ('International Standard', 'config_control_design', 1997, #260);
#262 = MECHANICAL_CONTEXT ('', #260, 'mechanical');
#263 = PRODUCT ('', '', '', (#262));
#264 = PERSON_AND_ORGANIZATION_ROLE ('design_owner');
#265 = PERSON ('', '', $, $, $, $);
#266 = ORGANIZATION ($, '', '');
#267 = PERSON_AND_ORGANIZATION (#265, #266);
#268 = CC_DESIGN_PERSON_AND_ORGANIZATION_ASSIGNMENT (#267, #264, (#263));
#269 = PRODUCT_RELATED_PRODUCT_CATEGORY ('detail', $, (#263));
#270 = PRODUCT_DEFINITION_FORMATION_WITH_SPECIFIED_SOURCE ('', '', #263, .NOT_KNOWN.);
#271 = APPROVAL_STATUS ('approved');
#272 = APPROVAL (#271, '');
#273 = CALENDAR_DATE (2021, 7, 12);
#274 = COORDINATED_UNIVERSAL_TIME_OFFSET (0, $, .AHEAD.);
#275 = LOCAL_TIME (16, 4, 31., #274);
#276 = DATE_AND_TIME (#273, #275);
#277 = APPROVAL_DATE_TIME (#276, #272);
#278 = APPROVAL_ROLE ('');
#279 = PERSON ('', '', $, $, $, $);
#280 = ORGANIZATION ($, '', '');
#281 = PERSON_AND_ORGANIZATION (#279, #280);
#282 = APPROVAL_PERSON_ORGANIZATION (#281, #272, #278);
#283 = CC_DESIGN_APPROVAL (#272, (#270));
#284 = PERSON_AND_ORGANIZATION_ROLE ('creator');
#285 = PERSON ('', '', $, $, $, $);
#286 = ORGANIZATION ($, '', '');
#287 = PERSON_AND_ORGANIZATION (#285, #286);
#288 = CC_DESIGN_PERSON_AND_ORGANIZATION_ASSIGNMENT (#287, #284, (#270));
#289 = PERSON_AND_ORGANIZATION_ROLE ('part_supplier');
#290 = PERSON ('', '', $, $, $, $);
#291 = ORGANIZATION ($, '', '');
#292 = PERSON_AND_ORGANIZATION (#290, #291);
#293 = CC_DESIGN_PERSON_AND_ORGANIZATION_ASSIGNMENT (#292, #289, (#270));
#294 = SECURITY_CLASSIFICATION_LEVEL ('unclassified');
#295 = SECURITY_CLASSIFICATION ('', '', #294);
#296 = APPROVAL_STATUS ('approved');
#297 = APPROVAL (#296, '');
#298 = CALENDAR_DATE (2021, 7, 12);
#299 = COORDINATED_UNIVERSAL_TIME_OFFSET (0, $, .AHEAD.);
#300 = LOCAL_TIME (16, 4, 31., #299);
#301 = DATE_AND_TIME (#298, #300);
#302 = APPROVAL_DATE_TIME (#301, #297);
#303 = APPROVAL_ROLE ('');
#304 = PERSON ('', '', $, $, $, $);
#305 = ORGANIZATION ($, '', '');
#306 = PERSON_AND_ORGANIZATION (#304, #305);
#307 = APPROVAL_PERSON_ORGANIZATION (#306, #297, #303);
#308 = CC_DESIGN_APPROVAL (#297, (#295));
#309 = DATE_TIME_ROLE ('classification_date');
#310 = CALENDAR_DATE (2021, 7, 12);
#311 = COORDINATED_UNIVERSAL_TIME_OFFSET (0, $, .AHEAD.);
#312 = LOCAL_TIME (16, 4, 31., #311);
#313 = DATE_AND_TIME (#310, #312);
#314 = CC_DESIGN_DATE_AND_TIME_ASSIGNMENT (#313, #309, (#295));
#315 = PERSON_AND_ORGANIZATION_ROLE ('classification_officer');
#316 = PERSON ('', '', $, $, $, $);
#317 = ORGANIZATION ($, '', '');
#318 = PERSON_AND_ORGANIZATION (#316, #317);
#319 = CC_DESIGN_PERSON_AND_ORGANIZATION_ASSIGNMENT (#318, #315, (#295));
#320 = CC_DESIGN_SECURITY_CLASSIFICATION (#295, (#270));
#321 = DESIGN_CONTEXT ('', #260, 'design');
#322 = PRODUCT_DEFINITION ('', '', #270, #321);
#323 = APPROVAL_STATUS ('approved');
#324 = APPROVAL (#323, '');
#325 = CALENDAR_DATE (2021, 7, 12);
#326 = COORDINATED_UNIVERSAL_TIME_OFFSET (0, $, .AHEAD.);
#327 = LOCAL_TIME (16, 4, 31., #326);
#328 = DATE_AND_TIME (#325, #327);
#329 = APPROVAL_DATE_TIME (#328, #324);
#330 = APPROVAL_ROLE ('');
#331 = PERSON ('', '', $, $, $, $);
#332 = ORGANIZATION ($, '', '');
#333 = PERSON_AND_ORGANIZATION (#331, #332);
#334 = APPROVAL_PERSON_ORGANIZATION (#333, #324, #330);
#335 = CC_DESIGN_APPROVAL (#324, (#322));
#336 = DATE_TIME_ROLE ('creation_date');
#337 = CALENDAR_DATE (2021, 7, 12);
#338 = COORDINATED_UNIVERSAL_TIME_OFFSET (0, $, .AHEAD.);
#339 = LOCAL_TIME (16, 4, 31., #338);
#340 = DATE_AND_TIME (#337, #339);
#341 = CC_DESIGN_DATE_AND_TIME_ASSIGNMENT (#340, #336, (#322));
#342 = PERSON_AND_ORGANIZATION_ROLE ('creator');
#343 = PERSON ('', '', $, $, $, $);
#344 = ORGANIZATION ($, '', '');
#345 = PERSON_AND_ORGANIZATION (#343, #344);
#346 = CC_DESIGN_PERSON_AND_ORGANIZATION_ASSIGNMENT (#345, #342, (#322));
#347 = PRODUCT_DEFINITION_SHAPE ('', '', #322);
#348 = SHAPE_DEFINITION_REPRESENTATION (#347, #259);
#349 = SHAPE_REPRESENTATION_RELATIONSHIP ('', '', #259, #350);
#350 = GEOMETRICALLY_BOUNDED_WIREFRAME_SHAPE_REPRESENTATION ('', (#4), #258);
#351 = SHAPE_REPRESENTATION_RELATIONSHIP ('', '', #259, #352);
#352 = ADVANCED_BREP_SHAPE_REPRESENTATION ('', (#253), #258);
ENDSEC;
END-ISO-10303-21;
