ISO-10303-21;
HEADER;
FILE_DESCRIPTION ((), '1');
FILE_NAME ('C:\\DDrive\\ROB\\Rob\\Documents\\ROB\\Customers & Projects\\M\\MAFE\\TOOL STEP FILES\\MFBN\\MFNB0403.STP', '2020-07-08T14:09:25', ('Unknown'), ('M A Ford'), 'OneCNC-XR8 Mill 3D Expert', 'OneCNC-XR8 Mill 3D Expert', '');
FILE_SCHEMA (('CONFIG_CONTROL_DESIGN'));
ENDSEC;

DATA;
#1 = CARTESIAN_POINT ('', (-99.75, 3., -7.3478807948841E-16));
#2 = VERTEX_POINT ('', #1);
#3 = CARTESIAN_POINT ('', (-100., 2.75, -6.73555739531043E-16));
#4 = VERTEX_POINT ('', #3);
#5 = CARTESIAN_POINT ('', (-99.75, 3., -7.3478807948841E-16));
#6 = CARTESIAN_POINT ('', (-99.8333333333334, 2.91666666666667, -7.14377299502622E-16));
#7 = CARTESIAN_POINT ('', (-99.9166666666669, 2.83333333333333, -6.93966519516833E-16));
#8 = CARTESIAN_POINT ('', (-100., 2.75, -6.73555739531043E-16));
#9 = B_SPLINE_CURVE_WITH_KNOTS ('', 3, (#5, #6, #7, #8), .UNSPECIFIED., .F., .U., (4, 4), (0., 1.), .UNSPECIFIED.);
#10 = EDGE_CURVE ('', #2, #4, #9, .T.);
#11 = ORIENTED_EDGE ('', *, *, #10, .F.);
#12 = CARTESIAN_POINT ('', (-99.75, 3., -7.3478807948841E-16));
#13 = CARTESIAN_POINT ('', (-99.75, 2.99999999999998, 12.));
#14 = CARTESIAN_POINT ('', (-99.75, -8.99999999999999, 5.99999999999997));
#15 = CARTESIAN_POINT ('', (-99.75, -8.99999999999997, -6.00000000000001));
#16 = CARTESIAN_POINT ('', (-99.75, 3.00000000000002, -12.));
#17 = CARTESIAN_POINT ('', (-99.75, 3., -7.3478807948841E-16));
#18 = (
   BOUNDED_CURVE ()
   B_SPLINE_CURVE (5, (#12, #13, #14, #15, #16, #17), .UNSPECIFIED., .T., .U.)
   B_SPLINE_CURVE_WITH_KNOTS ((6, 6), (0., 1.), .UNSPECIFIED.)
   CURVE ()
   GEOMETRIC_REPRESENTATION_ITEM ()
   RATIONAL_B_SPLINE_CURVE ((5., 1., 1., 1., 1., 5.))
   REPRESENTATION_ITEM ('')
);
#19 = EDGE_CURVE ('', #2, #2, #18, .T.);
#20 = ORIENTED_EDGE ('', *, *, #19, .T.);
#21 = ORIENTED_EDGE ('', *, *, #10, .T.);
#22 = CARTESIAN_POINT ('', (-100., 2.75, -6.73555739531043E-16));
#23 = CARTESIAN_POINT ('', (-100., 2.74999999999998, 11.));
#24 = CARTESIAN_POINT ('', (-100., -8.24999999999999, 5.49999999999997));
#25 = CARTESIAN_POINT ('', (-100., -8.24999999999997, -5.50000000000001));
#26 = CARTESIAN_POINT ('', (-100., 2.75000000000002, -11.));
#27 = CARTESIAN_POINT ('', (-100., 2.75, -6.73555739531043E-16));
#28 = (
   BOUNDED_CURVE ()
   B_SPLINE_CURVE (5, (#22, #23, #24, #25, #26, #27), .UNSPECIFIED., .T., .U.)
   B_SPLINE_CURVE_WITH_KNOTS ((6, 6), (0., 1.), .UNSPECIFIED.)
   CURVE ()
   GEOMETRIC_REPRESENTATION_ITEM ()
   RATIONAL_B_SPLINE_CURVE ((5., 1., 1., 1., 1., 5.))
   REPRESENTATION_ITEM ('')
);
#29 = EDGE_CURVE ('', #4, #4, #28, .T.);
#30 = ORIENTED_EDGE ('', *, *, #29, .F.);
#31 = EDGE_LOOP ('', (#11, #20, #21, #30));
#32 = FACE_OUTER_BOUND ('', #31, .F.);
#33 = CARTESIAN_POINT ('', (-99.75, 3., -7.3478807948841E-16));
#34 = CARTESIAN_POINT ('', (-99.8333333333334, 2.91666666666667, -7.14377299502622E-16));
#35 = CARTESIAN_POINT ('', (-99.9166666666669, 2.83333333333333, -6.93966519516833E-16));
#36 = CARTESIAN_POINT ('', (-100., 2.75, -6.73555739531043E-16));
#37 = CARTESIAN_POINT ('', (-99.75, 2.99999999999998, 12.));
#38 = CARTESIAN_POINT ('', (-99.8333333333334, 2.91666666666664, 11.6666666666666));
#39 = CARTESIAN_POINT ('', (-99.9166666666669, 2.83333333333331, 11.3333333333333));
#40 = CARTESIAN_POINT ('', (-100., 2.74999999999998, 11.));
#41 = CARTESIAN_POINT ('', (-99.75, -8.99999999999999, 5.99999999999997));
#42 = CARTESIAN_POINT ('', (-99.8333333333334, -8.74999999999999, 5.8333333333333));
#43 = CARTESIAN_POINT ('', (-99.9166666666669, -8.49999999999998, 5.66666666666663));
#44 = CARTESIAN_POINT ('', (-100., -8.24999999999999, 5.49999999999997));
#45 = CARTESIAN_POINT ('', (-99.75, -8.99999999999997, -6.00000000000001));
#46 = CARTESIAN_POINT ('', (-99.8333333333334, -8.74999999999996, -5.83333333333334));
#47 = CARTESIAN_POINT ('', (-99.9166666666669, -8.49999999999996, -5.66666666666667));
#48 = CARTESIAN_POINT ('', (-100., -8.24999999999997, -5.50000000000001));
#49 = CARTESIAN_POINT ('', (-99.75, 3.00000000000002, -12.));
#50 = CARTESIAN_POINT ('', (-99.8333333333334, 2.91666666666669, -11.6666666666666));
#51 = CARTESIAN_POINT ('', (-99.9166666666669, 2.83333333333335, -11.3333333333333));
#52 = CARTESIAN_POINT ('', (-100., 2.75000000000002, -11.));
#53 = CARTESIAN_POINT ('', (-99.75, 3., -7.3478807948841E-16));
#54 = CARTESIAN_POINT ('', (-99.8333333333334, 2.91666666666667, -7.14377299502622E-16));
#55 = CARTESIAN_POINT ('', (-99.9166666666669, 2.83333333333333, -6.93966519516833E-16));
#56 = CARTESIAN_POINT ('', (-100., 2.75, -6.73555739531043E-16));
#57 = (
   BOUNDED_SURFACE ()
   B_SPLINE_SURFACE (5, 3, ((#33, #34, #35, #36), (#37, #38, #39, #40), (#41, #42, #43, #44), (#45, #46, #47, #48), (#49, #50, #51, #52), (#53, #54, #55, #56)), .UNSPECIFIED., .T., .F., .U.)
   B_SPLINE_SURFACE_WITH_KNOTS ((6, 6), (4, 4), (0., 1.), (0., 1.), .UNSPECIFIED.)
   SURFACE ()
   GEOMETRIC_REPRESENTATION_ITEM ()
   RATIONAL_B_SPLINE_SURFACE (((5., 5., 5., 5.), (1., 1., 1., 1.), (1., 1., 1., 1.), (1., 1., 1., 1.), (1., 1., 1., 1.), (5., 5., 5., 5.)))
   REPRESENTATION_ITEM ('')
);
#58 = ADVANCED_FACE ('', (#32), #57, .F.);
#59 = CARTESIAN_POINT ('', (-100., 6.12323399573677E-15, -6.12323399573677E-15));
#60 = VERTEX_POINT ('', #59);
#61 = CARTESIAN_POINT ('', (-100., 2.75, -6.73555739531043E-16));
#62 = CARTESIAN_POINT ('', (-100., 6.12323399573677E-15, -6.12323399573677E-15));
#63 = B_SPLINE_CURVE_WITH_KNOTS ('', 1, (#61, #62), .UNSPECIFIED., .F., .U., (2, 2), (0., 1.), .UNSPECIFIED.);
#64 = EDGE_CURVE ('', #4, #60, #63, .T.);
#65 = ORIENTED_EDGE ('', *, *, #64, .F.);
#66 = ORIENTED_EDGE ('', *, *, #29, .T.);
#67 = ORIENTED_EDGE ('', *, *, #64, .T.);
#68 = EDGE_LOOP ('', (#65, #66, #67));
#69 = FACE_OUTER_BOUND ('', #68, .F.);
#70 = CARTESIAN_POINT ('', (-100., 2.75, -6.73555739531043E-16));
#71 = CARTESIAN_POINT ('', (-100., 6.12323399573677E-15, -6.12323399573677E-15));
#72 = CARTESIAN_POINT ('', (-100., 2.74999999999998, 11.));
#73 = CARTESIAN_POINT ('', (-100., 6.12323399573677E-15, -6.12323399573677E-15));
#74 = CARTESIAN_POINT ('', (-100., -8.24999999999999, 5.49999999999997));
#75 = CARTESIAN_POINT ('', (-100., 6.12323399573677E-15, -6.12323399573677E-15));
#76 = CARTESIAN_POINT ('', (-100., -8.24999999999997, -5.50000000000001));
#77 = CARTESIAN_POINT ('', (-100., 6.12323399573677E-15, -6.12323399573677E-15));
#78 = CARTESIAN_POINT ('', (-100., 2.75000000000002, -11.));
#79 = CARTESIAN_POINT ('', (-100., 6.12323399573677E-15, -6.12323399573677E-15));
#80 = CARTESIAN_POINT ('', (-100., 2.75, -6.73555739531043E-16));
#81 = CARTESIAN_POINT ('', (-100., 6.12323399573677E-15, -6.12323399573677E-15));
#82 = (
   BOUNDED_SURFACE ()
   B_SPLINE_SURFACE (5, 1, ((#70, #71), (#72, #73), (#74, #75), (#76, #77), (#78, #79), (#80, #81)), .UNSPECIFIED., .T., .F., .U.)
   B_SPLINE_SURFACE_WITH_KNOTS ((6, 6), (2, 2), (0., 1.), (0., 1.), .UNSPECIFIED.)
   SURFACE ()
   GEOMETRIC_REPRESENTATION_ITEM ()
   RATIONAL_B_SPLINE_SURFACE (((5., 5.), (1., 1.), (1., 1.), (1., 1.), (1., 1.), (5., 5.)))
   REPRESENTATION_ITEM ('')
);
#83 = ADVANCED_FACE ('', (#69), #82, .F.);
#84 = CARTESIAN_POINT ('', (-10.1445069205096, 3., -7.34788079488412E-16));
#85 = VERTEX_POINT ('', #84);
#86 = CARTESIAN_POINT ('', (-10.1445069205096, 3., -7.34788079488412E-16));
#87 = CARTESIAN_POINT ('', (-40.013004613673, 3.00000000000001, -7.34788079488413E-16));
#88 = CARTESIAN_POINT ('', (-69.8815023068363, 3., -7.34788079488412E-16));
#89 = CARTESIAN_POINT ('', (-99.75, 3., -7.3478807948841E-16));
#90 = B_SPLINE_CURVE_WITH_KNOTS ('', 3, (#86, #87, #88, #89), .UNSPECIFIED., .F., .U., (4, 4), (0., 1.), .UNSPECIFIED.);
#91 = EDGE_CURVE ('', #85, #2, #90, .T.);
#92 = ORIENTED_EDGE ('', *, *, #91, .F.);
#93 = CARTESIAN_POINT ('', (-10.1445069205096, 3., -7.34788079488412E-16));
#94 = CARTESIAN_POINT ('', (-10.1445069205096, 3., 12.));
#95 = CARTESIAN_POINT ('', (-10.1445069205096, -9., 6.));
#96 = CARTESIAN_POINT ('', (-10.1445069205096, -9., -6.));
#97 = CARTESIAN_POINT ('', (-10.1445069205096, 3., -12.));
#98 = CARTESIAN_POINT ('', (-10.1445069205096, 3., -7.34788079488412E-16));
#99 = (
   BOUNDED_CURVE ()
   B_SPLINE_CURVE (5, (#93, #94, #95, #96, #97, #98), .UNSPECIFIED., .T., .U.)
   B_SPLINE_CURVE_WITH_KNOTS ((6, 6), (0., 1.), .UNSPECIFIED.)
   CURVE ()
   GEOMETRIC_REPRESENTATION_ITEM ()
   RATIONAL_B_SPLINE_CURVE ((5., 1., 1., 1., 1., 5.))
   REPRESENTATION_ITEM ('')
);
#100 = EDGE_CURVE ('', #85, #85, #99, .T.);
#101 = ORIENTED_EDGE ('', *, *, #100, .T.);
#102 = ORIENTED_EDGE ('', *, *, #91, .T.);
#103 = ORIENTED_EDGE ('', *, *, #19, .F.);
#104 = EDGE_LOOP ('', (#92, #101, #102, #103));
#105 = FACE_OUTER_BOUND ('', #104, .F.);
#106 = CARTESIAN_POINT ('', (-10.1445069205096, 3., -7.34788079488412E-16));
#107 = CARTESIAN_POINT ('', (-40.013004613673, 3.00000000000001, -7.34788079488413E-16));
#108 = CARTESIAN_POINT ('', (-69.8815023068363, 3., -7.34788079488412E-16));
#109 = CARTESIAN_POINT ('', (-99.75, 3., -7.3478807948841E-16));
#110 = CARTESIAN_POINT ('', (-10.1445069205096, 3., 12.));
#111 = CARTESIAN_POINT ('', (-40.013004613673, 3., 12.));
#112 = CARTESIAN_POINT ('', (-69.8815023068363, 2.99999999999999, 12.));
#113 = CARTESIAN_POINT ('', (-99.75, 2.99999999999998, 12.));
#114 = CARTESIAN_POINT ('', (-10.1445069205096, -9., 6.));
#115 = CARTESIAN_POINT ('', (-40.013004613673, -9.00000000000002, 6.));
#116 = CARTESIAN_POINT ('', (-69.8815023068363, -9., 5.99999999999998));
#117 = CARTESIAN_POINT ('', (-99.75, -8.99999999999999, 5.99999999999997));
#118 = CARTESIAN_POINT ('', (-10.1445069205096, -9., -6.));
#119 = CARTESIAN_POINT ('', (-40.013004613673, -9.00000000000001, -6.00000000000002));
#120 = CARTESIAN_POINT ('', (-69.8815023068363, -8.99999999999999, -6.00000000000001));
#121 = CARTESIAN_POINT ('', (-99.75, -8.99999999999997, -6.00000000000001));
#122 = CARTESIAN_POINT ('', (-10.1445069205096, 3., -12.));
#123 = CARTESIAN_POINT ('', (-40.013004613673, 3.00000000000001, -12.));
#124 = CARTESIAN_POINT ('', (-69.8815023068363, 3.00000000000002, -12.));
#125 = CARTESIAN_POINT ('', (-99.75, 3.00000000000002, -12.));
#126 = CARTESIAN_POINT ('', (-10.1445069205096, 3., -7.34788079488412E-16));
#127 = CARTESIAN_POINT ('', (-40.013004613673, 3.00000000000001, -7.34788079488413E-16));
#128 = CARTESIAN_POINT ('', (-69.8815023068363, 3., -7.34788079488412E-16));
#129 = CARTESIAN_POINT ('', (-99.75, 3., -7.3478807948841E-16));
#130 = (
   BOUNDED_SURFACE ()
   B_SPLINE_SURFACE (5, 3, ((#106, #107, #108, #109), (#110, #111, #112, #113), (#114, #115, #116, #117), (#118, #119, #120, #121), (#122, #123, #124, #125), (#126, #127, #128, #129)), .UNSPECIFIED., .T., .F., .U.)
   B_SPLINE_SURFACE_WITH_KNOTS ((6, 6), (4, 4), (0., 1.), (0., 1.), .UNSPECIFIED.)
   SURFACE ()
   GEOMETRIC_REPRESENTATION_ITEM ()
   RATIONAL_B_SPLINE_SURFACE (((5., 5., 5., 5.), (1., 1., 1., 1.), (1., 1., 1., 1.), (1., 1., 1., 1.), (1., 1., 1., 1.), (5., 5., 5., 5.)))
   REPRESENTATION_ITEM ('')
);
#131 = ADVANCED_FACE ('', (#105), #130, .F.);
#132 = CARTESIAN_POINT ('', (-8., 2., -4.89858719658941E-16));
#133 = VERTEX_POINT ('', #132);
#134 = CARTESIAN_POINT ('', (-8., 2., -4.89858719658941E-16));
#135 = CARTESIAN_POINT ('', (-8.71483564016984, 2.33333333333333, -5.71501839602097E-16));
#136 = CARTESIAN_POINT ('', (-9.42967128033973, 2.66666666666667, -6.53144959545255E-16));
#137 = CARTESIAN_POINT ('', (-10.1445069205096, 3., -7.34788079488412E-16));
#138 = B_SPLINE_CURVE_WITH_KNOTS ('', 3, (#134, #135, #136, #137), .UNSPECIFIED., .F., .U., (4, 4), (0., 1.), .UNSPECIFIED.);
#139 = EDGE_CURVE ('', #133, #85, #138, .T.);
#140 = ORIENTED_EDGE ('', *, *, #139, .F.);
#141 = CARTESIAN_POINT ('', (-8., 2., -4.89858719658941E-16));
#142 = CARTESIAN_POINT ('', (-8., 2., 8.));
#143 = CARTESIAN_POINT ('', (-8., -6., 4.));
#144 = CARTESIAN_POINT ('', (-8., -6., -4.));
#145 = CARTESIAN_POINT ('', (-8., 2., -8.));
#146 = CARTESIAN_POINT ('', (-8., 2., -4.89858719658941E-16));
#147 = (
   BOUNDED_CURVE ()
   B_SPLINE_CURVE (5, (#141, #142, #143, #144, #145, #146), .UNSPECIFIED., .T., .U.)
   B_SPLINE_CURVE_WITH_KNOTS ((6, 6), (0., 1.), .UNSPECIFIED.)
   CURVE ()
   GEOMETRIC_REPRESENTATION_ITEM ()
   RATIONAL_B_SPLINE_CURVE ((5., 1., 1., 1., 1., 5.))
   REPRESENTATION_ITEM ('')
);
#148 = EDGE_CURVE ('', #133, #133, #147, .T.);
#149 = ORIENTED_EDGE ('', *, *, #148, .T.);
#150 = ORIENTED_EDGE ('', *, *, #139, .T.);
#151 = ORIENTED_EDGE ('', *, *, #100, .F.);
#152 = EDGE_LOOP ('', (#140, #149, #150, #151));
#153 = FACE_OUTER_BOUND ('', #152, .F.);
#154 = CARTESIAN_POINT ('', (-8., 2., -4.89858719658941E-16));
#155 = CARTESIAN_POINT ('', (-8.71483564016984, 2.33333333333333, -5.71501839602097E-16));
#156 = CARTESIAN_POINT ('', (-9.42967128033973, 2.66666666666667, -6.53144959545255E-16));
#157 = CARTESIAN_POINT ('', (-10.1445069205096, 3., -7.34788079488412E-16));
#158 = CARTESIAN_POINT ('', (-8., 2., 8.));
#159 = CARTESIAN_POINT ('', (-8.71483564016984, 2.33333333333333, 9.33333333333331));
#160 = CARTESIAN_POINT ('', (-9.42967128033973, 2.66666666666667, 10.6666666666667));
#161 = CARTESIAN_POINT ('', (-10.1445069205096, 3., 12.));
#162 = CARTESIAN_POINT ('', (-8., -6., 4.));
#163 = CARTESIAN_POINT ('', (-8.71483564016984, -6.99999999999998, 4.66666666666666));
#164 = CARTESIAN_POINT ('', (-9.42967128033973, -8.00000000000001, 5.33333333333334));
#165 = CARTESIAN_POINT ('', (-10.1445069205096, -9., 6.));
#166 = CARTESIAN_POINT ('', (-8., -6., -4.));
#167 = CARTESIAN_POINT ('', (-8.71483564016984, -6.99999999999998, -4.66666666666666));
#168 = CARTESIAN_POINT ('', (-9.42967128033973, -8.00000000000001, -5.33333333333334));
#169 = CARTESIAN_POINT ('', (-10.1445069205096, -9., -6.));
#170 = CARTESIAN_POINT ('', (-8., 2., -8.));
#171 = CARTESIAN_POINT ('', (-8.71483564016984, 2.33333333333333, -9.33333333333331));
#172 = CARTESIAN_POINT ('', (-9.42967128033973, 2.66666666666667, -10.6666666666667));
#173 = CARTESIAN_POINT ('', (-10.1445069205096, 3., -12.));
#174 = CARTESIAN_POINT ('', (-8., 2., -4.89858719658941E-16));
#175 = CARTESIAN_POINT ('', (-8.71483564016984, 2.33333333333333, -5.71501839602097E-16));
#176 = CARTESIAN_POINT ('', (-9.42967128033973, 2.66666666666667, -6.53144959545255E-16));
#177 = CARTESIAN_POINT ('', (-10.1445069205096, 3., -7.34788079488412E-16));
#178 = (
   BOUNDED_SURFACE ()
   B_SPLINE_SURFACE (5, 3, ((#154, #155, #156, #157), (#158, #159, #160, #161), (#162, #163, #164, #165), (#166, #167, #168, #169), (#170, #171, #172, #173), (#174, #175, #176, #177)), .UNSPECIFIED., .T., .F., .U.)
   B_SPLINE_SURFACE_WITH_KNOTS ((6, 6), (4, 4), (0., 1.), (0., 1.), .UNSPECIFIED.)
   SURFACE ()
   GEOMETRIC_REPRESENTATION_ITEM ()
   RATIONAL_B_SPLINE_SURFACE (((5., 5., 5., 5.), (1., 1., 1., 1.), (1., 1., 1., 1.), (1., 1., 1., 1.), (1., 1., 1., 1.), (5., 5., 5., 5.)))
   REPRESENTATION_ITEM ('')
);
#179 = ADVANCED_FACE ('', (#153), #178, .F.);
#180 = CARTESIAN_POINT ('', (-2., 2., -4.89858719658941E-16));
#181 = VERTEX_POINT ('', #180);
#182 = CARTESIAN_POINT ('', (-2., 2., -4.89858719658941E-16));
#183 = CARTESIAN_POINT ('', (-4., 2., -4.89858719658941E-16));
#184 = CARTESIAN_POINT ('', (-6., 2., -4.89858719658941E-16));
#185 = CARTESIAN_POINT ('', (-8., 2., -4.89858719658941E-16));
#186 = B_SPLINE_CURVE_WITH_KNOTS ('', 3, (#182, #183, #184, #185), .UNSPECIFIED., .F., .U., (4, 4), (0., 1.), .UNSPECIFIED.);
#187 = EDGE_CURVE ('', #181, #133, #186, .T.);
#188 = ORIENTED_EDGE ('', *, *, #187, .F.);
#189 = CARTESIAN_POINT ('', (-2., 2., -4.89858719658941E-16));
#190 = CARTESIAN_POINT ('', (-2., 2., 8.));
#191 = CARTESIAN_POINT ('', (-2., -6., 4.));
#192 = CARTESIAN_POINT ('', (-2., -6., -4.));
#193 = CARTESIAN_POINT ('', (-2., 2., -8.));
#194 = CARTESIAN_POINT ('', (-2., 2., -4.89858719658941E-16));
#195 = (
   BOUNDED_CURVE ()
   B_SPLINE_CURVE (5, (#189, #190, #191, #192, #193, #194), .UNSPECIFIED., .T., .U.)
   B_SPLINE_CURVE_WITH_KNOTS ((6, 6), (0., 1.), .UNSPECIFIED.)
   CURVE ()
   GEOMETRIC_REPRESENTATION_ITEM ()
   RATIONAL_B_SPLINE_CURVE ((5., 1., 1., 1., 1., 5.))
   REPRESENTATION_ITEM ('')
);
#196 = EDGE_CURVE ('', #181, #181, #195, .T.);
#197 = ORIENTED_EDGE ('', *, *, #196, .T.);
#198 = ORIENTED_EDGE ('', *, *, #187, .T.);
#199 = ORIENTED_EDGE ('', *, *, #148, .F.);
#200 = EDGE_LOOP ('', (#188, #197, #198, #199));
#201 = FACE_OUTER_BOUND ('', #200, .F.);
#202 = CARTESIAN_POINT ('', (-2., 2., -4.89858719658941E-16));
#203 = CARTESIAN_POINT ('', (-4., 2., -4.89858719658941E-16));
#204 = CARTESIAN_POINT ('', (-6., 2., -4.89858719658941E-16));
#205 = CARTESIAN_POINT ('', (-8., 2., -4.89858719658941E-16));
#206 = CARTESIAN_POINT ('', (-2., 2., 8.));
#207 = CARTESIAN_POINT ('', (-4., 2., 8.));
#208 = CARTESIAN_POINT ('', (-6., 2., 8.));
#209 = CARTESIAN_POINT ('', (-8., 2., 8.));
#210 = CARTESIAN_POINT ('', (-2., -6., 4.));
#211 = CARTESIAN_POINT ('', (-4., -6., 4.));
#212 = CARTESIAN_POINT ('', (-6., -6., 4.));
#213 = CARTESIAN_POINT ('', (-8., -6., 4.));
#214 = CARTESIAN_POINT ('', (-2., -6., -4.));
#215 = CARTESIAN_POINT ('', (-4., -6., -4.));
#216 = CARTESIAN_POINT ('', (-6., -6., -4.));
#217 = CARTESIAN_POINT ('', (-8., -6., -4.));
#218 = CARTESIAN_POINT ('', (-2., 2., -8.));
#219 = CARTESIAN_POINT ('', (-4., 2., -8.));
#220 = CARTESIAN_POINT ('', (-6., 2., -8.));
#221 = CARTESIAN_POINT ('', (-8., 2., -8.));
#222 = CARTESIAN_POINT ('', (-2., 2., -4.89858719658941E-16));
#223 = CARTESIAN_POINT ('', (-4., 2., -4.89858719658941E-16));
#224 = CARTESIAN_POINT ('', (-6., 2., -4.89858719658941E-16));
#225 = CARTESIAN_POINT ('', (-8., 2., -4.89858719658941E-16));
#226 = (
   BOUNDED_SURFACE ()
   B_SPLINE_SURFACE (5, 3, ((#202, #203, #204, #205), (#206, #207, #208, #209), (#210, #211, #212, #213), (#214, #215, #216, #217), (#218, #219, #220, #221), (#222, #223, #224, #225)), .UNSPECIFIED., .T., .F., .U.)
   B_SPLINE_SURFACE_WITH_KNOTS ((6, 6), (4, 4), (0., 1.), (0., 1.), .UNSPECIFIED.)
   SURFACE ()
   GEOMETRIC_REPRESENTATION_ITEM ()
   RATIONAL_B_SPLINE_SURFACE (((5., 5., 5., 5.), (1., 1., 1., 1.), (1., 1., 1., 1.), (1., 1., 1., 1.), (1., 1., 1., 1.), (5., 5., 5., 5.)))
   REPRESENTATION_ITEM ('')
);
#227 = ADVANCED_FACE ('', (#201), #226, .F.);
#228 = CARTESIAN_POINT ('', (0., 0., 0.));
#229 = VERTEX_POINT ('', #228);
#230 = CARTESIAN_POINT ('', (0., 0., 0.));
#231 = CARTESIAN_POINT ('', (6.16297582203915E-33, 0.352040279901407, -8.62250003904393E-17));
#232 = CARTESIAN_POINT ('', (-0.151611235190757, 0.909204067734356, -2.22690770264527E-16));
#233 = CARTESIAN_POINT ('', (-0.68060013873563, 1.55989139959615, -3.82063201906582E-16));
#234 = CARTESIAN_POINT ('', (-1.29251613277775, 1.91894307924862, -4.70005499949558E-16));
#235 = CARTESIAN_POINT ('', (-1.78148924444055, 2., -4.89858719658941E-16));
#236 = CARTESIAN_POINT ('', (-2., 2., -4.89858719658941E-16));
#237 = B_SPLINE_CURVE_WITH_KNOTS ('', 3, (#230, #231, #232, #233, #234, #235, #236), .UNSPECIFIED., .F., .U., (4, 1, 1, 1, 4), (0., 0.33617370428258, 0.532939663384363, 0.791337598803809, 1.), .UNSPECIFIED.);
#238 = EDGE_CURVE ('', #229, #181, #237, .T.);
#239 = ORIENTED_EDGE ('', *, *, #238, .F.);
#240 = ORIENTED_EDGE ('', *, *, #238, .T.);
#241 = ORIENTED_EDGE ('', *, *, #196, .F.);
#242 = EDGE_LOOP ('', (#239, #240, #241));
#243 = FACE_OUTER_BOUND ('', #242, .F.);
#244 = CARTESIAN_POINT ('', (0., 0., 0.));
#245 = CARTESIAN_POINT ('', (6.16297582203915E-33, 0.352040279901407, -8.62250003904393E-17));
#246 = CARTESIAN_POINT ('', (-0.151611235190757, 0.909204067734356, -2.22690770264527E-16));
#247 = CARTESIAN_POINT ('', (-0.68060013873563, 1.55989139959615, -3.82063201906582E-16));
#248 = CARTESIAN_POINT ('', (-1.29251613277775, 1.91894307924862, -4.70005499949558E-16));
#249 = CARTESIAN_POINT ('', (-1.78148924444055, 2., -4.89858719658941E-16));
#250 = CARTESIAN_POINT ('', (-2., 2., -4.89858719658941E-16));
#251 = CARTESIAN_POINT ('', (0., 0., 0.));
#252 = CARTESIAN_POINT ('', (-8.62250003904393E-17, 0.352040279901408, 1.40816111960563));
#253 = CARTESIAN_POINT ('', (-0.151611235190758, 0.909204067734357, 3.63681627093743));
#254 = CARTESIAN_POINT ('', (-0.68060013873563, 1.55989139959615, 6.23956559838459));
#255 = CARTESIAN_POINT ('', (-1.29251613277775, 1.91894307924862, 7.67577231699449));
#256 = CARTESIAN_POINT ('', (-1.78148924444055, 2., 8.));
#257 = CARTESIAN_POINT ('', (-2., 2., 8.));
#258 = CARTESIAN_POINT ('', (0., 0., 0.));
#259 = CARTESIAN_POINT ('', (-1.29337500585659E-16, -1.05612083970422, 0.704080559802815));
#260 = CARTESIAN_POINT ('', (-0.151611235190758, -2.72761220320307, 1.81840813546871));
#261 = CARTESIAN_POINT ('', (-0.680600138735631, -4.67967419878844, 3.1197827991923));
#262 = CARTESIAN_POINT ('', (-1.29251613277775, -5.75682923774586, 3.83788615849724));
#263 = CARTESIAN_POINT ('', (-1.78148924444055, -6., 4.));
#264 = CARTESIAN_POINT ('', (-2., -6., 4.));
#265 = CARTESIAN_POINT ('', (0., 0., 0.));
#266 = CARTESIAN_POINT ('', (-4.31125001952197E-17, -1.05612083970422, -0.704080559802814));
#267 = CARTESIAN_POINT ('', (-0.151611235190758, -2.72761220320307, -1.81840813546871));
#268 = CARTESIAN_POINT ('', (-0.68060013873563, -4.67967419878845, -3.1197827991923));
#269 = CARTESIAN_POINT ('', (-1.29251613277775, -5.75682923774587, -3.83788615849724));
#270 = CARTESIAN_POINT ('', (-1.78148924444055, -6., -4.));
#271 = CARTESIAN_POINT ('', (-2., -6., -4.));
#272 = CARTESIAN_POINT ('', (0., 0., 0.));
#273 = CARTESIAN_POINT ('', (8.62250003904393E-17, 0.352040279901407, -1.40816111960563));
#274 = CARTESIAN_POINT ('', (-0.151611235190757, 0.909204067734356, -3.63681627093743));
#275 = CARTESIAN_POINT ('', (-0.68060013873563, 1.55989139959615, -6.23956559838459));
#276 = CARTESIAN_POINT ('', (-1.29251613277775, 1.91894307924862, -7.67577231699449));
#277 = CARTESIAN_POINT ('', (-1.78148924444055, 2., -8.));
#278 = CARTESIAN_POINT ('', (-2., 2., -8.));
#279 = CARTESIAN_POINT ('', (0., 0., 0.));
#280 = CARTESIAN_POINT ('', (6.16297582203915E-33, 0.352040279901407, -8.62250003904393E-17));
#281 = CARTESIAN_POINT ('', (-0.151611235190757, 0.909204067734356, -2.22690770264527E-16));
#282 = CARTESIAN_POINT ('', (-0.68060013873563, 1.55989139959615, -3.82063201906582E-16));
#283 = CARTESIAN_POINT ('', (-1.29251613277775, 1.91894307924862, -4.70005499949558E-16));
#284 = CARTESIAN_POINT ('', (-1.78148924444055, 2., -4.89858719658941E-16));
#285 = CARTESIAN_POINT ('', (-2., 2., -4.89858719658941E-16));
#286 = (
   BOUNDED_SURFACE ()
   B_SPLINE_SURFACE (5, 3, ((#244, #245, #246, #247, #248, #249, #250), (#251, #252, #253, #254, #255, #256, #257), (#258, #259, #260, #261, #262, #263, #264), (#265, #266, #267, #268, #269, #270, #271), (#272, #273, #274, #275, #276, #277, #278), (#279, #280, #281, #282, #283, #284, #285)), .UNSPECIFIED., .T., .F., .U.)
   B_SPLINE_SURFACE_WITH_KNOTS ((6, 6), (4, 1, 1, 1, 4), (0., 1.), (0., 0.33617370428258, 0.532939663384363, 0.791337598803809, 1.), .UNSPECIFIED.)
   SURFACE ()
   GEOMETRIC_REPRESENTATION_ITEM ()
   RATIONAL_B_SPLINE_SURFACE (((5., 5., 5., 5., 5., 5., 5.), (1., 1., 1., 1., 1., 1., 1.), (1., 1., 1., 1., 1., 1., 1.), (1., 1., 1., 1., 1., 1., 1.), (1., 1., 1., 1., 1., 1., 1.), (5., 5., 5., 5., 5., 5., 5.)))
   REPRESENTATION_ITEM ('')
);
#287 = ADVANCED_FACE ('', (#243), #286, .F.);
#288 = CLOSED_SHELL ('', (#58, #83, #131, #179, #227, #287));
#289 = MANIFOLD_SOLID_BREP ('', #288);
#290 = (
   LENGTH_UNIT ()
   NAMED_UNIT (*)
   SI_UNIT (.MILLI., .METRE.)
);
#291 = (
   NAMED_UNIT (*)
   SI_UNIT ($, .STERADIAN.)
   SOLID_ANGLE_UNIT ()
);
#292 = (
   NAMED_UNIT (*)
   SI_UNIT ($, .RADIAN.)
   PLANE_ANGLE_UNIT ()
);
#293 = UNCERTAINTY_MEASURE_WITH_UNIT (LENGTH_MEASURE(0.001), #290, 'DISTANCE_ACCURACY_VALUE', '');
#294 = (
   GEOMETRIC_REPRESENTATION_CONTEXT (3)
   GLOBAL_UNCERTAINTY_ASSIGNED_CONTEXT ((#293))
   GLOBAL_UNIT_ASSIGNED_CONTEXT ((#290, #291, #292))
   REPRESENTATION_CONTEXT ('', '3D')
);
#295 = SHAPE_REPRESENTATION ('', (), #294);
#296 = APPLICATION_CONTEXT ('configuration controlled 3D designs of mechanical parts and assemblies');
#297 = APPLICATION_PROTOCOL_DEFINITION ('International Standard', 'config_control_design', 1997, #296);
#298 = MECHANICAL_CONTEXT ('', #296, 'mechanical');
#299 = PRODUCT ('', '', '', (#298));
#300 = PERSON_AND_ORGANIZATION_ROLE ('design_owner');
#301 = PERSON ('', '', $, $, $, $);
#302 = ORGANIZATION ($, '', '');
#303 = PERSON_AND_ORGANIZATION (#301, #302);
#304 = CC_DESIGN_PERSON_AND_ORGANIZATION_ASSIGNMENT (#303, #300, (#299));
#305 = PRODUCT_RELATED_PRODUCT_CATEGORY ('detail', $, (#299));
#306 = PRODUCT_DEFINITION_FORMATION_WITH_SPECIFIED_SOURCE ('', '', #299, .NOT_KNOWN.);
#307 = APPROVAL_STATUS ('approved');
#308 = APPROVAL (#307, '');
#309 = CALENDAR_DATE (2020, 8, 7);
#310 = COORDINATED_UNIVERSAL_TIME_OFFSET (0, $, .AHEAD.);
#311 = LOCAL_TIME (14, 9, 25., #310);
#312 = DATE_AND_TIME (#309, #311);
#313 = APPROVAL_DATE_TIME (#312, #308);
#314 = APPROVAL_ROLE ('');
#315 = PERSON ('', '', $, $, $, $);
#316 = ORGANIZATION ($, '', '');
#317 = PERSON_AND_ORGANIZATION (#315, #316);
#318 = APPROVAL_PERSON_ORGANIZATION (#317, #308, #314);
#319 = CC_DESIGN_APPROVAL (#308, (#306));
#320 = PERSON_AND_ORGANIZATION_ROLE ('creator');
#321 = PERSON ('', '', $, $, $, $);
#322 = ORGANIZATION ($, '', '');
#323 = PERSON_AND_ORGANIZATION (#321, #322);
#324 = CC_DESIGN_PERSON_AND_ORGANIZATION_ASSIGNMENT (#323, #320, (#306));
#325 = PERSON_AND_ORGANIZATION_ROLE ('part_supplier');
#326 = PERSON ('', '', $, $, $, $);
#327 = ORGANIZATION ($, '', '');
#328 = PERSON_AND_ORGANIZATION (#326, #327);
#329 = CC_DESIGN_PERSON_AND_ORGANIZATION_ASSIGNMENT (#328, #325, (#306));
#330 = SECURITY_CLASSIFICATION_LEVEL ('unclassified');
#331 = SECURITY_CLASSIFICATION ('', '', #330);
#332 = APPROVAL_STATUS ('approved');
#333 = APPROVAL (#332, '');
#334 = CALENDAR_DATE (2020, 8, 7);
#335 = COORDINATED_UNIVERSAL_TIME_OFFSET (0, $, .AHEAD.);
#336 = LOCAL_TIME (14, 9, 25., #335);
#337 = DATE_AND_TIME (#334, #336);
#338 = APPROVAL_DATE_TIME (#337, #333);
#339 = APPROVAL_ROLE ('');
#340 = PERSON ('', '', $, $, $, $);
#341 = ORGANIZATION ($, '', '');
#342 = PERSON_AND_ORGANIZATION (#340, #341);
#343 = APPROVAL_PERSON_ORGANIZATION (#342, #333, #339);
#344 = CC_DESIGN_APPROVAL (#333, (#331));
#345 = DATE_TIME_ROLE ('classification_date');
#346 = CALENDAR_DATE (2020, 8, 7);
#347 = COORDINATED_UNIVERSAL_TIME_OFFSET (0, $, .AHEAD.);
#348 = LOCAL_TIME (14, 9, 25., #347);
#349 = DATE_AND_TIME (#346, #348);
#350 = CC_DESIGN_DATE_AND_TIME_ASSIGNMENT (#349, #345, (#331));
#351 = PERSON_AND_ORGANIZATION_ROLE ('classification_officer');
#352 = PERSON ('', '', $, $, $, $);
#353 = ORGANIZATION ($, '', '');
#354 = PERSON_AND_ORGANIZATION (#352, #353);
#355 = CC_DESIGN_PERSON_AND_ORGANIZATION_ASSIGNMENT (#354, #351, (#331));
#356 = CC_DESIGN_SECURITY_CLASSIFICATION (#331, (#306));
#357 = DESIGN_CONTEXT ('', #296, 'design');
#358 = PRODUCT_DEFINITION ('', '', #306, #357);
#359 = APPROVAL_STATUS ('approved');
#360 = APPROVAL (#359, '');
#361 = CALENDAR_DATE (2020, 8, 7);
#362 = COORDINATED_UNIVERSAL_TIME_OFFSET (0, $, .AHEAD.);
#363 = LOCAL_TIME (14, 9, 25., #362);
#364 = DATE_AND_TIME (#361, #363);
#365 = APPROVAL_DATE_TIME (#364, #360);
#366 = APPROVAL_ROLE ('');
#367 = PERSON ('', '', $, $, $, $);
#368 = ORGANIZATION ($, '', '');
#369 = PERSON_AND_ORGANIZATION (#367, #368);
#370 = APPROVAL_PERSON_ORGANIZATION (#369, #360, #366);
#371 = CC_DESIGN_APPROVAL (#360, (#358));
#372 = DATE_TIME_ROLE ('creation_date');
#373 = CALENDAR_DATE (2020, 8, 7);
#374 = COORDINATED_UNIVERSAL_TIME_OFFSET (0, $, .AHEAD.);
#375 = LOCAL_TIME (14, 9, 25., #374);
#376 = DATE_AND_TIME (#373, #375);
#377 = CC_DESIGN_DATE_AND_TIME_ASSIGNMENT (#376, #372, (#358));
#378 = PERSON_AND_ORGANIZATION_ROLE ('creator');
#379 = PERSON ('', '', $, $, $, $);
#380 = ORGANIZATION ($, '', '');
#381 = PERSON_AND_ORGANIZATION (#379, #380);
#382 = CC_DESIGN_PERSON_AND_ORGANIZATION_ASSIGNMENT (#381, #378, (#358));
#383 = PRODUCT_DEFINITION_SHAPE ('', '', #358);
#384 = SHAPE_DEFINITION_REPRESENTATION (#383, #295);
#385 = SHAPE_REPRESENTATION_RELATIONSHIP ('', '', #295, #386);
#386 = ADVANCED_BREP_SHAPE_REPRESENTATION ('', (#289), #294);
ENDSEC;
END-ISO-10303-21;
