ISO-10303-21;
HEADER;
FILE_DESCRIPTION ((), '1');
FILE_NAME ('C:\\DDrive\\ROB\\Rob\\Documents\\ROB\\Customers & Projects\\M\\MAFE\\TOOL STEP FILES\\MFBN\\MFNB0603.STP', '2020-07-08T14:22:27', ('Unknown'), ('M A Ford'), 'OneCNC-XR8 Mill 3D Expert', 'OneCNC-XR8 Mill 3D Expert', '');
FILE_SCHEMA (('CONFIG_CONTROL_DESIGN'));
ENDSEC;

DATA;
#1 = CARTESIAN_POINT ('', (-99.75, 4., -9.79717439317881E-16));
#2 = VERTEX_POINT ('', #1);
#3 = CARTESIAN_POINT ('', (-100., 3.75, -9.18485099360514E-16));
#4 = VERTEX_POINT ('', #3);
#5 = CARTESIAN_POINT ('', (-99.75, 4., -9.79717439317881E-16));
#6 = CARTESIAN_POINT ('', (-99.8333333333335, 3.91666666666667, -9.59306659332092E-16));
#7 = CARTESIAN_POINT ('', (-99.9166666666668, 3.83333333333333, -9.38895879346301E-16));
#8 = CARTESIAN_POINT ('', (-100., 3.75, -9.18485099360514E-16));
#9 = B_SPLINE_CURVE_WITH_KNOTS ('', 3, (#5, #6, #7, #8), .UNSPECIFIED., .F., .U., (4, 4), (0., 1.), .UNSPECIFIED.);
#10 = EDGE_CURVE ('', #2, #4, #9, .T.);
#11 = ORIENTED_EDGE ('', *, *, #10, .F.);
#12 = CARTESIAN_POINT ('', (-99.75, 4., -9.79717439317881E-16));
#13 = CARTESIAN_POINT ('', (-99.75, 3.99999999999998, 16.));
#14 = CARTESIAN_POINT ('', (-99.75, -12., 7.99999999999997));
#15 = CARTESIAN_POINT ('', (-99.75, -12., -8.00000000000001));
#16 = CARTESIAN_POINT ('', (-99.75, 4.00000000000002, -16.));
#17 = CARTESIAN_POINT ('', (-99.75, 4., -9.79717439317881E-16));
#18 = (
   BOUNDED_CURVE ()
   B_SPLINE_CURVE (5, (#12, #13, #14, #15, #16, #17), .UNSPECIFIED., .T., .U.)
   B_SPLINE_CURVE_WITH_KNOTS ((6, 6), (0., 1.), .UNSPECIFIED.)
   CURVE ()
   GEOMETRIC_REPRESENTATION_ITEM ()
   RATIONAL_B_SPLINE_CURVE ((5., 1., 1., 1., 1., 5.))
   REPRESENTATION_ITEM ('')
);
#19 = EDGE_CURVE ('', #2, #2, #18, .T.);
#20 = ORIENTED_EDGE ('', *, *, #19, .T.);
#21 = ORIENTED_EDGE ('', *, *, #10, .T.);
#22 = CARTESIAN_POINT ('', (-100., 3.75, -9.18485099360514E-16));
#23 = CARTESIAN_POINT ('', (-100., 3.74999999999998, 15.));
#24 = CARTESIAN_POINT ('', (-100., -11.25, 7.49999999999997));
#25 = CARTESIAN_POINT ('', (-100., -11.25, -7.50000000000001));
#26 = CARTESIAN_POINT ('', (-100., 3.75000000000002, -15.));
#27 = CARTESIAN_POINT ('', (-100., 3.75, -9.18485099360514E-16));
#28 = (
   BOUNDED_CURVE ()
   B_SPLINE_CURVE (5, (#22, #23, #24, #25, #26, #27), .UNSPECIFIED., .T., .U.)
   B_SPLINE_CURVE_WITH_KNOTS ((6, 6), (0., 1.), .UNSPECIFIED.)
   CURVE ()
   GEOMETRIC_REPRESENTATION_ITEM ()
   RATIONAL_B_SPLINE_CURVE ((5., 1., 1., 1., 1., 5.))
   REPRESENTATION_ITEM ('')
);
#29 = EDGE_CURVE ('', #4, #4, #28, .T.);
#30 = ORIENTED_EDGE ('', *, *, #29, .F.);
#31 = EDGE_LOOP ('', (#11, #20, #21, #30));
#32 = FACE_OUTER_BOUND ('', #31, .F.);
#33 = CARTESIAN_POINT ('', (-99.75, 4., -9.79717439317881E-16));
#34 = CARTESIAN_POINT ('', (-99.8333333333335, 3.91666666666667, -9.59306659332092E-16));
#35 = CARTESIAN_POINT ('', (-99.9166666666668, 3.83333333333333, -9.38895879346301E-16));
#36 = CARTESIAN_POINT ('', (-100., 3.75, -9.18485099360514E-16));
#37 = CARTESIAN_POINT ('', (-99.75, 3.99999999999998, 16.));
#38 = CARTESIAN_POINT ('', (-99.8333333333335, 3.91666666666665, 15.6666666666666));
#39 = CARTESIAN_POINT ('', (-99.9166666666668, 3.83333333333331, 15.3333333333333));
#40 = CARTESIAN_POINT ('', (-100., 3.74999999999998, 15.));
#41 = CARTESIAN_POINT ('', (-99.75, -12., 7.99999999999997));
#42 = CARTESIAN_POINT ('', (-99.8333333333335, -11.75, 7.8333333333333));
#43 = CARTESIAN_POINT ('', (-99.9166666666668, -11.5, 7.66666666666662));
#44 = CARTESIAN_POINT ('', (-100., -11.25, 7.49999999999997));
#45 = CARTESIAN_POINT ('', (-99.75, -12., -8.00000000000001));
#46 = CARTESIAN_POINT ('', (-99.8333333333335, -11.75, -7.83333333333334));
#47 = CARTESIAN_POINT ('', (-99.9166666666668, -11.5, -7.66666666666667));
#48 = CARTESIAN_POINT ('', (-100., -11.25, -7.50000000000001));
#49 = CARTESIAN_POINT ('', (-99.75, 4.00000000000002, -16.));
#50 = CARTESIAN_POINT ('', (-99.8333333333335, 3.91666666666669, -15.6666666666666));
#51 = CARTESIAN_POINT ('', (-99.9166666666668, 3.83333333333335, -15.3333333333333));
#52 = CARTESIAN_POINT ('', (-100., 3.75000000000002, -15.));
#53 = CARTESIAN_POINT ('', (-99.75, 4., -9.79717439317881E-16));
#54 = CARTESIAN_POINT ('', (-99.8333333333335, 3.91666666666667, -9.59306659332092E-16));
#55 = CARTESIAN_POINT ('', (-99.9166666666668, 3.83333333333333, -9.38895879346301E-16));
#56 = CARTESIAN_POINT ('', (-100., 3.75, -9.18485099360514E-16));
#57 = (
   BOUNDED_SURFACE ()
   B_SPLINE_SURFACE (5, 3, ((#33, #34, #35, #36), (#37, #38, #39, #40), (#41, #42, #43, #44), (#45, #46, #47, #48), (#49, #50, #51, #52), (#53, #54, #55, #56)), .UNSPECIFIED., .T., .F., .U.)
   B_SPLINE_SURFACE_WITH_KNOTS ((6, 6), (4, 4), (0., 1.), (0., 1.), .UNSPECIFIED.)
   SURFACE ()
   GEOMETRIC_REPRESENTATION_ITEM ()
   RATIONAL_B_SPLINE_SURFACE (((5., 5., 5., 5.), (1., 1., 1., 1.), (1., 1., 1., 1.), (1., 1., 1., 1.), (1., 1., 1., 1.), (5., 5., 5., 5.)))
   REPRESENTATION_ITEM ('')
);
#58 = ADVANCED_FACE ('', (#32), #57, .F.);
#59 = CARTESIAN_POINT ('', (-100., 6.12323399573677E-15, -6.12323399573677E-15));
#60 = VERTEX_POINT ('', #59);
#61 = CARTESIAN_POINT ('', (-100., 3.75, -9.18485099360514E-16));
#62 = CARTESIAN_POINT ('', (-100., 6.12323399573677E-15, -6.12323399573677E-15));
#63 = B_SPLINE_CURVE_WITH_KNOTS ('', 1, (#61, #62), .UNSPECIFIED., .F., .U., (2, 2), (0., 1.), .UNSPECIFIED.);
#64 = EDGE_CURVE ('', #4, #60, #63, .T.);
#65 = ORIENTED_EDGE ('', *, *, #64, .F.);
#66 = ORIENTED_EDGE ('', *, *, #29, .T.);
#67 = ORIENTED_EDGE ('', *, *, #64, .T.);
#68 = EDGE_LOOP ('', (#65, #66, #67));
#69 = FACE_OUTER_BOUND ('', #68, .F.);
#70 = CARTESIAN_POINT ('', (-100., 3.75, -9.18485099360514E-16));
#71 = CARTESIAN_POINT ('', (-100., 6.12323399573677E-15, -6.12323399573677E-15));
#72 = CARTESIAN_POINT ('', (-100., 3.74999999999998, 15.));
#73 = CARTESIAN_POINT ('', (-100., 6.12323399573677E-15, -6.12323399573677E-15));
#74 = CARTESIAN_POINT ('', (-100., -11.25, 7.49999999999997));
#75 = CARTESIAN_POINT ('', (-100., 6.12323399573677E-15, -6.12323399573677E-15));
#76 = CARTESIAN_POINT ('', (-100., -11.25, -7.50000000000001));
#77 = CARTESIAN_POINT ('', (-100., 6.12323399573677E-15, -6.12323399573677E-15));
#78 = CARTESIAN_POINT ('', (-100., 3.75000000000002, -15.));
#79 = CARTESIAN_POINT ('', (-100., 6.12323399573677E-15, -6.12323399573677E-15));
#80 = CARTESIAN_POINT ('', (-100., 3.75, -9.18485099360514E-16));
#81 = CARTESIAN_POINT ('', (-100., 6.12323399573677E-15, -6.12323399573677E-15));
#82 = (
   BOUNDED_SURFACE ()
   B_SPLINE_SURFACE (5, 1, ((#70, #71), (#72, #73), (#74, #75), (#76, #77), (#78, #79), (#80, #81)), .UNSPECIFIED., .T., .F., .U.)
   B_SPLINE_SURFACE_WITH_KNOTS ((6, 6), (2, 2), (0., 1.), (0., 1.), .UNSPECIFIED.)
   SURFACE ()
   GEOMETRIC_REPRESENTATION_ITEM ()
   RATIONAL_B_SPLINE_SURFACE (((5., 5.), (1., 1.), (1., 1.), (1., 1.), (1., 1.), (5., 5.)))
   REPRESENTATION_ITEM ('')
);
#83 = ADVANCED_FACE ('', (#69), #82, .F.);
#84 = CARTESIAN_POINT ('', (-13.7320508075689, 4., -9.79717439317882E-16));
#85 = VERTEX_POINT ('', #84);
#86 = CARTESIAN_POINT ('', (-13.7320508075689, 4., -9.79717439317882E-16));
#87 = CARTESIAN_POINT ('', (-42.4047005383793, 4., -9.79717439317882E-16));
#88 = CARTESIAN_POINT ('', (-71.0773502691896, 4., -9.79717439317881E-16));
#89 = CARTESIAN_POINT ('', (-99.75, 4., -9.79717439317881E-16));
#90 = B_SPLINE_CURVE_WITH_KNOTS ('', 3, (#86, #87, #88, #89), .UNSPECIFIED., .F., .U., (4, 4), (0., 1.), .UNSPECIFIED.);
#91 = EDGE_CURVE ('', #85, #2, #90, .T.);
#92 = ORIENTED_EDGE ('', *, *, #91, .F.);
#93 = CARTESIAN_POINT ('', (-13.7320508075689, 4., -9.79717439317882E-16));
#94 = CARTESIAN_POINT ('', (-13.7320508075689, 4., 16.));
#95 = CARTESIAN_POINT ('', (-13.7320508075689, -12., 8.));
#96 = CARTESIAN_POINT ('', (-13.7320508075689, -12., -8.));
#97 = CARTESIAN_POINT ('', (-13.7320508075689, 4., -16.));
#98 = CARTESIAN_POINT ('', (-13.7320508075689, 4., -9.79717439317882E-16));
#99 = (
   BOUNDED_CURVE ()
   B_SPLINE_CURVE (5, (#93, #94, #95, #96, #97, #98), .UNSPECIFIED., .T., .U.)
   B_SPLINE_CURVE_WITH_KNOTS ((6, 6), (0., 1.), .UNSPECIFIED.)
   CURVE ()
   GEOMETRIC_REPRESENTATION_ITEM ()
   RATIONAL_B_SPLINE_CURVE ((5., 1., 1., 1., 1., 5.))
   REPRESENTATION_ITEM ('')
);
#100 = EDGE_CURVE ('', #85, #85, #99, .T.);
#101 = ORIENTED_EDGE ('', *, *, #100, .T.);
#102 = ORIENTED_EDGE ('', *, *, #91, .T.);
#103 = ORIENTED_EDGE ('', *, *, #19, .F.);
#104 = EDGE_LOOP ('', (#92, #101, #102, #103));
#105 = FACE_OUTER_BOUND ('', #104, .F.);
#106 = CARTESIAN_POINT ('', (-13.7320508075689, 4., -9.79717439317882E-16));
#107 = CARTESIAN_POINT ('', (-42.4047005383793, 4., -9.79717439317882E-16));
#108 = CARTESIAN_POINT ('', (-71.0773502691896, 4., -9.79717439317881E-16));
#109 = CARTESIAN_POINT ('', (-99.75, 4., -9.79717439317881E-16));
#110 = CARTESIAN_POINT ('', (-13.7320508075689, 4., 16.));
#111 = CARTESIAN_POINT ('', (-42.4047005383793, 3.99999999999999, 16.));
#112 = CARTESIAN_POINT ('', (-71.0773502691896, 3.99999999999999, 16.));
#113 = CARTESIAN_POINT ('', (-99.75, 3.99999999999998, 16.));
#114 = CARTESIAN_POINT ('', (-13.7320508075689, -12., 8.));
#115 = CARTESIAN_POINT ('', (-42.4047005383793, -12., 7.99999999999999));
#116 = CARTESIAN_POINT ('', (-71.0773502691896, -12., 7.99999999999998));
#117 = CARTESIAN_POINT ('', (-99.75, -12., 7.99999999999997));
#118 = CARTESIAN_POINT ('', (-13.7320508075689, -12., -8.));
#119 = CARTESIAN_POINT ('', (-42.4047005383793, -12., -8.));
#120 = CARTESIAN_POINT ('', (-71.0773502691896, -12., -8.00000000000001));
#121 = CARTESIAN_POINT ('', (-99.75, -12., -8.00000000000001));
#122 = CARTESIAN_POINT ('', (-13.7320508075689, 4., -16.));
#123 = CARTESIAN_POINT ('', (-42.4047005383793, 4.00000000000001, -16.));
#124 = CARTESIAN_POINT ('', (-71.0773502691896, 4.00000000000001, -16.));
#125 = CARTESIAN_POINT ('', (-99.75, 4.00000000000002, -16.));
#126 = CARTESIAN_POINT ('', (-13.7320508075689, 4., -9.79717439317882E-16));
#127 = CARTESIAN_POINT ('', (-42.4047005383793, 4., -9.79717439317882E-16));
#128 = CARTESIAN_POINT ('', (-71.0773502691896, 4., -9.79717439317881E-16));
#129 = CARTESIAN_POINT ('', (-99.75, 4., -9.79717439317881E-16));
#130 = (
   BOUNDED_SURFACE ()
   B_SPLINE_SURFACE (5, 3, ((#106, #107, #108, #109), (#110, #111, #112, #113), (#114, #115, #116, #117), (#118, #119, #120, #121), (#122, #123, #124, #125), (#126, #127, #128, #129)), .UNSPECIFIED., .T., .F., .U.)
   B_SPLINE_SURFACE_WITH_KNOTS ((6, 6), (4, 4), (0., 1.), (0., 1.), .UNSPECIFIED.)
   SURFACE ()
   GEOMETRIC_REPRESENTATION_ITEM ()
   RATIONAL_B_SPLINE_SURFACE (((5., 5., 5., 5.), (1., 1., 1., 1.), (1., 1., 1., 1.), (1., 1., 1., 1.), (1., 1., 1., 1.), (5., 5., 5., 5.)))
   REPRESENTATION_ITEM ('')
);
#131 = ADVANCED_FACE ('', (#105), #130, .F.);
#132 = CARTESIAN_POINT ('', (-12., 3., -7.34788079488412E-16));
#133 = VERTEX_POINT ('', #132);
#134 = CARTESIAN_POINT ('', (-12., 3., -7.34788079488412E-16));
#135 = CARTESIAN_POINT ('', (-12.5773502691897, 3.33333333333334, -8.16431199431569E-16));
#136 = CARTESIAN_POINT ('', (-13.1547005383793, 3.66666666666667, -8.98074319374725E-16));
#137 = CARTESIAN_POINT ('', (-13.7320508075689, 4., -9.79717439317882E-16));
#138 = B_SPLINE_CURVE_WITH_KNOTS ('', 3, (#134, #135, #136, #137), .UNSPECIFIED., .F., .U., (4, 4), (0., 1.), .UNSPECIFIED.);
#139 = EDGE_CURVE ('', #133, #85, #138, .T.);
#140 = ORIENTED_EDGE ('', *, *, #139, .F.);
#141 = CARTESIAN_POINT ('', (-12., 3., -7.34788079488412E-16));
#142 = CARTESIAN_POINT ('', (-12., 3., 12.));
#143 = CARTESIAN_POINT ('', (-12., -9., 6.));
#144 = CARTESIAN_POINT ('', (-12., -9., -6.));
#145 = CARTESIAN_POINT ('', (-12., 3., -12.));
#146 = CARTESIAN_POINT ('', (-12., 3., -7.34788079488412E-16));
#147 = (
   BOUNDED_CURVE ()
   B_SPLINE_CURVE (5, (#141, #142, #143, #144, #145, #146), .UNSPECIFIED., .T., .U.)
   B_SPLINE_CURVE_WITH_KNOTS ((6, 6), (0., 1.), .UNSPECIFIED.)
   CURVE ()
   GEOMETRIC_REPRESENTATION_ITEM ()
   RATIONAL_B_SPLINE_CURVE ((5., 1., 1., 1., 1., 5.))
   REPRESENTATION_ITEM ('')
);
#148 = EDGE_CURVE ('', #133, #133, #147, .T.);
#149 = ORIENTED_EDGE ('', *, *, #148, .T.);
#150 = ORIENTED_EDGE ('', *, *, #139, .T.);
#151 = ORIENTED_EDGE ('', *, *, #100, .F.);
#152 = EDGE_LOOP ('', (#140, #149, #150, #151));
#153 = FACE_OUTER_BOUND ('', #152, .F.);
#154 = CARTESIAN_POINT ('', (-12., 3., -7.34788079488412E-16));
#155 = CARTESIAN_POINT ('', (-12.5773502691897, 3.33333333333334, -8.16431199431569E-16));
#156 = CARTESIAN_POINT ('', (-13.1547005383793, 3.66666666666667, -8.98074319374725E-16));
#157 = CARTESIAN_POINT ('', (-13.7320508075689, 4., -9.79717439317882E-16));
#158 = CARTESIAN_POINT ('', (-12., 3., 12.));
#159 = CARTESIAN_POINT ('', (-12.5773502691897, 3.33333333333334, 13.3333333333333));
#160 = CARTESIAN_POINT ('', (-13.1547005383793, 3.66666666666667, 14.6666666666667));
#161 = CARTESIAN_POINT ('', (-13.7320508075689, 4., 16.));
#162 = CARTESIAN_POINT ('', (-12., -9., 6.));
#163 = CARTESIAN_POINT ('', (-12.5773502691897, -10., 6.66666666666667));
#164 = CARTESIAN_POINT ('', (-13.1547005383793, -11., 7.33333333333333));
#165 = CARTESIAN_POINT ('', (-13.7320508075689, -12., 8.));
#166 = CARTESIAN_POINT ('', (-12., -9., -6.));
#167 = CARTESIAN_POINT ('', (-12.5773502691897, -10., -6.66666666666667));
#168 = CARTESIAN_POINT ('', (-13.1547005383793, -11., -7.33333333333333));
#169 = CARTESIAN_POINT ('', (-13.7320508075689, -12., -8.));
#170 = CARTESIAN_POINT ('', (-12., 3., -12.));
#171 = CARTESIAN_POINT ('', (-12.5773502691897, 3.33333333333334, -13.3333333333333));
#172 = CARTESIAN_POINT ('', (-13.1547005383793, 3.66666666666667, -14.6666666666667));
#173 = CARTESIAN_POINT ('', (-13.7320508075689, 4., -16.));
#174 = CARTESIAN_POINT ('', (-12., 3., -7.34788079488412E-16));
#175 = CARTESIAN_POINT ('', (-12.5773502691897, 3.33333333333334, -8.16431199431569E-16));
#176 = CARTESIAN_POINT ('', (-13.1547005383793, 3.66666666666667, -8.98074319374725E-16));
#177 = CARTESIAN_POINT ('', (-13.7320508075689, 4., -9.79717439317882E-16));
#178 = (
   BOUNDED_SURFACE ()
   B_SPLINE_SURFACE (5, 3, ((#154, #155, #156, #157), (#158, #159, #160, #161), (#162, #163, #164, #165), (#166, #167, #168, #169), (#170, #171, #172, #173), (#174, #175, #176, #177)), .UNSPECIFIED., .T., .F., .U.)
   B_SPLINE_SURFACE_WITH_KNOTS ((6, 6), (4, 4), (0., 1.), (0., 1.), .UNSPECIFIED.)
   SURFACE ()
   GEOMETRIC_REPRESENTATION_ITEM ()
   RATIONAL_B_SPLINE_SURFACE (((5., 5., 5., 5.), (1., 1., 1., 1.), (1., 1., 1., 1.), (1., 1., 1., 1.), (1., 1., 1., 1.), (5., 5., 5., 5.)))
   REPRESENTATION_ITEM ('')
);
#179 = ADVANCED_FACE ('', (#153), #178, .F.);
#180 = CARTESIAN_POINT ('', (-3., 3., -7.34788079488412E-16));
#181 = VERTEX_POINT ('', #180);
#182 = CARTESIAN_POINT ('', (-3., 3., -7.34788079488412E-16));
#183 = CARTESIAN_POINT ('', (-6., 3., -7.34788079488412E-16));
#184 = CARTESIAN_POINT ('', (-9., 3., -7.34788079488412E-16));
#185 = CARTESIAN_POINT ('', (-12., 3., -7.34788079488412E-16));
#186 = B_SPLINE_CURVE_WITH_KNOTS ('', 3, (#182, #183, #184, #185), .UNSPECIFIED., .F., .U., (4, 4), (0., 1.), .UNSPECIFIED.);
#187 = EDGE_CURVE ('', #181, #133, #186, .T.);
#188 = ORIENTED_EDGE ('', *, *, #187, .F.);
#189 = CARTESIAN_POINT ('', (-3., 3., -7.34788079488412E-16));
#190 = CARTESIAN_POINT ('', (-3., 3., 12.));
#191 = CARTESIAN_POINT ('', (-3., -9., 6.));
#192 = CARTESIAN_POINT ('', (-3., -9., -6.));
#193 = CARTESIAN_POINT ('', (-3., 3., -12.));
#194 = CARTESIAN_POINT ('', (-3., 3., -7.34788079488412E-16));
#195 = (
   BOUNDED_CURVE ()
   B_SPLINE_CURVE (5, (#189, #190, #191, #192, #193, #194), .UNSPECIFIED., .T., .U.)
   B_SPLINE_CURVE_WITH_KNOTS ((6, 6), (0., 1.), .UNSPECIFIED.)
   CURVE ()
   GEOMETRIC_REPRESENTATION_ITEM ()
   RATIONAL_B_SPLINE_CURVE ((5., 1., 1., 1., 1., 5.))
   REPRESENTATION_ITEM ('')
);
#196 = EDGE_CURVE ('', #181, #181, #195, .T.);
#197 = ORIENTED_EDGE ('', *, *, #196, .T.);
#198 = ORIENTED_EDGE ('', *, *, #187, .T.);
#199 = ORIENTED_EDGE ('', *, *, #148, .F.);
#200 = EDGE_LOOP ('', (#188, #197, #198, #199));
#201 = FACE_OUTER_BOUND ('', #200, .F.);
#202 = CARTESIAN_POINT ('', (-3., 3., -7.34788079488412E-16));
#203 = CARTESIAN_POINT ('', (-6., 3., -7.34788079488412E-16));
#204 = CARTESIAN_POINT ('', (-9., 3., -7.34788079488412E-16));
#205 = CARTESIAN_POINT ('', (-12., 3., -7.34788079488412E-16));
#206 = CARTESIAN_POINT ('', (-3., 3., 12.));
#207 = CARTESIAN_POINT ('', (-6., 3., 12.));
#208 = CARTESIAN_POINT ('', (-9., 3., 12.));
#209 = CARTESIAN_POINT ('', (-12., 3., 12.));
#210 = CARTESIAN_POINT ('', (-3., -9., 6.));
#211 = CARTESIAN_POINT ('', (-6., -9., 6.));
#212 = CARTESIAN_POINT ('', (-9., -9., 6.));
#213 = CARTESIAN_POINT ('', (-12., -9., 6.));
#214 = CARTESIAN_POINT ('', (-3., -9., -6.));
#215 = CARTESIAN_POINT ('', (-6., -9., -6.));
#216 = CARTESIAN_POINT ('', (-9., -9., -6.));
#217 = CARTESIAN_POINT ('', (-12., -9., -6.));
#218 = CARTESIAN_POINT ('', (-3., 3., -12.));
#219 = CARTESIAN_POINT ('', (-6., 3., -12.));
#220 = CARTESIAN_POINT ('', (-9., 3., -12.));
#221 = CARTESIAN_POINT ('', (-12., 3., -12.));
#222 = CARTESIAN_POINT ('', (-3., 3., -7.34788079488412E-16));
#223 = CARTESIAN_POINT ('', (-6., 3., -7.34788079488412E-16));
#224 = CARTESIAN_POINT ('', (-9., 3., -7.34788079488412E-16));
#225 = CARTESIAN_POINT ('', (-12., 3., -7.34788079488412E-16));
#226 = (
   BOUNDED_SURFACE ()
   B_SPLINE_SURFACE (5, 3, ((#202, #203, #204, #205), (#206, #207, #208, #209), (#210, #211, #212, #213), (#214, #215, #216, #217), (#218, #219, #220, #221), (#222, #223, #224, #225)), .UNSPECIFIED., .T., .F., .U.)
   B_SPLINE_SURFACE_WITH_KNOTS ((6, 6), (4, 4), (0., 1.), (0., 1.), .UNSPECIFIED.)
   SURFACE ()
   GEOMETRIC_REPRESENTATION_ITEM ()
   RATIONAL_B_SPLINE_SURFACE (((5., 5., 5., 5.), (1., 1., 1., 1.), (1., 1., 1., 1.), (1., 1., 1., 1.), (1., 1., 1., 1.), (5., 5., 5., 5.)))
   REPRESENTATION_ITEM ('')
);
#227 = ADVANCED_FACE ('', (#201), #226, .F.);
#228 = CARTESIAN_POINT ('', (0., 0., 0.));
#229 = VERTEX_POINT ('', #228);
#230 = CARTESIAN_POINT ('', (0., 0., 0.));
#231 = CARTESIAN_POINT ('', (3.08148791101958E-33, 0.32776613333918, -8.02795492125462E-17));
#232 = CARTESIAN_POINT ('', (-0.0875129073392732, 0.855684764045561, -2.09582321473511E-16));
#233 = CARTESIAN_POINT ('', (-0.436645053847223, 1.62116904246166, -3.97071895745491E-16));
#234 = CARTESIAN_POINT ('', (-1.02090020810345, 2.33983709939422, -5.73094802859872E-16));
#235 = CARTESIAN_POINT ('', (-1.93877419916663, 2.87841461887293, -7.05008249924337E-16));
#236 = CARTESIAN_POINT ('', (-2.67223386666082, 3., -7.34788079488411E-16));
#237 = CARTESIAN_POINT ('', (-3., 3., -7.34788079488412E-16));
#238 = B_SPLINE_CURVE_WITH_KNOTS ('', 3, (#230, #231, #232, #233, #234, #235, #236, #237), .UNSPECIFIED., .F., .U., (4, 1, 1, 1, 1, 4), (0., 0.208662401196191, 0.33617370428258, 0.532939663384363, 0.791337598803809, 1.), .UNSPECIFIED.);
#239 = EDGE_CURVE ('', #229, #181, #238, .T.);
#240 = ORIENTED_EDGE ('', *, *, #239, .F.);
#241 = ORIENTED_EDGE ('', *, *, #239, .T.);
#242 = ORIENTED_EDGE ('', *, *, #196, .F.);
#243 = EDGE_LOOP ('', (#240, #241, #242));
#244 = FACE_OUTER_BOUND ('', #243, .F.);
#245 = CARTESIAN_POINT ('', (0., 0., 0.));
#246 = CARTESIAN_POINT ('', (3.08148791101958E-33, 0.32776613333918, -8.02795492125462E-17));
#247 = CARTESIAN_POINT ('', (-0.0875129073392732, 0.855684764045561, -2.09582321473511E-16));
#248 = CARTESIAN_POINT ('', (-0.436645053847223, 1.62116904246166, -3.97071895745491E-16));
#249 = CARTESIAN_POINT ('', (-1.02090020810345, 2.33983709939422, -5.73094802859872E-16));
#250 = CARTESIAN_POINT ('', (-1.93877419916663, 2.87841461887293, -7.05008249924337E-16));
#251 = CARTESIAN_POINT ('', (-2.67223386666082, 3., -7.34788079488411E-16));
#252 = CARTESIAN_POINT ('', (-3., 3., -7.34788079488412E-16));
#253 = CARTESIAN_POINT ('', (0., 0., 0.));
#254 = CARTESIAN_POINT ('', (-8.02795492125462E-17, 0.32776613333918, 1.31106453335672));
#255 = CARTESIAN_POINT ('', (-0.0875129073392734, 0.855684764045562, 3.42273905618225));
#256 = CARTESIAN_POINT ('', (-0.436645053847223, 1.62116904246166, 6.48467616984665));
#257 = CARTESIAN_POINT ('', (-1.02090020810345, 2.33983709939422, 9.35934839757688));
#258 = CARTESIAN_POINT ('', (-1.93877419916663, 2.87841461887293, 11.5136584754917));
#259 = CARTESIAN_POINT ('', (-2.67223386666082, 3., 12.));
#260 = CARTESIAN_POINT ('', (-3., 3., 12.));
#261 = CARTESIAN_POINT ('', (0., 0., 0.));
#262 = CARTESIAN_POINT ('', (-1.20419323818819E-16, -0.98329840001754, 0.65553226667836));
#263 = CARTESIAN_POINT ('', (-0.0875129073392736, -2.56705429213668, 1.71136952809112));
#264 = CARTESIAN_POINT ('', (-0.436645053847223, -4.86350712738499, 3.24233808492333));
#265 = CARTESIAN_POINT ('', (-1.02090020810345, -7.01951129818266, 4.67967419878844));
#266 = CARTESIAN_POINT ('', (-1.93877419916663, -8.6352438566188, 5.75682923774587));
#267 = CARTESIAN_POINT ('', (-2.67223386666082, -8.99999999999999, 6.));
#268 = CARTESIAN_POINT ('', (-3., -9., 6.));
#269 = CARTESIAN_POINT ('', (0., 0., 0.));
#270 = CARTESIAN_POINT ('', (-4.01397746062732E-17, -0.98329840001754, -0.65553226667836));
#271 = CARTESIAN_POINT ('', (-0.0875129073392733, -2.56705429213669, -1.71136952809112));
#272 = CARTESIAN_POINT ('', (-0.436645053847223, -4.86350712738499, -3.24233808492332));
#273 = CARTESIAN_POINT ('', (-1.02090020810345, -7.01951129818266, -4.67967419878844));
#274 = CARTESIAN_POINT ('', (-1.93877419916663, -8.6352438566188, -5.75682923774586));
#275 = CARTESIAN_POINT ('', (-2.67223386666082, -9., -5.99999999999999));
#276 = CARTESIAN_POINT ('', (-3., -9., -6.));
#277 = CARTESIAN_POINT ('', (0., 0., 0.));
#278 = CARTESIAN_POINT ('', (8.02795492125462E-17, 0.32776613333918, -1.31106453335672));
#279 = CARTESIAN_POINT ('', (-0.087512907339273, 0.855684764045561, -3.42273905618225));
#280 = CARTESIAN_POINT ('', (-0.436645053847222, 1.62116904246166, -6.48467616984665));
#281 = CARTESIAN_POINT ('', (-1.02090020810345, 2.33983709939422, -9.35934839757688));
#282 = CARTESIAN_POINT ('', (-1.93877419916663, 2.87841461887293, -11.5136584754917));
#283 = CARTESIAN_POINT ('', (-2.67223386666082, 3., -12.));
#284 = CARTESIAN_POINT ('', (-3., 3., -12.));
#285 = CARTESIAN_POINT ('', (0., 0., 0.));
#286 = CARTESIAN_POINT ('', (3.08148791101958E-33, 0.32776613333918, -8.02795492125462E-17));
#287 = CARTESIAN_POINT ('', (-0.0875129073392732, 0.855684764045561, -2.09582321473511E-16));
#288 = CARTESIAN_POINT ('', (-0.436645053847223, 1.62116904246166, -3.97071895745491E-16));
#289 = CARTESIAN_POINT ('', (-1.02090020810345, 2.33983709939422, -5.73094802859872E-16));
#290 = CARTESIAN_POINT ('', (-1.93877419916663, 2.87841461887293, -7.05008249924337E-16));
#291 = CARTESIAN_POINT ('', (-2.67223386666082, 3., -7.34788079488411E-16));
#292 = CARTESIAN_POINT ('', (-3., 3., -7.34788079488412E-16));
#293 = (
   BOUNDED_SURFACE ()
   B_SPLINE_SURFACE (5, 3, ((#245, #246, #247, #248, #249, #250, #251, #252), (#253, #254, #255, #256, #257, #258, #259, #260), (#261, #262, #263, #264, #265, #266, #267, #268), (#269, #270, #271, #272, #273, #274, #275, #276), (#277, #278, #279, #280, #281, #282, #283, #284), (#285, #286, #287, #288, #289, #290, #291, #292)), .UNSPECIFIED., .T., .F., .U.)
   B_SPLINE_SURFACE_WITH_KNOTS ((6, 6), (4, 1, 1, 1, 1, 4), (0., 1.), (0., 0.208662401196191, 0.33617370428258, 0.532939663384363, 0.791337598803809, 1.), .UNSPECIFIED.)
   SURFACE ()
   GEOMETRIC_REPRESENTATION_ITEM ()
   RATIONAL_B_SPLINE_SURFACE (((5., 5., 5., 5., 5., 5., 5., 5.), (1., 1., 1., 1., 1., 1., 1., 1.), (1., 1., 1., 1., 1., 1., 1., 1.), (1., 1., 1., 1., 1., 1., 1., 1.), (1., 1., 1., 1., 1., 1., 1., 1.), (5., 5., 5., 5., 5., 5., 5., 5.)))
   REPRESENTATION_ITEM ('')
);
#294 = ADVANCED_FACE ('', (#244), #293, .F.);
#295 = CLOSED_SHELL ('', (#58, #83, #131, #179, #227, #294));
#296 = MANIFOLD_SOLID_BREP ('', #295);
#297 = (
   LENGTH_UNIT ()
   NAMED_UNIT (*)
   SI_UNIT (.MILLI., .METRE.)
);
#298 = (
   NAMED_UNIT (*)
   SI_UNIT ($, .STERADIAN.)
   SOLID_ANGLE_UNIT ()
);
#299 = (
   NAMED_UNIT (*)
   SI_UNIT ($, .RADIAN.)
   PLANE_ANGLE_UNIT ()
);
#300 = UNCERTAINTY_MEASURE_WITH_UNIT (LENGTH_MEASURE(0.001), #297, 'DISTANCE_ACCURACY_VALUE', '');
#301 = (
   GEOMETRIC_REPRESENTATION_CONTEXT (3)
   GLOBAL_UNCERTAINTY_ASSIGNED_CONTEXT ((#300))
   GLOBAL_UNIT_ASSIGNED_CONTEXT ((#297, #298, #299))
   REPRESENTATION_CONTEXT ('', '3D')
);
#302 = SHAPE_REPRESENTATION ('', (), #301);
#303 = APPLICATION_CONTEXT ('configuration controlled 3D designs of mechanical parts and assemblies');
#304 = APPLICATION_PROTOCOL_DEFINITION ('International Standard', 'config_control_design', 1997, #303);
#305 = MECHANICAL_CONTEXT ('', #303, 'mechanical');
#306 = PRODUCT ('', '', '', (#305));
#307 = PERSON_AND_ORGANIZATION_ROLE ('design_owner');
#308 = PERSON ('', '', $, $, $, $);
#309 = ORGANIZATION ($, '', '');
#310 = PERSON_AND_ORGANIZATION (#308, #309);
#311 = CC_DESIGN_PERSON_AND_ORGANIZATION_ASSIGNMENT (#310, #307, (#306));
#312 = PRODUCT_RELATED_PRODUCT_CATEGORY ('detail', $, (#306));
#313 = PRODUCT_DEFINITION_FORMATION_WITH_SPECIFIED_SOURCE ('', '', #306, .NOT_KNOWN.);
#314 = APPROVAL_STATUS ('approved');
#315 = APPROVAL (#314, '');
#316 = CALENDAR_DATE (2020, 8, 7);
#317 = COORDINATED_UNIVERSAL_TIME_OFFSET (0, $, .AHEAD.);
#318 = LOCAL_TIME (14, 22, 27., #317);
#319 = DATE_AND_TIME (#316, #318);
#320 = APPROVAL_DATE_TIME (#319, #315);
#321 = APPROVAL_ROLE ('');
#322 = PERSON ('', '', $, $, $, $);
#323 = ORGANIZATION ($, '', '');
#324 = PERSON_AND_ORGANIZATION (#322, #323);
#325 = APPROVAL_PERSON_ORGANIZATION (#324, #315, #321);
#326 = CC_DESIGN_APPROVAL (#315, (#313));
#327 = PERSON_AND_ORGANIZATION_ROLE ('creator');
#328 = PERSON ('', '', $, $, $, $);
#329 = ORGANIZATION ($, '', '');
#330 = PERSON_AND_ORGANIZATION (#328, #329);
#331 = CC_DESIGN_PERSON_AND_ORGANIZATION_ASSIGNMENT (#330, #327, (#313));
#332 = PERSON_AND_ORGANIZATION_ROLE ('part_supplier');
#333 = PERSON ('', '', $, $, $, $);
#334 = ORGANIZATION ($, '', '');
#335 = PERSON_AND_ORGANIZATION (#333, #334);
#336 = CC_DESIGN_PERSON_AND_ORGANIZATION_ASSIGNMENT (#335, #332, (#313));
#337 = SECURITY_CLASSIFICATION_LEVEL ('unclassified');
#338 = SECURITY_CLASSIFICATION ('', '', #337);
#339 = APPROVAL_STATUS ('approved');
#340 = APPROVAL (#339, '');
#341 = CALENDAR_DATE (2020, 8, 7);
#342 = COORDINATED_UNIVERSAL_TIME_OFFSET (0, $, .AHEAD.);
#343 = LOCAL_TIME (14, 22, 27., #342);
#344 = DATE_AND_TIME (#341, #343);
#345 = APPROVAL_DATE_TIME (#344, #340);
#346 = APPROVAL_ROLE ('');
#347 = PERSON ('', '', $, $, $, $);
#348 = ORGANIZATION ($, '', '');
#349 = PERSON_AND_ORGANIZATION (#347, #348);
#350 = APPROVAL_PERSON_ORGANIZATION (#349, #340, #346);
#351 = CC_DESIGN_APPROVAL (#340, (#338));
#352 = DATE_TIME_ROLE ('classification_date');
#353 = CALENDAR_DATE (2020, 8, 7);
#354 = COORDINATED_UNIVERSAL_TIME_OFFSET (0, $, .AHEAD.);
#355 = LOCAL_TIME (14, 22, 27., #354);
#356 = DATE_AND_TIME (#353, #355);
#357 = CC_DESIGN_DATE_AND_TIME_ASSIGNMENT (#356, #352, (#338));
#358 = PERSON_AND_ORGANIZATION_ROLE ('classification_officer');
#359 = PERSON ('', '', $, $, $, $);
#360 = ORGANIZATION ($, '', '');
#361 = PERSON_AND_ORGANIZATION (#359, #360);
#362 = CC_DESIGN_PERSON_AND_ORGANIZATION_ASSIGNMENT (#361, #358, (#338));
#363 = CC_DESIGN_SECURITY_CLASSIFICATION (#338, (#313));
#364 = DESIGN_CONTEXT ('', #303, 'design');
#365 = PRODUCT_DEFINITION ('', '', #313, #364);
#366 = APPROVAL_STATUS ('approved');
#367 = APPROVAL (#366, '');
#368 = CALENDAR_DATE (2020, 8, 7);
#369 = COORDINATED_UNIVERSAL_TIME_OFFSET (0, $, .AHEAD.);
#370 = LOCAL_TIME (14, 22, 27., #369);
#371 = DATE_AND_TIME (#368, #370);
#372 = APPROVAL_DATE_TIME (#371, #367);
#373 = APPROVAL_ROLE ('');
#374 = PERSON ('', '', $, $, $, $);
#375 = ORGANIZATION ($, '', '');
#376 = PERSON_AND_ORGANIZATION (#374, #375);
#377 = APPROVAL_PERSON_ORGANIZATION (#376, #367, #373);
#378 = CC_DESIGN_APPROVAL (#367, (#365));
#379 = DATE_TIME_ROLE ('creation_date');
#380 = CALENDAR_DATE (2020, 8, 7);
#381 = COORDINATED_UNIVERSAL_TIME_OFFSET (0, $, .AHEAD.);
#382 = LOCAL_TIME (14, 22, 27., #381);
#383 = DATE_AND_TIME (#380, #382);
#384 = CC_DESIGN_DATE_AND_TIME_ASSIGNMENT (#383, #379, (#365));
#385 = PERSON_AND_ORGANIZATION_ROLE ('creator');
#386 = PERSON ('', '', $, $, $, $);
#387 = ORGANIZATION ($, '', '');
#388 = PERSON_AND_ORGANIZATION (#386, #387);
#389 = CC_DESIGN_PERSON_AND_ORGANIZATION_ASSIGNMENT (#388, #385, (#365));
#390 = PRODUCT_DEFINITION_SHAPE ('', '', #365);
#391 = SHAPE_DEFINITION_REPRESENTATION (#390, #302);
#392 = SHAPE_REPRESENTATION_RELATIONSHIP ('', '', #302, #393);
#393 = ADVANCED_BREP_SHAPE_REPRESENTATION ('', (#296), #301);
ENDSEC;
END-ISO-10303-21;
