ISO-10303-21;
HEADER;
FILE_DESCRIPTION ((), '1');
FILE_NAME ('C:\\DDrive\\ROB\\Rob\\Documents\\ROB\\Customers & Projects\\M\\MAFE\\TOOL STEP FILES\\MFBN\\MFNB0803.STP', '2020-07-08T14:26:55', ('Unknown'), ('M A Ford'), 'OneCNC-XR8 Mill 3D Expert', 'OneCNC-XR8 Mill 3D Expert', '');
FILE_SCHEMA (('CONFIG_CONTROL_DESIGN'));
ENDSEC;

DATA;
#1 = CARTESIAN_POINT ('', (-99.75, 5., -1.22464679914735E-15));
#2 = VERTEX_POINT ('', #1);
#3 = CARTESIAN_POINT ('', (-100., 4.75, -1.16341445918998E-15));
#4 = VERTEX_POINT ('', #3);
#5 = CARTESIAN_POINT ('', (-99.75, 5., -1.22464679914735E-15));
#6 = CARTESIAN_POINT ('', (-99.8333333333335, 4.91666666666666, -1.20423601916156E-15));
#7 = CARTESIAN_POINT ('', (-99.9166666666668, 4.83333333333333, -1.18382523917577E-15));
#8 = CARTESIAN_POINT ('', (-100., 4.75, -1.16341445918998E-15));
#9 = B_SPLINE_CURVE_WITH_KNOTS ('', 3, (#5, #6, #7, #8), .UNSPECIFIED., .F., .U., (4, 4), (0., 1.), .UNSPECIFIED.);
#10 = EDGE_CURVE ('', #2, #4, #9, .T.);
#11 = ORIENTED_EDGE ('', *, *, #10, .F.);
#12 = CARTESIAN_POINT ('', (-99.75, 5., -1.22464679914735E-15));
#13 = CARTESIAN_POINT ('', (-99.75, 4.99999999999998, 20.));
#14 = CARTESIAN_POINT ('', (-99.75, -15., 9.99999999999997));
#15 = CARTESIAN_POINT ('', (-99.75, -15., -10.));
#16 = CARTESIAN_POINT ('', (-99.75, 5.00000000000002, -20.));
#17 = CARTESIAN_POINT ('', (-99.75, 5., -1.22464679914735E-15));
#18 = (
   BOUNDED_CURVE ()
   B_SPLINE_CURVE (5, (#12, #13, #14, #15, #16, #17), .UNSPECIFIED., .T., .U.)
   B_SPLINE_CURVE_WITH_KNOTS ((6, 6), (0., 1.), .UNSPECIFIED.)
   CURVE ()
   GEOMETRIC_REPRESENTATION_ITEM ()
   RATIONAL_B_SPLINE_CURVE ((5., 1., 1., 1., 1., 5.))
   REPRESENTATION_ITEM ('')
);
#19 = EDGE_CURVE ('', #2, #2, #18, .T.);
#20 = ORIENTED_EDGE ('', *, *, #19, .T.);
#21 = ORIENTED_EDGE ('', *, *, #10, .T.);
#22 = CARTESIAN_POINT ('', (-100., 4.75, -1.16341445918998E-15));
#23 = CARTESIAN_POINT ('', (-100., 4.74999999999998, 19.));
#24 = CARTESIAN_POINT ('', (-100., -14.25, 9.49999999999997));
#25 = CARTESIAN_POINT ('', (-100., -14.25, -9.50000000000001));
#26 = CARTESIAN_POINT ('', (-100., 4.75000000000002, -19.));
#27 = CARTESIAN_POINT ('', (-100., 4.75, -1.16341445918998E-15));
#28 = (
   BOUNDED_CURVE ()
   B_SPLINE_CURVE (5, (#22, #23, #24, #25, #26, #27), .UNSPECIFIED., .T., .U.)
   B_SPLINE_CURVE_WITH_KNOTS ((6, 6), (0., 1.), .UNSPECIFIED.)
   CURVE ()
   GEOMETRIC_REPRESENTATION_ITEM ()
   RATIONAL_B_SPLINE_CURVE ((5., 1., 1., 1., 1., 5.))
   REPRESENTATION_ITEM ('')
);
#29 = EDGE_CURVE ('', #4, #4, #28, .T.);
#30 = ORIENTED_EDGE ('', *, *, #29, .F.);
#31 = EDGE_LOOP ('', (#11, #20, #21, #30));
#32 = FACE_OUTER_BOUND ('', #31, .F.);
#33 = CARTESIAN_POINT ('', (-99.75, 5., -1.22464679914735E-15));
#34 = CARTESIAN_POINT ('', (-99.8333333333335, 4.91666666666666, -1.20423601916156E-15));
#35 = CARTESIAN_POINT ('', (-99.9166666666668, 4.83333333333333, -1.18382523917577E-15));
#36 = CARTESIAN_POINT ('', (-100., 4.75, -1.16341445918998E-15));
#37 = CARTESIAN_POINT ('', (-99.75, 4.99999999999998, 20.));
#38 = CARTESIAN_POINT ('', (-99.8333333333335, 4.91666666666664, 19.6666666666666));
#39 = CARTESIAN_POINT ('', (-99.9166666666668, 4.83333333333331, 19.3333333333333));
#40 = CARTESIAN_POINT ('', (-100., 4.74999999999998, 19.));
#41 = CARTESIAN_POINT ('', (-99.75, -15., 9.99999999999997));
#42 = CARTESIAN_POINT ('', (-99.8333333333335, -14.75, 9.83333333333328));
#43 = CARTESIAN_POINT ('', (-99.9166666666668, -14.5, 9.66666666666663));
#44 = CARTESIAN_POINT ('', (-100., -14.25, 9.49999999999997));
#45 = CARTESIAN_POINT ('', (-99.75, -15., -10.));
#46 = CARTESIAN_POINT ('', (-99.8333333333335, -14.7499999999999, -9.83333333333332));
#47 = CARTESIAN_POINT ('', (-99.9166666666668, -14.5, -9.66666666666666));
#48 = CARTESIAN_POINT ('', (-100., -14.25, -9.50000000000001));
#49 = CARTESIAN_POINT ('', (-99.75, 5.00000000000002, -20.));
#50 = CARTESIAN_POINT ('', (-99.8333333333335, 4.91666666666668, -19.6666666666666));
#51 = CARTESIAN_POINT ('', (-99.9166666666668, 4.83333333333335, -19.3333333333333));
#52 = CARTESIAN_POINT ('', (-100., 4.75000000000002, -19.));
#53 = CARTESIAN_POINT ('', (-99.75, 5., -1.22464679914735E-15));
#54 = CARTESIAN_POINT ('', (-99.8333333333335, 4.91666666666666, -1.20423601916156E-15));
#55 = CARTESIAN_POINT ('', (-99.9166666666668, 4.83333333333333, -1.18382523917577E-15));
#56 = CARTESIAN_POINT ('', (-100., 4.75, -1.16341445918998E-15));
#57 = (
   BOUNDED_SURFACE ()
   B_SPLINE_SURFACE (5, 3, ((#33, #34, #35, #36), (#37, #38, #39, #40), (#41, #42, #43, #44), (#45, #46, #47, #48), (#49, #50, #51, #52), (#53, #54, #55, #56)), .UNSPECIFIED., .T., .F., .U.)
   B_SPLINE_SURFACE_WITH_KNOTS ((6, 6), (4, 4), (0., 1.), (0., 1.), .UNSPECIFIED.)
   SURFACE ()
   GEOMETRIC_REPRESENTATION_ITEM ()
   RATIONAL_B_SPLINE_SURFACE (((5., 5., 5., 5.), (1., 1., 1., 1.), (1., 1., 1., 1.), (1., 1., 1., 1.), (1., 1., 1., 1.), (5., 5., 5., 5.)))
   REPRESENTATION_ITEM ('')
);
#58 = ADVANCED_FACE ('', (#32), #57, .F.);
#59 = CARTESIAN_POINT ('', (-100., 6.12323399573677E-15, -6.12323399573677E-15));
#60 = VERTEX_POINT ('', #59);
#61 = CARTESIAN_POINT ('', (-100., 4.75, -1.16341445918998E-15));
#62 = CARTESIAN_POINT ('', (-100., 6.12323399573677E-15, -6.12323399573677E-15));
#63 = B_SPLINE_CURVE_WITH_KNOTS ('', 1, (#61, #62), .UNSPECIFIED., .F., .U., (2, 2), (0., 1.), .UNSPECIFIED.);
#64 = EDGE_CURVE ('', #4, #60, #63, .T.);
#65 = ORIENTED_EDGE ('', *, *, #64, .F.);
#66 = ORIENTED_EDGE ('', *, *, #29, .T.);
#67 = ORIENTED_EDGE ('', *, *, #64, .T.);
#68 = EDGE_LOOP ('', (#65, #66, #67));
#69 = FACE_OUTER_BOUND ('', #68, .F.);
#70 = CARTESIAN_POINT ('', (-100., 4.75, -1.16341445918998E-15));
#71 = CARTESIAN_POINT ('', (-100., 6.12323399573677E-15, -6.12323399573677E-15));
#72 = CARTESIAN_POINT ('', (-100., 4.74999999999998, 19.));
#73 = CARTESIAN_POINT ('', (-100., 6.12323399573677E-15, -6.12323399573677E-15));
#74 = CARTESIAN_POINT ('', (-100., -14.25, 9.49999999999997));
#75 = CARTESIAN_POINT ('', (-100., 6.12323399573677E-15, -6.12323399573677E-15));
#76 = CARTESIAN_POINT ('', (-100., -14.25, -9.50000000000001));
#77 = CARTESIAN_POINT ('', (-100., 6.12323399573677E-15, -6.12323399573677E-15));
#78 = CARTESIAN_POINT ('', (-100., 4.75000000000002, -19.));
#79 = CARTESIAN_POINT ('', (-100., 6.12323399573677E-15, -6.12323399573677E-15));
#80 = CARTESIAN_POINT ('', (-100., 4.75, -1.16341445918998E-15));
#81 = CARTESIAN_POINT ('', (-100., 6.12323399573677E-15, -6.12323399573677E-15));
#82 = (
   BOUNDED_SURFACE ()
   B_SPLINE_SURFACE (5, 1, ((#70, #71), (#72, #73), (#74, #75), (#76, #77), (#78, #79), (#80, #81)), .UNSPECIFIED., .T., .F., .U.)
   B_SPLINE_SURFACE_WITH_KNOTS ((6, 6), (2, 2), (0., 1.), (0., 1.), .UNSPECIFIED.)
   SURFACE ()
   GEOMETRIC_REPRESENTATION_ITEM ()
   RATIONAL_B_SPLINE_SURFACE (((5., 5.), (1., 1.), (1., 1.), (1., 1.), (1., 1.), (5., 5.)))
   REPRESENTATION_ITEM ('')
);
#83 = ADVANCED_FACE ('', (#69), #82, .F.);
#84 = CARTESIAN_POINT ('', (-17.7320508075689, 5., -1.22464679914735E-15));
#85 = VERTEX_POINT ('', #84);
#86 = CARTESIAN_POINT ('', (-17.7320508075689, 5., -1.22464679914735E-15));
#87 = CARTESIAN_POINT ('', (-45.071367205046, 5., -1.22464679914735E-15));
#88 = CARTESIAN_POINT ('', (-72.4106836025231, 5., -1.22464679914735E-15));
#89 = CARTESIAN_POINT ('', (-99.75, 5., -1.22464679914735E-15));
#90 = B_SPLINE_CURVE_WITH_KNOTS ('', 3, (#86, #87, #88, #89), .UNSPECIFIED., .F., .U., (4, 4), (0., 1.), .UNSPECIFIED.);
#91 = EDGE_CURVE ('', #85, #2, #90, .T.);
#92 = ORIENTED_EDGE ('', *, *, #91, .F.);
#93 = CARTESIAN_POINT ('', (-17.7320508075689, 5., -1.22464679914735E-15));
#94 = CARTESIAN_POINT ('', (-17.7320508075689, 5., 20.));
#95 = CARTESIAN_POINT ('', (-17.7320508075689, -15., 10.));
#96 = CARTESIAN_POINT ('', (-17.7320508075689, -15., -10.));
#97 = CARTESIAN_POINT ('', (-17.7320508075689, 5., -20.));
#98 = CARTESIAN_POINT ('', (-17.7320508075689, 5., -1.22464679914735E-15));
#99 = (
   BOUNDED_CURVE ()
   B_SPLINE_CURVE (5, (#93, #94, #95, #96, #97, #98), .UNSPECIFIED., .T., .U.)
   B_SPLINE_CURVE_WITH_KNOTS ((6, 6), (0., 1.), .UNSPECIFIED.)
   CURVE ()
   GEOMETRIC_REPRESENTATION_ITEM ()
   RATIONAL_B_SPLINE_CURVE ((5., 1., 1., 1., 1., 5.))
   REPRESENTATION_ITEM ('')
);
#100 = EDGE_CURVE ('', #85, #85, #99, .T.);
#101 = ORIENTED_EDGE ('', *, *, #100, .T.);
#102 = ORIENTED_EDGE ('', *, *, #91, .T.);
#103 = ORIENTED_EDGE ('', *, *, #19, .F.);
#104 = EDGE_LOOP ('', (#92, #101, #102, #103));
#105 = FACE_OUTER_BOUND ('', #104, .F.);
#106 = CARTESIAN_POINT ('', (-17.7320508075689, 5., -1.22464679914735E-15));
#107 = CARTESIAN_POINT ('', (-45.071367205046, 5., -1.22464679914735E-15));
#108 = CARTESIAN_POINT ('', (-72.4106836025231, 5., -1.22464679914735E-15));
#109 = CARTESIAN_POINT ('', (-99.75, 5., -1.22464679914735E-15));
#110 = CARTESIAN_POINT ('', (-17.7320508075689, 5., 20.));
#111 = CARTESIAN_POINT ('', (-45.071367205046, 5., 20.));
#112 = CARTESIAN_POINT ('', (-72.4106836025231, 4.99999999999999, 20.));
#113 = CARTESIAN_POINT ('', (-99.75, 4.99999999999998, 20.));
#114 = CARTESIAN_POINT ('', (-17.7320508075689, -15., 10.));
#115 = CARTESIAN_POINT ('', (-45.071367205046, -15., 9.99999999999999));
#116 = CARTESIAN_POINT ('', (-72.4106836025231, -15., 9.99999999999998));
#117 = CARTESIAN_POINT ('', (-99.75, -15., 9.99999999999997));
#118 = CARTESIAN_POINT ('', (-17.7320508075689, -15., -10.));
#119 = CARTESIAN_POINT ('', (-45.071367205046, -15., -10.));
#120 = CARTESIAN_POINT ('', (-72.4106836025231, -15., -10.));
#121 = CARTESIAN_POINT ('', (-99.75, -15., -10.));
#122 = CARTESIAN_POINT ('', (-17.7320508075689, 5., -20.));
#123 = CARTESIAN_POINT ('', (-45.071367205046, 5.00000000000001, -20.));
#124 = CARTESIAN_POINT ('', (-72.4106836025231, 5.00000000000001, -20.));
#125 = CARTESIAN_POINT ('', (-99.75, 5.00000000000002, -20.));
#126 = CARTESIAN_POINT ('', (-17.7320508075689, 5., -1.22464679914735E-15));
#127 = CARTESIAN_POINT ('', (-45.071367205046, 5., -1.22464679914735E-15));
#128 = CARTESIAN_POINT ('', (-72.4106836025231, 5., -1.22464679914735E-15));
#129 = CARTESIAN_POINT ('', (-99.75, 5., -1.22464679914735E-15));
#130 = (
   BOUNDED_SURFACE ()
   B_SPLINE_SURFACE (5, 3, ((#106, #107, #108, #109), (#110, #111, #112, #113), (#114, #115, #116, #117), (#118, #119, #120, #121), (#122, #123, #124, #125), (#126, #127, #128, #129)), .UNSPECIFIED., .T., .F., .U.)
   B_SPLINE_SURFACE_WITH_KNOTS ((6, 6), (4, 4), (0., 1.), (0., 1.), .UNSPECIFIED.)
   SURFACE ()
   GEOMETRIC_REPRESENTATION_ITEM ()
   RATIONAL_B_SPLINE_SURFACE (((5., 5., 5., 5.), (1., 1., 1., 1.), (1., 1., 1., 1.), (1., 1., 1., 1.), (1., 1., 1., 1.), (5., 5., 5., 5.)))
   REPRESENTATION_ITEM ('')
);
#131 = ADVANCED_FACE ('', (#105), #130, .F.);
#132 = CARTESIAN_POINT ('', (-16., 4., -9.79717439317882E-16));
#133 = VERTEX_POINT ('', #132);
#134 = CARTESIAN_POINT ('', (-16., 4., -9.79717439317882E-16));
#135 = CARTESIAN_POINT ('', (-16.5773502691897, 4.33333333333335, -1.06136055926104E-15));
#136 = CARTESIAN_POINT ('', (-17.1547005383792, 4.66666666666666, -1.14300367920419E-15));
#137 = CARTESIAN_POINT ('', (-17.7320508075689, 5., -1.22464679914735E-15));
#138 = B_SPLINE_CURVE_WITH_KNOTS ('', 3, (#134, #135, #136, #137), .UNSPECIFIED., .F., .U., (4, 4), (0., 1.), .UNSPECIFIED.);
#139 = EDGE_CURVE ('', #133, #85, #138, .T.);
#140 = ORIENTED_EDGE ('', *, *, #139, .F.);
#141 = CARTESIAN_POINT ('', (-16., 4., -9.79717439317882E-16));
#142 = CARTESIAN_POINT ('', (-16., 4., 16.));
#143 = CARTESIAN_POINT ('', (-16., -12., 8.));
#144 = CARTESIAN_POINT ('', (-16., -12., -8.));
#145 = CARTESIAN_POINT ('', (-16., 4., -16.));
#146 = CARTESIAN_POINT ('', (-16., 4., -9.79717439317882E-16));
#147 = (
   BOUNDED_CURVE ()
   B_SPLINE_CURVE (5, (#141, #142, #143, #144, #145, #146), .UNSPECIFIED., .T., .U.)
   B_SPLINE_CURVE_WITH_KNOTS ((6, 6), (0., 1.), .UNSPECIFIED.)
   CURVE ()
   GEOMETRIC_REPRESENTATION_ITEM ()
   RATIONAL_B_SPLINE_CURVE ((5., 1., 1., 1., 1., 5.))
   REPRESENTATION_ITEM ('')
);
#148 = EDGE_CURVE ('', #133, #133, #147, .T.);
#149 = ORIENTED_EDGE ('', *, *, #148, .T.);
#150 = ORIENTED_EDGE ('', *, *, #139, .T.);
#151 = ORIENTED_EDGE ('', *, *, #100, .F.);
#152 = EDGE_LOOP ('', (#140, #149, #150, #151));
#153 = FACE_OUTER_BOUND ('', #152, .F.);
#154 = CARTESIAN_POINT ('', (-16., 4., -9.79717439317882E-16));
#155 = CARTESIAN_POINT ('', (-16.5773502691897, 4.33333333333335, -1.06136055926104E-15));
#156 = CARTESIAN_POINT ('', (-17.1547005383792, 4.66666666666666, -1.14300367920419E-15));
#157 = CARTESIAN_POINT ('', (-17.7320508075689, 5., -1.22464679914735E-15));
#158 = CARTESIAN_POINT ('', (-16., 4., 16.));
#159 = CARTESIAN_POINT ('', (-16.5773502691897, 4.33333333333335, 17.3333333333334));
#160 = CARTESIAN_POINT ('', (-17.1547005383792, 4.66666666666666, 18.6666666666666));
#161 = CARTESIAN_POINT ('', (-17.7320508075689, 5., 20.));
#162 = CARTESIAN_POINT ('', (-16., -12., 8.));
#163 = CARTESIAN_POINT ('', (-16.5773502691897, -13., 8.66666666666669));
#164 = CARTESIAN_POINT ('', (-17.1547005383792, -14., 9.33333333333331));
#165 = CARTESIAN_POINT ('', (-17.7320508075689, -15., 10.));
#166 = CARTESIAN_POINT ('', (-16., -12., -8.));
#167 = CARTESIAN_POINT ('', (-16.5773502691897, -13., -8.66666666666669));
#168 = CARTESIAN_POINT ('', (-17.1547005383792, -14., -9.33333333333331));
#169 = CARTESIAN_POINT ('', (-17.7320508075689, -15., -10.));
#170 = CARTESIAN_POINT ('', (-16., 4., -16.));
#171 = CARTESIAN_POINT ('', (-16.5773502691897, 4.33333333333335, -17.3333333333334));
#172 = CARTESIAN_POINT ('', (-17.1547005383792, 4.66666666666666, -18.6666666666666));
#173 = CARTESIAN_POINT ('', (-17.7320508075689, 5., -20.));
#174 = CARTESIAN_POINT ('', (-16., 4., -9.79717439317882E-16));
#175 = CARTESIAN_POINT ('', (-16.5773502691897, 4.33333333333335, -1.06136055926104E-15));
#176 = CARTESIAN_POINT ('', (-17.1547005383792, 4.66666666666666, -1.14300367920419E-15));
#177 = CARTESIAN_POINT ('', (-17.7320508075689, 5., -1.22464679914735E-15));
#178 = (
   BOUNDED_SURFACE ()
   B_SPLINE_SURFACE (5, 3, ((#154, #155, #156, #157), (#158, #159, #160, #161), (#162, #163, #164, #165), (#166, #167, #168, #169), (#170, #171, #172, #173), (#174, #175, #176, #177)), .UNSPECIFIED., .T., .F., .U.)
   B_SPLINE_SURFACE_WITH_KNOTS ((6, 6), (4, 4), (0., 1.), (0., 1.), .UNSPECIFIED.)
   SURFACE ()
   GEOMETRIC_REPRESENTATION_ITEM ()
   RATIONAL_B_SPLINE_SURFACE (((5., 5., 5., 5.), (1., 1., 1., 1.), (1., 1., 1., 1.), (1., 1., 1., 1.), (1., 1., 1., 1.), (5., 5., 5., 5.)))
   REPRESENTATION_ITEM ('')
);
#179 = ADVANCED_FACE ('', (#153), #178, .F.);
#180 = CARTESIAN_POINT ('', (-4., 4., -9.79717439317883E-16));
#181 = VERTEX_POINT ('', #180);
#182 = CARTESIAN_POINT ('', (-4., 4., -9.79717439317882E-16));
#183 = CARTESIAN_POINT ('', (-8., 4., -9.79717439317882E-16));
#184 = CARTESIAN_POINT ('', (-12., 4., -9.79717439317882E-16));
#185 = CARTESIAN_POINT ('', (-16., 4., -9.79717439317882E-16));
#186 = B_SPLINE_CURVE_WITH_KNOTS ('', 3, (#182, #183, #184, #185), .UNSPECIFIED., .F., .U., (4, 4), (0., 1.), .UNSPECIFIED.);
#187 = EDGE_CURVE ('', #181, #133, #186, .T.);
#188 = ORIENTED_EDGE ('', *, *, #187, .F.);
#189 = CARTESIAN_POINT ('', (-4., 4., -9.79717439317883E-16));
#190 = CARTESIAN_POINT ('', (-4., 4., 16.));
#191 = CARTESIAN_POINT ('', (-4., -12., 8.));
#192 = CARTESIAN_POINT ('', (-4., -12., -8.));
#193 = CARTESIAN_POINT ('', (-4., 4., -16.));
#194 = CARTESIAN_POINT ('', (-4., 4., -9.79717439317883E-16));
#195 = (
   BOUNDED_CURVE ()
   B_SPLINE_CURVE (5, (#189, #190, #191, #192, #193, #194), .UNSPECIFIED., .T., .U.)
   B_SPLINE_CURVE_WITH_KNOTS ((6, 6), (0., 1.), .UNSPECIFIED.)
   CURVE ()
   GEOMETRIC_REPRESENTATION_ITEM ()
   RATIONAL_B_SPLINE_CURVE ((5., 1., 1., 1., 1., 5.))
   REPRESENTATION_ITEM ('')
);
#196 = EDGE_CURVE ('', #181, #181, #195, .T.);
#197 = ORIENTED_EDGE ('', *, *, #196, .T.);
#198 = ORIENTED_EDGE ('', *, *, #187, .T.);
#199 = ORIENTED_EDGE ('', *, *, #148, .F.);
#200 = EDGE_LOOP ('', (#188, #197, #198, #199));
#201 = FACE_OUTER_BOUND ('', #200, .F.);
#202 = CARTESIAN_POINT ('', (-4., 4., -9.79717439317882E-16));
#203 = CARTESIAN_POINT ('', (-8., 4., -9.79717439317882E-16));
#204 = CARTESIAN_POINT ('', (-12., 4., -9.79717439317882E-16));
#205 = CARTESIAN_POINT ('', (-16., 4., -9.79717439317882E-16));
#206 = CARTESIAN_POINT ('', (-4., 4., 16.));
#207 = CARTESIAN_POINT ('', (-8., 4., 16.));
#208 = CARTESIAN_POINT ('', (-12., 4., 16.));
#209 = CARTESIAN_POINT ('', (-16., 4., 16.));
#210 = CARTESIAN_POINT ('', (-4., -12., 8.));
#211 = CARTESIAN_POINT ('', (-8., -12., 8.));
#212 = CARTESIAN_POINT ('', (-12., -12., 8.));
#213 = CARTESIAN_POINT ('', (-16., -12., 8.));
#214 = CARTESIAN_POINT ('', (-4., -12., -8.));
#215 = CARTESIAN_POINT ('', (-8., -12., -8.));
#216 = CARTESIAN_POINT ('', (-12., -12., -8.));
#217 = CARTESIAN_POINT ('', (-16., -12., -8.));
#218 = CARTESIAN_POINT ('', (-4., 4., -16.));
#219 = CARTESIAN_POINT ('', (-8., 4., -16.));
#220 = CARTESIAN_POINT ('', (-12., 4., -16.));
#221 = CARTESIAN_POINT ('', (-16., 4., -16.));
#222 = CARTESIAN_POINT ('', (-4., 4., -9.79717439317882E-16));
#223 = CARTESIAN_POINT ('', (-8., 4., -9.79717439317882E-16));
#224 = CARTESIAN_POINT ('', (-12., 4., -9.79717439317882E-16));
#225 = CARTESIAN_POINT ('', (-16., 4., -9.79717439317882E-16));
#226 = (
   BOUNDED_SURFACE ()
   B_SPLINE_SURFACE (5, 3, ((#202, #203, #204, #205), (#206, #207, #208, #209), (#210, #211, #212, #213), (#214, #215, #216, #217), (#218, #219, #220, #221), (#222, #223, #224, #225)), .UNSPECIFIED., .T., .F., .U.)
   B_SPLINE_SURFACE_WITH_KNOTS ((6, 6), (4, 4), (0., 1.), (0., 1.), .UNSPECIFIED.)
   SURFACE ()
   GEOMETRIC_REPRESENTATION_ITEM ()
   RATIONAL_B_SPLINE_SURFACE (((5., 5., 5., 5.), (1., 1., 1., 1.), (1., 1., 1., 1.), (1., 1., 1., 1.), (1., 1., 1., 1.), (5., 5., 5., 5.)))
   REPRESENTATION_ITEM ('')
);
#227 = ADVANCED_FACE ('', (#201), #226, .F.);
#228 = CARTESIAN_POINT ('', (0., 0., 0.));
#229 = VERTEX_POINT ('', #228);
#230 = CARTESIAN_POINT ('', (0., 0., 0.));
#231 = CARTESIAN_POINT ('', (0., 0.437021511118906, -1.07039398950062E-16));
#232 = CARTESIAN_POINT ('', (-0.116683876452365, 1.14091301872742, -2.79443095298016E-16));
#233 = CARTESIAN_POINT ('', (-0.582193405129629, 2.16155872328221, -5.2942919432732E-16));
#234 = CARTESIAN_POINT ('', (-1.19072420123981, 2.91008724141033, -7.12765805086543E-16));
#235 = CARTESIAN_POINT ('', (-1.96460837687031, 3.47535054676717, -8.51215384602683E-16));
#236 = CARTESIAN_POINT ('', (-2.85908698127257, 3.88331612354763, -9.51138132155983E-16));
#237 = CARTESIAN_POINT ('', (-3.5629784888811, 4., -9.79717439317883E-16));
#238 = CARTESIAN_POINT ('', (-4., 4., -9.79717439317883E-16));
#239 = B_SPLINE_CURVE_WITH_KNOTS ('', 3, (#230, #231, #232, #233, #234, #235, #236, #237, #238), .UNSPECIFIED., .F., .U., (4, 1, 1, 1, 1, 1, 4), (0., 0.208662401196191, 0.33617370428258, 0.532939663384363, 0.66382629571742, 0.791337598803809, 1.), .UNSPECIFIED.);
#240 = EDGE_CURVE ('', #229, #181, #239, .T.);
#241 = ORIENTED_EDGE ('', *, *, #240, .F.);
#242 = ORIENTED_EDGE ('', *, *, #240, .T.);
#243 = ORIENTED_EDGE ('', *, *, #196, .F.);
#244 = EDGE_LOOP ('', (#241, #242, #243));
#245 = FACE_OUTER_BOUND ('', #244, .F.);
#246 = CARTESIAN_POINT ('', (0., 0., 0.));
#247 = CARTESIAN_POINT ('', (0., 0.437021511118906, -1.07039398950062E-16));
#248 = CARTESIAN_POINT ('', (-0.116683876452365, 1.14091301872742, -2.79443095298016E-16));
#249 = CARTESIAN_POINT ('', (-0.582193405129629, 2.16155872328221, -5.2942919432732E-16));
#250 = CARTESIAN_POINT ('', (-1.19072420123981, 2.91008724141033, -7.12765805086543E-16));
#251 = CARTESIAN_POINT ('', (-1.96460837687031, 3.47535054676717, -8.51215384602683E-16));
#252 = CARTESIAN_POINT ('', (-2.85908698127257, 3.88331612354763, -9.51138132155983E-16));
#253 = CARTESIAN_POINT ('', (-3.5629784888811, 4., -9.79717439317883E-16));
#254 = CARTESIAN_POINT ('', (-4., 4., -9.79717439317883E-16));
#255 = CARTESIAN_POINT ('', (0., 0., 0.));
#256 = CARTESIAN_POINT ('', (-1.07039398950062E-16, 0.437021511118907, 1.74808604447563));
#257 = CARTESIAN_POINT ('', (-0.116683876452365, 1.14091301872742, 4.56365207490968));
#258 = CARTESIAN_POINT ('', (-0.582193405129629, 2.16155872328221, 8.64623489312884));
#259 = CARTESIAN_POINT ('', (-1.19072420123981, 2.91008724141033, 11.6403489656413));
#260 = CARTESIAN_POINT ('', (-1.96460837687031, 3.47535054676717, 13.9014021870687));
#261 = CARTESIAN_POINT ('', (-2.85908698127257, 3.88331612354763, 15.5332644941905));
#262 = CARTESIAN_POINT ('', (-3.5629784888811, 4., 16.));
#263 = CARTESIAN_POINT ('', (-4., 4., 16.));
#264 = CARTESIAN_POINT ('', (0., 0., 0.));
#265 = CARTESIAN_POINT ('', (-1.60559098425092E-16, -1.31106453335672, 0.874043022237813));
#266 = CARTESIAN_POINT ('', (-0.116683876452366, -3.42273905618226, 2.28182603745484));
#267 = CARTESIAN_POINT ('', (-0.58219340512963, -6.48467616984663, 4.32311744656442));
#268 = CARTESIAN_POINT ('', (-1.19072420123981, -8.73026172423099, 5.82017448282067));
#269 = CARTESIAN_POINT ('', (-1.96460837687031, -10.4260516403015, 6.95070109353433));
#270 = CARTESIAN_POINT ('', (-2.85908698127257, -11.6499483706429, 7.76663224709526));
#271 = CARTESIAN_POINT ('', (-3.5629784888811, -12., 8.));
#272 = CARTESIAN_POINT ('', (-4., -12., 8.));
#273 = CARTESIAN_POINT ('', (0., 0., 0.));
#274 = CARTESIAN_POINT ('', (-5.35196994750308E-17, -1.31106453335672, -0.874043022237812));
#275 = CARTESIAN_POINT ('', (-0.116683876452365, -3.42273905618226, -2.28182603745484));
#276 = CARTESIAN_POINT ('', (-0.582193405129629, -6.48467616984663, -4.32311744656442));
#277 = CARTESIAN_POINT ('', (-1.19072420123981, -8.730261724231, -5.82017448282066));
#278 = CARTESIAN_POINT ('', (-1.96460837687031, -10.4260516403015, -6.95070109353433));
#279 = CARTESIAN_POINT ('', (-2.85908698127257, -11.6499483706429, -7.76663224709526));
#280 = CARTESIAN_POINT ('', (-3.5629784888811, -12., -8.));
#281 = CARTESIAN_POINT ('', (-4., -12., -8.));
#282 = CARTESIAN_POINT ('', (0., 0., 0.));
#283 = CARTESIAN_POINT ('', (1.07039398950062E-16, 0.437021511118906, -1.74808604447563));
#284 = CARTESIAN_POINT ('', (-0.116683876452365, 1.14091301872742, -4.56365207490968));
#285 = CARTESIAN_POINT ('', (-0.582193405129628, 2.16155872328221, -8.64623489312884));
#286 = CARTESIAN_POINT ('', (-1.19072420123981, 2.91008724141033, -11.6403489656413));
#287 = CARTESIAN_POINT ('', (-1.96460837687031, 3.47535054676716, -13.9014021870687));
#288 = CARTESIAN_POINT ('', (-2.85908698127257, 3.88331612354763, -15.5332644941905));
#289 = CARTESIAN_POINT ('', (-3.56297848888109, 4., -16.));
#290 = CARTESIAN_POINT ('', (-4., 4., -16.));
#291 = CARTESIAN_POINT ('', (0., 0., 0.));
#292 = CARTESIAN_POINT ('', (0., 0.437021511118906, -1.07039398950062E-16));
#293 = CARTESIAN_POINT ('', (-0.116683876452365, 1.14091301872742, -2.79443095298016E-16));
#294 = CARTESIAN_POINT ('', (-0.582193405129629, 2.16155872328221, -5.2942919432732E-16));
#295 = CARTESIAN_POINT ('', (-1.19072420123981, 2.91008724141033, -7.12765805086543E-16));
#296 = CARTESIAN_POINT ('', (-1.96460837687031, 3.47535054676717, -8.51215384602683E-16));
#297 = CARTESIAN_POINT ('', (-2.85908698127257, 3.88331612354763, -9.51138132155983E-16));
#298 = CARTESIAN_POINT ('', (-3.5629784888811, 4., -9.79717439317883E-16));
#299 = CARTESIAN_POINT ('', (-4., 4., -9.79717439317883E-16));
#300 = (
   BOUNDED_SURFACE ()
   B_SPLINE_SURFACE (5, 3, ((#246, #247, #248, #249, #250, #251, #252, #253, #254), (#255, #256, #257, #258, #259, #260, #261, #262, #263), (#264, #265, #266, #267, #268, #269, #270, #271, #272), (#273, #274, #275, #276, #277, #278, #279, #280, #281), (#282, #283, #284, #285, #286, #287, #288, #289, #290), (#291, #292, #293, #294, #295, #296, #297, #298, #299)), .UNSPECIFIED., .T., .F., .U.)
   B_SPLINE_SURFACE_WITH_KNOTS ((6, 6), (4, 1, 1, 1, 1, 1, 4), (0., 1.), (0., 0.208662401196191, 0.33617370428258, 0.532939663384363, 0.66382629571742, 0.791337598803809, 1.), .UNSPECIFIED.)
   SURFACE ()
   GEOMETRIC_REPRESENTATION_ITEM ()
   RATIONAL_B_SPLINE_SURFACE (((5., 5., 5., 5., 5., 5., 5., 5., 5.), (1., 1., 1., 1., 1., 1., 1., 1., 1.), (1., 1., 1., 1., 1., 1., 1., 1., 1.), (1., 1., 1., 1., 1., 1., 1., 1., 1.), (1., 1., 1., 1., 1., 1., 1., 1., 1.), (5., 5., 5., 5., 5., 5., 5., 5., 5.)))
   REPRESENTATION_ITEM ('')
);
#301 = ADVANCED_FACE ('', (#245), #300, .F.);
#302 = CLOSED_SHELL ('', (#58, #83, #131, #179, #227, #301));
#303 = MANIFOLD_SOLID_BREP ('', #302);
#304 = (
   LENGTH_UNIT ()
   NAMED_UNIT (*)
   SI_UNIT (.MILLI., .METRE.)
);
#305 = (
   NAMED_UNIT (*)
   SI_UNIT ($, .STERADIAN.)
   SOLID_ANGLE_UNIT ()
);
#306 = (
   NAMED_UNIT (*)
   SI_UNIT ($, .RADIAN.)
   PLANE_ANGLE_UNIT ()
);
#307 = UNCERTAINTY_MEASURE_WITH_UNIT (LENGTH_MEASURE(0.001), #304, 'DISTANCE_ACCURACY_VALUE', '');
#308 = (
   GEOMETRIC_REPRESENTATION_CONTEXT (3)
   GLOBAL_UNCERTAINTY_ASSIGNED_CONTEXT ((#307))
   GLOBAL_UNIT_ASSIGNED_CONTEXT ((#304, #305, #306))
   REPRESENTATION_CONTEXT ('', '3D')
);
#309 = SHAPE_REPRESENTATION ('', (), #308);
#310 = APPLICATION_CONTEXT ('configuration controlled 3D designs of mechanical parts and assemblies');
#311 = APPLICATION_PROTOCOL_DEFINITION ('International Standard', 'config_control_design', 1997, #310);
#312 = MECHANICAL_CONTEXT ('', #310, 'mechanical');
#313 = PRODUCT ('', '', '', (#312));
#314 = PERSON_AND_ORGANIZATION_ROLE ('design_owner');
#315 = PERSON ('', '', $, $, $, $);
#316 = ORGANIZATION ($, '', '');
#317 = PERSON_AND_ORGANIZATION (#315, #316);
#318 = CC_DESIGN_PERSON_AND_ORGANIZATION_ASSIGNMENT (#317, #314, (#313));
#319 = PRODUCT_RELATED_PRODUCT_CATEGORY ('detail', $, (#313));
#320 = PRODUCT_DEFINITION_FORMATION_WITH_SPECIFIED_SOURCE ('', '', #313, .NOT_KNOWN.);
#321 = APPROVAL_STATUS ('approved');
#322 = APPROVAL (#321, '');
#323 = CALENDAR_DATE (2020, 8, 7);
#324 = COORDINATED_UNIVERSAL_TIME_OFFSET (0, $, .AHEAD.);
#325 = LOCAL_TIME (14, 26, 55., #324);
#326 = DATE_AND_TIME (#323, #325);
#327 = APPROVAL_DATE_TIME (#326, #322);
#328 = APPROVAL_ROLE ('');
#329 = PERSON ('', '', $, $, $, $);
#330 = ORGANIZATION ($, '', '');
#331 = PERSON_AND_ORGANIZATION (#329, #330);
#332 = APPROVAL_PERSON_ORGANIZATION (#331, #322, #328);
#333 = CC_DESIGN_APPROVAL (#322, (#320));
#334 = PERSON_AND_ORGANIZATION_ROLE ('creator');
#335 = PERSON ('', '', $, $, $, $);
#336 = ORGANIZATION ($, '', '');
#337 = PERSON_AND_ORGANIZATION (#335, #336);
#338 = CC_DESIGN_PERSON_AND_ORGANIZATION_ASSIGNMENT (#337, #334, (#320));
#339 = PERSON_AND_ORGANIZATION_ROLE ('part_supplier');
#340 = PERSON ('', '', $, $, $, $);
#341 = ORGANIZATION ($, '', '');
#342 = PERSON_AND_ORGANIZATION (#340, #341);
#343 = CC_DESIGN_PERSON_AND_ORGANIZATION_ASSIGNMENT (#342, #339, (#320));
#344 = SECURITY_CLASSIFICATION_LEVEL ('unclassified');
#345 = SECURITY_CLASSIFICATION ('', '', #344);
#346 = APPROVAL_STATUS ('approved');
#347 = APPROVAL (#346, '');
#348 = CALENDAR_DATE (2020, 8, 7);
#349 = COORDINATED_UNIVERSAL_TIME_OFFSET (0, $, .AHEAD.);
#350 = LOCAL_TIME (14, 26, 55., #349);
#351 = DATE_AND_TIME (#348, #350);
#352 = APPROVAL_DATE_TIME (#351, #347);
#353 = APPROVAL_ROLE ('');
#354 = PERSON ('', '', $, $, $, $);
#355 = ORGANIZATION ($, '', '');
#356 = PERSON_AND_ORGANIZATION (#354, #355);
#357 = APPROVAL_PERSON_ORGANIZATION (#356, #347, #353);
#358 = CC_DESIGN_APPROVAL (#347, (#345));
#359 = DATE_TIME_ROLE ('classification_date');
#360 = CALENDAR_DATE (2020, 8, 7);
#361 = COORDINATED_UNIVERSAL_TIME_OFFSET (0, $, .AHEAD.);
#362 = LOCAL_TIME (14, 26, 55., #361);
#363 = DATE_AND_TIME (#360, #362);
#364 = CC_DESIGN_DATE_AND_TIME_ASSIGNMENT (#363, #359, (#345));
#365 = PERSON_AND_ORGANIZATION_ROLE ('classification_officer');
#366 = PERSON ('', '', $, $, $, $);
#367 = ORGANIZATION ($, '', '');
#368 = PERSON_AND_ORGANIZATION (#366, #367);
#369 = CC_DESIGN_PERSON_AND_ORGANIZATION_ASSIGNMENT (#368, #365, (#345));
#370 = CC_DESIGN_SECURITY_CLASSIFICATION (#345, (#320));
#371 = DESIGN_CONTEXT ('', #310, 'design');
#372 = PRODUCT_DEFINITION ('', '', #320, #371);
#373 = APPROVAL_STATUS ('approved');
#374 = APPROVAL (#373, '');
#375 = CALENDAR_DATE (2020, 8, 7);
#376 = COORDINATED_UNIVERSAL_TIME_OFFSET (0, $, .AHEAD.);
#377 = LOCAL_TIME (14, 26, 55., #376);
#378 = DATE_AND_TIME (#375, #377);
#379 = APPROVAL_DATE_TIME (#378, #374);
#380 = APPROVAL_ROLE ('');
#381 = PERSON ('', '', $, $, $, $);
#382 = ORGANIZATION ($, '', '');
#383 = PERSON_AND_ORGANIZATION (#381, #382);
#384 = APPROVAL_PERSON_ORGANIZATION (#383, #374, #380);
#385 = CC_DESIGN_APPROVAL (#374, (#372));
#386 = DATE_TIME_ROLE ('creation_date');
#387 = CALENDAR_DATE (2020, 8, 7);
#388 = COORDINATED_UNIVERSAL_TIME_OFFSET (0, $, .AHEAD.);
#389 = LOCAL_TIME (14, 26, 55., #388);
#390 = DATE_AND_TIME (#387, #389);
#391 = CC_DESIGN_DATE_AND_TIME_ASSIGNMENT (#390, #386, (#372));
#392 = PERSON_AND_ORGANIZATION_ROLE ('creator');
#393 = PERSON ('', '', $, $, $, $);
#394 = ORGANIZATION ($, '', '');
#395 = PERSON_AND_ORGANIZATION (#393, #394);
#396 = CC_DESIGN_PERSON_AND_ORGANIZATION_ASSIGNMENT (#395, #392, (#372));
#397 = PRODUCT_DEFINITION_SHAPE ('', '', #372);
#398 = SHAPE_DEFINITION_REPRESENTATION (#397, #309);
#399 = SHAPE_REPRESENTATION_RELATIONSHIP ('', '', #309, #400);
#400 = ADVANCED_BREP_SHAPE_REPRESENTATION ('', (#303), #308);
ENDSEC;
END-ISO-10303-21;
