ISO-10303-21;
HEADER;
FILE_DESCRIPTION ((), '1');
FILE_NAME ('C:\\DDrive\\ROB\\Rob\\Documents\\ROB\\Customers & Projects\\M\\MAFE\\TOOL STEP FILES\\MFBN\\MFNB1003.STP', '2020-07-08T14:29:58', ('Unknown'), ('M A Ford'), 'OneCNC-XR8 Mill 3D Expert', 'OneCNC-XR8 Mill 3D Expert', '');
FILE_SCHEMA (('CONFIG_CONTROL_DESIGN'));
ENDSEC;

DATA;
#1 = CARTESIAN_POINT ('', (-107.75, 6., -1.46957615897682E-15));
#2 = VERTEX_POINT ('', #1);
#3 = CARTESIAN_POINT ('', (-108., 5.75, -1.40834381901946E-15));
#4 = VERTEX_POINT ('', #3);
#5 = CARTESIAN_POINT ('', (-107.75, 6., -1.46957615897682E-15));
#6 = CARTESIAN_POINT ('', (-107.833333333334, 5.91666666666665, -1.44916537899103E-15));
#7 = CARTESIAN_POINT ('', (-107.916666666666, 5.83333333333334, -1.42875459900525E-15));
#8 = CARTESIAN_POINT ('', (-108., 5.75, -1.40834381901946E-15));
#9 = B_SPLINE_CURVE_WITH_KNOTS ('', 3, (#5, #6, #7, #8), .UNSPECIFIED., .F., .U., (4, 4), (0., 1.), .UNSPECIFIED.);
#10 = EDGE_CURVE ('', #2, #4, #9, .T.);
#11 = ORIENTED_EDGE ('', *, *, #10, .F.);
#12 = CARTESIAN_POINT ('', (-107.75, 6., -1.46957615897682E-15));
#13 = CARTESIAN_POINT ('', (-107.75, 5.99999999999998, 24.));
#14 = CARTESIAN_POINT ('', (-107.75, -18., 12.));
#15 = CARTESIAN_POINT ('', (-107.75, -18., -12.));
#16 = CARTESIAN_POINT ('', (-107.75, 6.00000000000002, -24.));
#17 = CARTESIAN_POINT ('', (-107.75, 6., -1.46957615897682E-15));
#18 = (
   BOUNDED_CURVE ()
   B_SPLINE_CURVE (5, (#12, #13, #14, #15, #16, #17), .UNSPECIFIED., .T., .U.)
   B_SPLINE_CURVE_WITH_KNOTS ((6, 6), (0., 1.), .UNSPECIFIED.)
   CURVE ()
   GEOMETRIC_REPRESENTATION_ITEM ()
   RATIONAL_B_SPLINE_CURVE ((5., 1., 1., 1., 1., 5.))
   REPRESENTATION_ITEM ('')
);
#19 = EDGE_CURVE ('', #2, #2, #18, .T.);
#20 = ORIENTED_EDGE ('', *, *, #19, .T.);
#21 = ORIENTED_EDGE ('', *, *, #10, .T.);
#22 = CARTESIAN_POINT ('', (-108., 5.75, -1.40834381901946E-15));
#23 = CARTESIAN_POINT ('', (-108., 5.74999999999998, 23.));
#24 = CARTESIAN_POINT ('', (-108., -17.25, 11.5));
#25 = CARTESIAN_POINT ('', (-108., -17.25, -11.5));
#26 = CARTESIAN_POINT ('', (-108., 5.75000000000002, -23.));
#27 = CARTESIAN_POINT ('', (-108., 5.75, -1.40834381901946E-15));
#28 = (
   BOUNDED_CURVE ()
   B_SPLINE_CURVE (5, (#22, #23, #24, #25, #26, #27), .UNSPECIFIED., .T., .U.)
   B_SPLINE_CURVE_WITH_KNOTS ((6, 6), (0., 1.), .UNSPECIFIED.)
   CURVE ()
   GEOMETRIC_REPRESENTATION_ITEM ()
   RATIONAL_B_SPLINE_CURVE ((5., 1., 1., 1., 1., 5.))
   REPRESENTATION_ITEM ('')
);
#29 = EDGE_CURVE ('', #4, #4, #28, .T.);
#30 = ORIENTED_EDGE ('', *, *, #29, .F.);
#31 = EDGE_LOOP ('', (#11, #20, #21, #30));
#32 = FACE_OUTER_BOUND ('', #31, .F.);
#33 = CARTESIAN_POINT ('', (-107.75, 6., -1.46957615897682E-15));
#34 = CARTESIAN_POINT ('', (-107.833333333334, 5.91666666666665, -1.44916537899103E-15));
#35 = CARTESIAN_POINT ('', (-107.916666666666, 5.83333333333334, -1.42875459900525E-15));
#36 = CARTESIAN_POINT ('', (-108., 5.75, -1.40834381901946E-15));
#37 = CARTESIAN_POINT ('', (-107.75, 5.99999999999998, 24.));
#38 = CARTESIAN_POINT ('', (-107.833333333334, 5.91666666666663, 23.6666666666666));
#39 = CARTESIAN_POINT ('', (-107.916666666666, 5.83333333333332, 23.3333333333333));
#40 = CARTESIAN_POINT ('', (-108., 5.74999999999998, 23.));
#41 = CARTESIAN_POINT ('', (-107.75, -18., 12.));
#42 = CARTESIAN_POINT ('', (-107.833333333334, -17.7499999999999, 11.8333333333333));
#43 = CARTESIAN_POINT ('', (-107.916666666666, -17.5, 11.6666666666666));
#44 = CARTESIAN_POINT ('', (-108., -17.25, 11.5));
#45 = CARTESIAN_POINT ('', (-107.75, -18., -12.));
#46 = CARTESIAN_POINT ('', (-107.833333333334, -17.7499999999999, -11.8333333333333));
#47 = CARTESIAN_POINT ('', (-107.916666666666, -17.5, -11.6666666666667));
#48 = CARTESIAN_POINT ('', (-108., -17.25, -11.5));
#49 = CARTESIAN_POINT ('', (-107.75, 6.00000000000002, -24.));
#50 = CARTESIAN_POINT ('', (-107.833333333334, 5.91666666666667, -23.6666666666666));
#51 = CARTESIAN_POINT ('', (-107.916666666666, 5.83333333333336, -23.3333333333333));
#52 = CARTESIAN_POINT ('', (-108., 5.75000000000002, -23.));
#53 = CARTESIAN_POINT ('', (-107.75, 6., -1.46957615897682E-15));
#54 = CARTESIAN_POINT ('', (-107.833333333334, 5.91666666666665, -1.44916537899103E-15));
#55 = CARTESIAN_POINT ('', (-107.916666666666, 5.83333333333334, -1.42875459900525E-15));
#56 = CARTESIAN_POINT ('', (-108., 5.75, -1.40834381901946E-15));
#57 = (
   BOUNDED_SURFACE ()
   B_SPLINE_SURFACE (5, 3, ((#33, #34, #35, #36), (#37, #38, #39, #40), (#41, #42, #43, #44), (#45, #46, #47, #48), (#49, #50, #51, #52), (#53, #54, #55, #56)), .UNSPECIFIED., .T., .F., .U.)
   B_SPLINE_SURFACE_WITH_KNOTS ((6, 6), (4, 4), (0., 1.), (0., 1.), .UNSPECIFIED.)
   SURFACE ()
   GEOMETRIC_REPRESENTATION_ITEM ()
   RATIONAL_B_SPLINE_SURFACE (((5., 5., 5., 5.), (1., 1., 1., 1.), (1., 1., 1., 1.), (1., 1., 1., 1.), (1., 1., 1., 1.), (5., 5., 5., 5.)))
   REPRESENTATION_ITEM ('')
);
#58 = ADVANCED_FACE ('', (#32), #57, .F.);
#59 = CARTESIAN_POINT ('', (-108., 6.61309271539571E-15, -6.61309271539571E-15));
#60 = VERTEX_POINT ('', #59);
#61 = CARTESIAN_POINT ('', (-108., 5.75, -1.40834381901946E-15));
#62 = CARTESIAN_POINT ('', (-108., 6.61309271539571E-15, -6.61309271539571E-15));
#63 = B_SPLINE_CURVE_WITH_KNOTS ('', 1, (#61, #62), .UNSPECIFIED., .F., .U., (2, 2), (0., 1.), .UNSPECIFIED.);
#64 = EDGE_CURVE ('', #4, #60, #63, .T.);
#65 = ORIENTED_EDGE ('', *, *, #64, .F.);
#66 = ORIENTED_EDGE ('', *, *, #29, .T.);
#67 = ORIENTED_EDGE ('', *, *, #64, .T.);
#68 = EDGE_LOOP ('', (#65, #66, #67));
#69 = FACE_OUTER_BOUND ('', #68, .F.);
#70 = CARTESIAN_POINT ('', (-108., 5.75, -1.40834381901946E-15));
#71 = CARTESIAN_POINT ('', (-108., 6.61309271539571E-15, -6.61309271539571E-15));
#72 = CARTESIAN_POINT ('', (-108., 5.74999999999998, 23.));
#73 = CARTESIAN_POINT ('', (-108., 6.61309271539571E-15, -6.61309271539571E-15));
#74 = CARTESIAN_POINT ('', (-108., -17.25, 11.5));
#75 = CARTESIAN_POINT ('', (-108., 6.61309271539571E-15, -6.61309271539571E-15));
#76 = CARTESIAN_POINT ('', (-108., -17.25, -11.5));
#77 = CARTESIAN_POINT ('', (-108., 6.61309271539571E-15, -6.61309271539571E-15));
#78 = CARTESIAN_POINT ('', (-108., 5.75000000000002, -23.));
#79 = CARTESIAN_POINT ('', (-108., 6.61309271539571E-15, -6.61309271539571E-15));
#80 = CARTESIAN_POINT ('', (-108., 5.75, -1.40834381901946E-15));
#81 = CARTESIAN_POINT ('', (-108., 6.61309271539571E-15, -6.61309271539571E-15));
#82 = (
   BOUNDED_SURFACE ()
   B_SPLINE_SURFACE (5, 1, ((#70, #71), (#72, #73), (#74, #75), (#76, #77), (#78, #79), (#80, #81)), .UNSPECIFIED., .T., .F., .U.)
   B_SPLINE_SURFACE_WITH_KNOTS ((6, 6), (2, 2), (0., 1.), (0., 1.), .UNSPECIFIED.)
   SURFACE ()
   GEOMETRIC_REPRESENTATION_ITEM ()
   RATIONAL_B_SPLINE_SURFACE (((5., 5.), (1., 1.), (1., 1.), (1., 1.), (1., 1.), (5., 5.)))
   REPRESENTATION_ITEM ('')
);
#83 = ADVANCED_FACE ('', (#69), #82, .F.);
#84 = CARTESIAN_POINT ('', (-24.7320508075689, 6., -1.46957615897682E-15));
#85 = VERTEX_POINT ('', #84);
#86 = CARTESIAN_POINT ('', (-24.7320508075689, 6., -1.46957615897682E-15));
#87 = CARTESIAN_POINT ('', (-52.4047005383793, 5.99999999999999, -1.46957615897682E-15));
#88 = CARTESIAN_POINT ('', (-80.0773502691894, 6., -1.46957615897682E-15));
#89 = CARTESIAN_POINT ('', (-107.75, 6., -1.46957615897682E-15));
#90 = B_SPLINE_CURVE_WITH_KNOTS ('', 3, (#86, #87, #88, #89), .UNSPECIFIED., .F., .U., (4, 4), (0., 1.), .UNSPECIFIED.);
#91 = EDGE_CURVE ('', #85, #2, #90, .T.);
#92 = ORIENTED_EDGE ('', *, *, #91, .F.);
#93 = CARTESIAN_POINT ('', (-24.7320508075689, 6., -1.46957615897682E-15));
#94 = CARTESIAN_POINT ('', (-24.7320508075689, 6., 24.));
#95 = CARTESIAN_POINT ('', (-24.7320508075689, -18., 12.));
#96 = CARTESIAN_POINT ('', (-24.7320508075689, -18., -12.));
#97 = CARTESIAN_POINT ('', (-24.7320508075689, 6., -24.));
#98 = CARTESIAN_POINT ('', (-24.7320508075689, 6., -1.46957615897682E-15));
#99 = (
   BOUNDED_CURVE ()
   B_SPLINE_CURVE (5, (#93, #94, #95, #96, #97, #98), .UNSPECIFIED., .T., .U.)
   B_SPLINE_CURVE_WITH_KNOTS ((6, 6), (0., 1.), .UNSPECIFIED.)
   CURVE ()
   GEOMETRIC_REPRESENTATION_ITEM ()
   RATIONAL_B_SPLINE_CURVE ((5., 1., 1., 1., 1., 5.))
   REPRESENTATION_ITEM ('')
);
#100 = EDGE_CURVE ('', #85, #85, #99, .T.);
#101 = ORIENTED_EDGE ('', *, *, #100, .T.);
#102 = ORIENTED_EDGE ('', *, *, #91, .T.);
#103 = ORIENTED_EDGE ('', *, *, #19, .F.);
#104 = EDGE_LOOP ('', (#92, #101, #102, #103));
#105 = FACE_OUTER_BOUND ('', #104, .F.);
#106 = CARTESIAN_POINT ('', (-24.7320508075689, 6., -1.46957615897682E-15));
#107 = CARTESIAN_POINT ('', (-52.4047005383793, 5.99999999999999, -1.46957615897682E-15));
#108 = CARTESIAN_POINT ('', (-80.0773502691894, 6., -1.46957615897682E-15));
#109 = CARTESIAN_POINT ('', (-107.75, 6., -1.46957615897682E-15));
#110 = CARTESIAN_POINT ('', (-24.7320508075689, 6., 24.));
#111 = CARTESIAN_POINT ('', (-52.4047005383793, 5.99999999999998, 24.));
#112 = CARTESIAN_POINT ('', (-80.0773502691894, 5.99999999999999, 24.));
#113 = CARTESIAN_POINT ('', (-107.75, 5.99999999999998, 24.));
#114 = CARTESIAN_POINT ('', (-24.7320508075689, -18., 12.));
#115 = CARTESIAN_POINT ('', (-52.4047005383793, -18., 12.));
#116 = CARTESIAN_POINT ('', (-80.0773502691894, -18., 12.));
#117 = CARTESIAN_POINT ('', (-107.75, -18., 12.));
#118 = CARTESIAN_POINT ('', (-24.7320508075689, -18., -12.));
#119 = CARTESIAN_POINT ('', (-52.4047005383793, -18., -12.));
#120 = CARTESIAN_POINT ('', (-80.0773502691894, -18., -12.));
#121 = CARTESIAN_POINT ('', (-107.75, -18., -12.));
#122 = CARTESIAN_POINT ('', (-24.7320508075689, 6., -24.));
#123 = CARTESIAN_POINT ('', (-52.4047005383793, 6., -24.));
#124 = CARTESIAN_POINT ('', (-80.0773502691894, 6.00000000000001, -24.));
#125 = CARTESIAN_POINT ('', (-107.75, 6.00000000000002, -24.));
#126 = CARTESIAN_POINT ('', (-24.7320508075689, 6., -1.46957615897682E-15));
#127 = CARTESIAN_POINT ('', (-52.4047005383793, 5.99999999999999, -1.46957615897682E-15));
#128 = CARTESIAN_POINT ('', (-80.0773502691894, 6., -1.46957615897682E-15));
#129 = CARTESIAN_POINT ('', (-107.75, 6., -1.46957615897682E-15));
#130 = (
   BOUNDED_SURFACE ()
   B_SPLINE_SURFACE (5, 3, ((#106, #107, #108, #109), (#110, #111, #112, #113), (#114, #115, #116, #117), (#118, #119, #120, #121), (#122, #123, #124, #125), (#126, #127, #128, #129)), .UNSPECIFIED., .T., .F., .U.)
   B_SPLINE_SURFACE_WITH_KNOTS ((6, 6), (4, 4), (0., 1.), (0., 1.), .UNSPECIFIED.)
   SURFACE ()
   GEOMETRIC_REPRESENTATION_ITEM ()
   RATIONAL_B_SPLINE_SURFACE (((5., 5., 5., 5.), (1., 1., 1., 1.), (1., 1., 1., 1.), (1., 1., 1., 1.), (1., 1., 1., 1.), (5., 5., 5., 5.)))
   REPRESENTATION_ITEM ('')
);
#131 = ADVANCED_FACE ('', (#105), #130, .F.);
#132 = CARTESIAN_POINT ('', (-23., 5., -1.22464679914735E-15));
#133 = VERTEX_POINT ('', #132);
#134 = CARTESIAN_POINT ('', (-23., 5., -1.22464679914735E-15));
#135 = CARTESIAN_POINT ('', (-23.5773502691897, 5.33333333333334, -1.30628991909051E-15));
#136 = CARTESIAN_POINT ('', (-24.1547005383793, 5.66666666666665, -1.38793303903366E-15));
#137 = CARTESIAN_POINT ('', (-24.7320508075689, 6., -1.46957615897682E-15));
#138 = B_SPLINE_CURVE_WITH_KNOTS ('', 3, (#134, #135, #136, #137), .UNSPECIFIED., .F., .U., (4, 4), (0., 1.), .UNSPECIFIED.);
#139 = EDGE_CURVE ('', #133, #85, #138, .T.);
#140 = ORIENTED_EDGE ('', *, *, #139, .F.);
#141 = CARTESIAN_POINT ('', (-23., 5., -1.22464679914735E-15));
#142 = CARTESIAN_POINT ('', (-23., 5., 20.));
#143 = CARTESIAN_POINT ('', (-23., -15., 9.99999999999999));
#144 = CARTESIAN_POINT ('', (-23., -15., -10.));
#145 = CARTESIAN_POINT ('', (-23., 5., -20.));
#146 = CARTESIAN_POINT ('', (-23., 5., -1.22464679914735E-15));
#147 = (
   BOUNDED_CURVE ()
   B_SPLINE_CURVE (5, (#141, #142, #143, #144, #145, #146), .UNSPECIFIED., .T., .U.)
   B_SPLINE_CURVE_WITH_KNOTS ((6, 6), (0., 1.), .UNSPECIFIED.)
   CURVE ()
   GEOMETRIC_REPRESENTATION_ITEM ()
   RATIONAL_B_SPLINE_CURVE ((5., 1., 1., 1., 1., 5.))
   REPRESENTATION_ITEM ('')
);
#148 = EDGE_CURVE ('', #133, #133, #147, .T.);
#149 = ORIENTED_EDGE ('', *, *, #148, .T.);
#150 = ORIENTED_EDGE ('', *, *, #139, .T.);
#151 = ORIENTED_EDGE ('', *, *, #100, .F.);
#152 = EDGE_LOOP ('', (#140, #149, #150, #151));
#153 = FACE_OUTER_BOUND ('', #152, .F.);
#154 = CARTESIAN_POINT ('', (-23., 5., -1.22464679914735E-15));
#155 = CARTESIAN_POINT ('', (-23.5773502691897, 5.33333333333334, -1.30628991909051E-15));
#156 = CARTESIAN_POINT ('', (-24.1547005383793, 5.66666666666665, -1.38793303903366E-15));
#157 = CARTESIAN_POINT ('', (-24.7320508075689, 6., -1.46957615897682E-15));
#158 = CARTESIAN_POINT ('', (-23., 5., 20.));
#159 = CARTESIAN_POINT ('', (-23.5773502691897, 5.33333333333334, 21.3333333333334));
#160 = CARTESIAN_POINT ('', (-24.1547005383793, 5.66666666666665, 22.6666666666666));
#161 = CARTESIAN_POINT ('', (-24.7320508075689, 6., 24.));
#162 = CARTESIAN_POINT ('', (-23., -15., 9.99999999999999));
#163 = CARTESIAN_POINT ('', (-23.5773502691897, -16., 10.6666666666667));
#164 = CARTESIAN_POINT ('', (-24.1547005383793, -17., 11.3333333333333));
#165 = CARTESIAN_POINT ('', (-24.7320508075689, -18., 12.));
#166 = CARTESIAN_POINT ('', (-23., -15., -10.));
#167 = CARTESIAN_POINT ('', (-23.5773502691897, -16., -10.6666666666667));
#168 = CARTESIAN_POINT ('', (-24.1547005383793, -17., -11.3333333333333));
#169 = CARTESIAN_POINT ('', (-24.7320508075689, -18., -12.));
#170 = CARTESIAN_POINT ('', (-23., 5., -20.));
#171 = CARTESIAN_POINT ('', (-23.5773502691897, 5.33333333333334, -21.3333333333334));
#172 = CARTESIAN_POINT ('', (-24.1547005383793, 5.66666666666665, -22.6666666666666));
#173 = CARTESIAN_POINT ('', (-24.7320508075689, 6., -24.));
#174 = CARTESIAN_POINT ('', (-23., 5., -1.22464679914735E-15));
#175 = CARTESIAN_POINT ('', (-23.5773502691897, 5.33333333333334, -1.30628991909051E-15));
#176 = CARTESIAN_POINT ('', (-24.1547005383793, 5.66666666666665, -1.38793303903366E-15));
#177 = CARTESIAN_POINT ('', (-24.7320508075689, 6., -1.46957615897682E-15));
#178 = (
   BOUNDED_SURFACE ()
   B_SPLINE_SURFACE (5, 3, ((#154, #155, #156, #157), (#158, #159, #160, #161), (#162, #163, #164, #165), (#166, #167, #168, #169), (#170, #171, #172, #173), (#174, #175, #176, #177)), .UNSPECIFIED., .T., .F., .U.)
   B_SPLINE_SURFACE_WITH_KNOTS ((6, 6), (4, 4), (0., 1.), (0., 1.), .UNSPECIFIED.)
   SURFACE ()
   GEOMETRIC_REPRESENTATION_ITEM ()
   RATIONAL_B_SPLINE_SURFACE (((5., 5., 5., 5.), (1., 1., 1., 1.), (1., 1., 1., 1.), (1., 1., 1., 1.), (1., 1., 1., 1.), (5., 5., 5., 5.)))
   REPRESENTATION_ITEM ('')
);
#179 = ADVANCED_FACE ('', (#153), #178, .F.);
#180 = CARTESIAN_POINT ('', (-5., 5., -1.22464679914735E-15));
#181 = VERTEX_POINT ('', #180);
#182 = CARTESIAN_POINT ('', (-5., 5., -1.22464679914735E-15));
#183 = CARTESIAN_POINT ('', (-11., 5., -1.22464679914735E-15));
#184 = CARTESIAN_POINT ('', (-17., 5.00000000000001, -1.22464679914735E-15));
#185 = CARTESIAN_POINT ('', (-23., 5., -1.22464679914735E-15));
#186 = B_SPLINE_CURVE_WITH_KNOTS ('', 3, (#182, #183, #184, #185), .UNSPECIFIED., .F., .U., (4, 4), (0., 1.), .UNSPECIFIED.);
#187 = EDGE_CURVE ('', #181, #133, #186, .T.);
#188 = ORIENTED_EDGE ('', *, *, #187, .F.);
#189 = CARTESIAN_POINT ('', (-5., 5., -1.22464679914735E-15));
#190 = CARTESIAN_POINT ('', (-5., 5., 20.));
#191 = CARTESIAN_POINT ('', (-5., -15., 10.));
#192 = CARTESIAN_POINT ('', (-5., -15., -10.));
#193 = CARTESIAN_POINT ('', (-5., 5., -20.));
#194 = CARTESIAN_POINT ('', (-5., 5., -1.22464679914735E-15));
#195 = (
   BOUNDED_CURVE ()
   B_SPLINE_CURVE (5, (#189, #190, #191, #192, #193, #194), .UNSPECIFIED., .T., .U.)
   B_SPLINE_CURVE_WITH_KNOTS ((6, 6), (0., 1.), .UNSPECIFIED.)
   CURVE ()
   GEOMETRIC_REPRESENTATION_ITEM ()
   RATIONAL_B_SPLINE_CURVE ((5., 1., 1., 1., 1., 5.))
   REPRESENTATION_ITEM ('')
);
#196 = EDGE_CURVE ('', #181, #181, #195, .T.);
#197 = ORIENTED_EDGE ('', *, *, #196, .T.);
#198 = ORIENTED_EDGE ('', *, *, #187, .T.);
#199 = ORIENTED_EDGE ('', *, *, #148, .F.);
#200 = EDGE_LOOP ('', (#188, #197, #198, #199));
#201 = FACE_OUTER_BOUND ('', #200, .F.);
#202 = CARTESIAN_POINT ('', (-5., 5., -1.22464679914735E-15));
#203 = CARTESIAN_POINT ('', (-11., 5., -1.22464679914735E-15));
#204 = CARTESIAN_POINT ('', (-17., 5.00000000000001, -1.22464679914735E-15));
#205 = CARTESIAN_POINT ('', (-23., 5., -1.22464679914735E-15));
#206 = CARTESIAN_POINT ('', (-5., 5., 20.));
#207 = CARTESIAN_POINT ('', (-11., 5., 20.));
#208 = CARTESIAN_POINT ('', (-17., 5.00000000000001, 20.));
#209 = CARTESIAN_POINT ('', (-23., 5., 20.));
#210 = CARTESIAN_POINT ('', (-5., -15., 10.));
#211 = CARTESIAN_POINT ('', (-11., -15., 10.));
#212 = CARTESIAN_POINT ('', (-17., -15., 10.));
#213 = CARTESIAN_POINT ('', (-23., -15., 9.99999999999999));
#214 = CARTESIAN_POINT ('', (-5., -15., -10.));
#215 = CARTESIAN_POINT ('', (-11., -15., -10.));
#216 = CARTESIAN_POINT ('', (-17., -15., -10.));
#217 = CARTESIAN_POINT ('', (-23., -15., -10.));
#218 = CARTESIAN_POINT ('', (-5., 5., -20.));
#219 = CARTESIAN_POINT ('', (-11., 5., -20.));
#220 = CARTESIAN_POINT ('', (-17., 5.00000000000001, -20.));
#221 = CARTESIAN_POINT ('', (-23., 5., -20.));
#222 = CARTESIAN_POINT ('', (-5., 5., -1.22464679914735E-15));
#223 = CARTESIAN_POINT ('', (-11., 5., -1.22464679914735E-15));
#224 = CARTESIAN_POINT ('', (-17., 5.00000000000001, -1.22464679914735E-15));
#225 = CARTESIAN_POINT ('', (-23., 5., -1.22464679914735E-15));
#226 = (
   BOUNDED_SURFACE ()
   B_SPLINE_SURFACE (5, 3, ((#202, #203, #204, #205), (#206, #207, #208, #209), (#210, #211, #212, #213), (#214, #215, #216, #217), (#218, #219, #220, #221), (#222, #223, #224, #225)), .UNSPECIFIED., .T., .F., .U.)
   B_SPLINE_SURFACE_WITH_KNOTS ((6, 6), (4, 4), (0., 1.), (0., 1.), .UNSPECIFIED.)
   SURFACE ()
   GEOMETRIC_REPRESENTATION_ITEM ()
   RATIONAL_B_SPLINE_SURFACE (((5., 5., 5., 5.), (1., 1., 1., 1.), (1., 1., 1., 1.), (1., 1., 1., 1.), (1., 1., 1., 1.), (5., 5., 5., 5.)))
   REPRESENTATION_ITEM ('')
);
#227 = ADVANCED_FACE ('', (#201), #226, .F.);
#228 = CARTESIAN_POINT ('', (0., 0., 0.));
#229 = VERTEX_POINT ('', #228);
#230 = CARTESIAN_POINT ('', (0., 0., 0.));
#231 = CARTESIAN_POINT ('', (6.16297582203915E-33, 0.546276888898633, -1.33799248687577E-16));
#232 = CARTESIAN_POINT ('', (-0.145854845565456, 1.42614127340927, -3.49303869122519E-16));
#233 = CARTESIAN_POINT ('', (-0.727741756412037, 2.70194840410276, -6.6178649290915E-16));
#234 = CARTESIAN_POINT ('', (-1.48840525154976, 3.63760905176292, -8.90957256358179E-16));
#235 = CARTESIAN_POINT ('', (-2.45576047108788, 4.34418818345896, -1.06401923075335E-15));
#236 = CARTESIAN_POINT ('', (-3.57385872659072, 4.85414515443454, -1.18892266519498E-15));
#237 = CARTESIAN_POINT ('', (-4.45372311110137, 5., -1.22464679914735E-15));
#238 = CARTESIAN_POINT ('', (-5., 5., -1.22464679914735E-15));
#239 = B_SPLINE_CURVE_WITH_KNOTS ('', 3, (#230, #231, #232, #233, #234, #235, #236, #237, #238), .UNSPECIFIED., .F., .U., (4, 1, 1, 1, 1, 1, 4), (0., 0.208662401196191, 0.33617370428258, 0.532939663384363, 0.66382629571742, 0.791337598803809, 1.), .UNSPECIFIED.);
#240 = EDGE_CURVE ('', #229, #181, #239, .T.);
#241 = ORIENTED_EDGE ('', *, *, #240, .F.);
#242 = ORIENTED_EDGE ('', *, *, #240, .T.);
#243 = ORIENTED_EDGE ('', *, *, #196, .F.);
#244 = EDGE_LOOP ('', (#241, #242, #243));
#245 = FACE_OUTER_BOUND ('', #244, .F.);
#246 = CARTESIAN_POINT ('', (0., 0., 0.));
#247 = CARTESIAN_POINT ('', (6.16297582203915E-33, 0.546276888898633, -1.33799248687577E-16));
#248 = CARTESIAN_POINT ('', (-0.145854845565456, 1.42614127340927, -3.49303869122519E-16));
#249 = CARTESIAN_POINT ('', (-0.727741756412037, 2.70194840410276, -6.6178649290915E-16));
#250 = CARTESIAN_POINT ('', (-1.48840525154976, 3.63760905176292, -8.90957256358179E-16));
#251 = CARTESIAN_POINT ('', (-2.45576047108788, 4.34418818345896, -1.06401923075335E-15));
#252 = CARTESIAN_POINT ('', (-3.57385872659072, 4.85414515443454, -1.18892266519498E-15));
#253 = CARTESIAN_POINT ('', (-4.45372311110137, 5., -1.22464679914735E-15));
#254 = CARTESIAN_POINT ('', (-5., 5., -1.22464679914735E-15));
#255 = CARTESIAN_POINT ('', (0., 0., 0.));
#256 = CARTESIAN_POINT ('', (-1.33799248687577E-16, 0.546276888898633, 2.18510755559453));
#257 = CARTESIAN_POINT ('', (-0.145854845565456, 1.42614127340927, 5.70456509363709));
#258 = CARTESIAN_POINT ('', (-0.727741756412038, 2.70194840410277, 10.8077936164111));
#259 = CARTESIAN_POINT ('', (-1.48840525154976, 3.63760905176292, 14.5504362070517));
#260 = CARTESIAN_POINT ('', (-2.45576047108788, 4.34418818345896, 17.3767527338358));
#261 = CARTESIAN_POINT ('', (-3.57385872659073, 4.85414515443455, 19.4165806177382));
#262 = CARTESIAN_POINT ('', (-4.45372311110137, 5.00000000000001, 20.));
#263 = CARTESIAN_POINT ('', (-5., 5., 20.));
#264 = CARTESIAN_POINT ('', (0., 0., 0.));
#265 = CARTESIAN_POINT ('', (-2.00698873031366E-16, -1.6388306666959, 1.09255377779727));
#266 = CARTESIAN_POINT ('', (-0.145854845565456, -4.27842382022782, 2.85228254681855));
#267 = CARTESIAN_POINT ('', (-0.727741756412038, -8.10584521230829, 5.40389680820553));
#268 = CARTESIAN_POINT ('', (-1.48840525154976, -10.9128271552887, 7.27521810352584));
#269 = CARTESIAN_POINT ('', (-2.45576047108788, -13.0325645503769, 8.68837636691791));
#270 = CARTESIAN_POINT ('', (-3.57385872659073, -14.5624354633036, 9.70829030886909));
#271 = CARTESIAN_POINT ('', (-4.45372311110137, -15., 10.));
#272 = CARTESIAN_POINT ('', (-5., -15., 10.));
#273 = CARTESIAN_POINT ('', (0., 0., 0.));
#274 = CARTESIAN_POINT ('', (-6.68996243437886E-17, -1.6388306666959, -1.09255377779727));
#275 = CARTESIAN_POINT ('', (-0.145854845565456, -4.27842382022782, -2.85228254681855));
#276 = CARTESIAN_POINT ('', (-0.727741756412037, -8.10584521230829, -5.40389680820553));
#277 = CARTESIAN_POINT ('', (-1.48840525154976, -10.9128271552888, -7.27521810352583));
#278 = CARTESIAN_POINT ('', (-2.45576047108788, -13.0325645503769, -8.68837636691791));
#279 = CARTESIAN_POINT ('', (-3.57385872659072, -14.5624354633036, -9.70829030886908));
#280 = CARTESIAN_POINT ('', (-4.45372311110137, -15., -10.));
#281 = CARTESIAN_POINT ('', (-5., -15., -10.));
#282 = CARTESIAN_POINT ('', (0., 0., 0.));
#283 = CARTESIAN_POINT ('', (1.33799248687577E-16, 0.546276888898632, -2.18510755559453));
#284 = CARTESIAN_POINT ('', (-0.145854845565456, 1.42614127340927, -5.70456509363709));
#285 = CARTESIAN_POINT ('', (-0.727741756412037, 2.70194840410276, -10.8077936164111));
#286 = CARTESIAN_POINT ('', (-1.48840525154976, 3.63760905176291, -14.5504362070517));
#287 = CARTESIAN_POINT ('', (-2.45576047108788, 4.34418818345895, -17.3767527338358));
#288 = CARTESIAN_POINT ('', (-3.57385872659072, 4.85414515443454, -19.4165806177382));
#289 = CARTESIAN_POINT ('', (-4.45372311110137, 5., -20.));
#290 = CARTESIAN_POINT ('', (-5., 5., -20.));
#291 = CARTESIAN_POINT ('', (0., 0., 0.));
#292 = CARTESIAN_POINT ('', (6.16297582203915E-33, 0.546276888898633, -1.33799248687577E-16));
#293 = CARTESIAN_POINT ('', (-0.145854845565456, 1.42614127340927, -3.49303869122519E-16));
#294 = CARTESIAN_POINT ('', (-0.727741756412037, 2.70194840410276, -6.6178649290915E-16));
#295 = CARTESIAN_POINT ('', (-1.48840525154976, 3.63760905176292, -8.90957256358179E-16));
#296 = CARTESIAN_POINT ('', (-2.45576047108788, 4.34418818345896, -1.06401923075335E-15));
#297 = CARTESIAN_POINT ('', (-3.57385872659072, 4.85414515443454, -1.18892266519498E-15));
#298 = CARTESIAN_POINT ('', (-4.45372311110137, 5., -1.22464679914735E-15));
#299 = CARTESIAN_POINT ('', (-5., 5., -1.22464679914735E-15));
#300 = (
   BOUNDED_SURFACE ()
   B_SPLINE_SURFACE (5, 3, ((#246, #247, #248, #249, #250, #251, #252, #253, #254), (#255, #256, #257, #258, #259, #260, #261, #262, #263), (#264, #265, #266, #267, #268, #269, #270, #271, #272), (#273, #274, #275, #276, #277, #278, #279, #280, #281), (#282, #283, #284, #285, #286, #287, #288, #289, #290), (#291, #292, #293, #294, #295, #296, #297, #298, #299)), .UNSPECIFIED., .T., .F., .U.)
   B_SPLINE_SURFACE_WITH_KNOTS ((6, 6), (4, 1, 1, 1, 1, 1, 4), (0., 1.), (0., 0.208662401196191, 0.33617370428258, 0.532939663384363, 0.66382629571742, 0.791337598803809, 1.), .UNSPECIFIED.)
   SURFACE ()
   GEOMETRIC_REPRESENTATION_ITEM ()
   RATIONAL_B_SPLINE_SURFACE (((5., 5., 5., 5., 5., 5., 5., 5., 5.), (1., 1., 1., 1., 1., 1., 1., 1., 1.), (1., 1., 1., 1., 1., 1., 1., 1., 1.), (1., 1., 1., 1., 1., 1., 1., 1., 1.), (1., 1., 1., 1., 1., 1., 1., 1., 1.), (5., 5., 5., 5., 5., 5., 5., 5., 5.)))
   REPRESENTATION_ITEM ('')
);
#301 = ADVANCED_FACE ('', (#245), #300, .F.);
#302 = CLOSED_SHELL ('', (#58, #83, #131, #179, #227, #301));
#303 = MANIFOLD_SOLID_BREP ('', #302);
#304 = (
   LENGTH_UNIT ()
   NAMED_UNIT (*)
   SI_UNIT (.MILLI., .METRE.)
);
#305 = (
   NAMED_UNIT (*)
   SI_UNIT ($, .STERADIAN.)
   SOLID_ANGLE_UNIT ()
);
#306 = (
   NAMED_UNIT (*)
   SI_UNIT ($, .RADIAN.)
   PLANE_ANGLE_UNIT ()
);
#307 = UNCERTAINTY_MEASURE_WITH_UNIT (LENGTH_MEASURE(0.001), #304, 'DISTANCE_ACCURACY_VALUE', '');
#308 = (
   GEOMETRIC_REPRESENTATION_CONTEXT (3)
   GLOBAL_UNCERTAINTY_ASSIGNED_CONTEXT ((#307))
   GLOBAL_UNIT_ASSIGNED_CONTEXT ((#304, #305, #306))
   REPRESENTATION_CONTEXT ('', '3D')
);
#309 = SHAPE_REPRESENTATION ('', (), #308);
#310 = APPLICATION_CONTEXT ('configuration controlled 3D designs of mechanical parts and assemblies');
#311 = APPLICATION_PROTOCOL_DEFINITION ('International Standard', 'config_control_design', 1997, #310);
#312 = MECHANICAL_CONTEXT ('', #310, 'mechanical');
#313 = PRODUCT ('', '', '', (#312));
#314 = PERSON_AND_ORGANIZATION_ROLE ('design_owner');
#315 = PERSON ('', '', $, $, $, $);
#316 = ORGANIZATION ($, '', '');
#317 = PERSON_AND_ORGANIZATION (#315, #316);
#318 = CC_DESIGN_PERSON_AND_ORGANIZATION_ASSIGNMENT (#317, #314, (#313));
#319 = PRODUCT_RELATED_PRODUCT_CATEGORY ('detail', $, (#313));
#320 = PRODUCT_DEFINITION_FORMATION_WITH_SPECIFIED_SOURCE ('', '', #313, .NOT_KNOWN.);
#321 = APPROVAL_STATUS ('approved');
#322 = APPROVAL (#321, '');
#323 = CALENDAR_DATE (2020, 8, 7);
#324 = COORDINATED_UNIVERSAL_TIME_OFFSET (0, $, .AHEAD.);
#325 = LOCAL_TIME (14, 29, 58., #324);
#326 = DATE_AND_TIME (#323, #325);
#327 = APPROVAL_DATE_TIME (#326, #322);
#328 = APPROVAL_ROLE ('');
#329 = PERSON ('', '', $, $, $, $);
#330 = ORGANIZATION ($, '', '');
#331 = PERSON_AND_ORGANIZATION (#329, #330);
#332 = APPROVAL_PERSON_ORGANIZATION (#331, #322, #328);
#333 = CC_DESIGN_APPROVAL (#322, (#320));
#334 = PERSON_AND_ORGANIZATION_ROLE ('creator');
#335 = PERSON ('', '', $, $, $, $);
#336 = ORGANIZATION ($, '', '');
#337 = PERSON_AND_ORGANIZATION (#335, #336);
#338 = CC_DESIGN_PERSON_AND_ORGANIZATION_ASSIGNMENT (#337, #334, (#320));
#339 = PERSON_AND_ORGANIZATION_ROLE ('part_supplier');
#340 = PERSON ('', '', $, $, $, $);
#341 = ORGANIZATION ($, '', '');
#342 = PERSON_AND_ORGANIZATION (#340, #341);
#343 = CC_DESIGN_PERSON_AND_ORGANIZATION_ASSIGNMENT (#342, #339, (#320));
#344 = SECURITY_CLASSIFICATION_LEVEL ('unclassified');
#345 = SECURITY_CLASSIFICATION ('', '', #344);
#346 = APPROVAL_STATUS ('approved');
#347 = APPROVAL (#346, '');
#348 = CALENDAR_DATE (2020, 8, 7);
#349 = COORDINATED_UNIVERSAL_TIME_OFFSET (0, $, .AHEAD.);
#350 = LOCAL_TIME (14, 29, 58., #349);
#351 = DATE_AND_TIME (#348, #350);
#352 = APPROVAL_DATE_TIME (#351, #347);
#353 = APPROVAL_ROLE ('');
#354 = PERSON ('', '', $, $, $, $);
#355 = ORGANIZATION ($, '', '');
#356 = PERSON_AND_ORGANIZATION (#354, #355);
#357 = APPROVAL_PERSON_ORGANIZATION (#356, #347, #353);
#358 = CC_DESIGN_APPROVAL (#347, (#345));
#359 = DATE_TIME_ROLE ('classification_date');
#360 = CALENDAR_DATE (2020, 8, 7);
#361 = COORDINATED_UNIVERSAL_TIME_OFFSET (0, $, .AHEAD.);
#362 = LOCAL_TIME (14, 29, 58., #361);
#363 = DATE_AND_TIME (#360, #362);
#364 = CC_DESIGN_DATE_AND_TIME_ASSIGNMENT (#363, #359, (#345));
#365 = PERSON_AND_ORGANIZATION_ROLE ('classification_officer');
#366 = PERSON ('', '', $, $, $, $);
#367 = ORGANIZATION ($, '', '');
#368 = PERSON_AND_ORGANIZATION (#366, #367);
#369 = CC_DESIGN_PERSON_AND_ORGANIZATION_ASSIGNMENT (#368, #365, (#345));
#370 = CC_DESIGN_SECURITY_CLASSIFICATION (#345, (#320));
#371 = DESIGN_CONTEXT ('', #310, 'design');
#372 = PRODUCT_DEFINITION ('', '', #320, #371);
#373 = APPROVAL_STATUS ('approved');
#374 = APPROVAL (#373, '');
#375 = CALENDAR_DATE (2020, 8, 7);
#376 = COORDINATED_UNIVERSAL_TIME_OFFSET (0, $, .AHEAD.);
#377 = LOCAL_TIME (14, 29, 58., #376);
#378 = DATE_AND_TIME (#375, #377);
#379 = APPROVAL_DATE_TIME (#378, #374);
#380 = APPROVAL_ROLE ('');
#381 = PERSON ('', '', $, $, $, $);
#382 = ORGANIZATION ($, '', '');
#383 = PERSON_AND_ORGANIZATION (#381, #382);
#384 = APPROVAL_PERSON_ORGANIZATION (#383, #374, #380);
#385 = CC_DESIGN_APPROVAL (#374, (#372));
#386 = DATE_TIME_ROLE ('creation_date');
#387 = CALENDAR_DATE (2020, 8, 7);
#388 = COORDINATED_UNIVERSAL_TIME_OFFSET (0, $, .AHEAD.);
#389 = LOCAL_TIME (14, 29, 58., #388);
#390 = DATE_AND_TIME (#387, #389);
#391 = CC_DESIGN_DATE_AND_TIME_ASSIGNMENT (#390, #386, (#372));
#392 = PERSON_AND_ORGANIZATION_ROLE ('creator');
#393 = PERSON ('', '', $, $, $, $);
#394 = ORGANIZATION ($, '', '');
#395 = PERSON_AND_ORGANIZATION (#393, #394);
#396 = CC_DESIGN_PERSON_AND_ORGANIZATION_ASSIGNMENT (#395, #392, (#372));
#397 = PRODUCT_DEFINITION_SHAPE ('', '', #372);
#398 = SHAPE_DEFINITION_REPRESENTATION (#397, #309);
#399 = SHAPE_REPRESENTATION_RELATIONSHIP ('', '', #309, #400);
#400 = ADVANCED_BREP_SHAPE_REPRESENTATION ('', (#303), #308);
ENDSEC;
END-ISO-10303-21;
