ISO-10303-21;
HEADER;
FILE_DESCRIPTION ((), '1');
FILE_NAME ('C:\\DDrive\\ROB\\Rob\\Documents\\ROB\\Customers & Projects\\M\\MAFE\\TOOL STEP FILES\\MFBN\\MFNB1203.STP', '2020-07-08T14:38:35', ('Unknown'), ('M A Ford'), 'OneCNC-XR8 Mill 3D Expert', 'OneCNC-XR8 Mill 3D Expert', '');
FILE_SCHEMA (('CONFIG_CONTROL_DESIGN'));
ENDSEC;

DATA;
#1 = CARTESIAN_POINT ('', (-107.75, 8., -1.95943487863576E-15));
#2 = VERTEX_POINT ('', #1);
#3 = CARTESIAN_POINT ('', (-108., 7.75, -1.89820253867839E-15));
#4 = VERTEX_POINT ('', #3);
#5 = CARTESIAN_POINT ('', (-107.75, 8., -1.95943487863576E-15));
#6 = CARTESIAN_POINT ('', (-107.833333333334, 7.91666666666665, -1.93902409864997E-15));
#7 = CARTESIAN_POINT ('', (-107.916666666667, 7.83333333333334, -1.91861331866419E-15));
#8 = CARTESIAN_POINT ('', (-108., 7.75, -1.89820253867839E-15));
#9 = B_SPLINE_CURVE_WITH_KNOTS ('', 3, (#5, #6, #7, #8), .UNSPECIFIED., .F., .U., (4, 4), (0., 1.), .UNSPECIFIED.);
#10 = EDGE_CURVE ('', #2, #4, #9, .T.);
#11 = ORIENTED_EDGE ('', *, *, #10, .F.);
#12 = CARTESIAN_POINT ('', (-107.75, 8., -1.95943487863576E-15));
#13 = CARTESIAN_POINT ('', (-107.75, 7.99999999999998, 32.));
#14 = CARTESIAN_POINT ('', (-107.75, -24., 16.));
#15 = CARTESIAN_POINT ('', (-107.75, -24., -16.));
#16 = CARTESIAN_POINT ('', (-107.75, 8.00000000000002, -32.));
#17 = CARTESIAN_POINT ('', (-107.75, 8., -1.95943487863576E-15));
#18 = (
   BOUNDED_CURVE ()
   B_SPLINE_CURVE (5, (#12, #13, #14, #15, #16, #17), .UNSPECIFIED., .T., .U.)
   B_SPLINE_CURVE_WITH_KNOTS ((6, 6), (0., 1.), .UNSPECIFIED.)
   CURVE ()
   GEOMETRIC_REPRESENTATION_ITEM ()
   RATIONAL_B_SPLINE_CURVE ((5., 1., 1., 1., 1., 5.))
   REPRESENTATION_ITEM ('')
);
#19 = EDGE_CURVE ('', #2, #2, #18, .T.);
#20 = ORIENTED_EDGE ('', *, *, #19, .T.);
#21 = ORIENTED_EDGE ('', *, *, #10, .T.);
#22 = CARTESIAN_POINT ('', (-108., 7.75, -1.89820253867839E-15));
#23 = CARTESIAN_POINT ('', (-108., 7.74999999999998, 31.));
#24 = CARTESIAN_POINT ('', (-108., -23.25, 15.5));
#25 = CARTESIAN_POINT ('', (-108., -23.25, -15.5));
#26 = CARTESIAN_POINT ('', (-108., 7.75000000000002, -31.));
#27 = CARTESIAN_POINT ('', (-108., 7.75, -1.89820253867839E-15));
#28 = (
   BOUNDED_CURVE ()
   B_SPLINE_CURVE (5, (#22, #23, #24, #25, #26, #27), .UNSPECIFIED., .T., .U.)
   B_SPLINE_CURVE_WITH_KNOTS ((6, 6), (0., 1.), .UNSPECIFIED.)
   CURVE ()
   GEOMETRIC_REPRESENTATION_ITEM ()
   RATIONAL_B_SPLINE_CURVE ((5., 1., 1., 1., 1., 5.))
   REPRESENTATION_ITEM ('')
);
#29 = EDGE_CURVE ('', #4, #4, #28, .T.);
#30 = ORIENTED_EDGE ('', *, *, #29, .F.);
#31 = EDGE_LOOP ('', (#11, #20, #21, #30));
#32 = FACE_OUTER_BOUND ('', #31, .F.);
#33 = CARTESIAN_POINT ('', (-107.75, 8., -1.95943487863576E-15));
#34 = CARTESIAN_POINT ('', (-107.833333333334, 7.91666666666665, -1.93902409864997E-15));
#35 = CARTESIAN_POINT ('', (-107.916666666667, 7.83333333333334, -1.91861331866419E-15));
#36 = CARTESIAN_POINT ('', (-108., 7.75, -1.89820253867839E-15));
#37 = CARTESIAN_POINT ('', (-107.75, 7.99999999999998, 32.));
#38 = CARTESIAN_POINT ('', (-107.833333333334, 7.91666666666663, 31.6666666666666));
#39 = CARTESIAN_POINT ('', (-107.916666666667, 7.83333333333332, 31.3333333333333));
#40 = CARTESIAN_POINT ('', (-108., 7.74999999999998, 31.));
#41 = CARTESIAN_POINT ('', (-107.75, -24., 16.));
#42 = CARTESIAN_POINT ('', (-107.833333333334, -23.7499999999999, 15.8333333333333));
#43 = CARTESIAN_POINT ('', (-107.916666666667, -23.5, 15.6666666666666));
#44 = CARTESIAN_POINT ('', (-108., -23.25, 15.5));
#45 = CARTESIAN_POINT ('', (-107.75, -24., -16.));
#46 = CARTESIAN_POINT ('', (-107.833333333334, -23.7499999999999, -15.8333333333333));
#47 = CARTESIAN_POINT ('', (-107.916666666667, -23.5, -15.6666666666667));
#48 = CARTESIAN_POINT ('', (-108., -23.25, -15.5));
#49 = CARTESIAN_POINT ('', (-107.75, 8.00000000000002, -32.));
#50 = CARTESIAN_POINT ('', (-107.833333333334, 7.91666666666667, -31.6666666666666));
#51 = CARTESIAN_POINT ('', (-107.916666666667, 7.83333333333336, -31.3333333333333));
#52 = CARTESIAN_POINT ('', (-108., 7.75000000000002, -31.));
#53 = CARTESIAN_POINT ('', (-107.75, 8., -1.95943487863576E-15));
#54 = CARTESIAN_POINT ('', (-107.833333333334, 7.91666666666665, -1.93902409864997E-15));
#55 = CARTESIAN_POINT ('', (-107.916666666667, 7.83333333333334, -1.91861331866419E-15));
#56 = CARTESIAN_POINT ('', (-108., 7.75, -1.89820253867839E-15));
#57 = (
   BOUNDED_SURFACE ()
   B_SPLINE_SURFACE (5, 3, ((#33, #34, #35, #36), (#37, #38, #39, #40), (#41, #42, #43, #44), (#45, #46, #47, #48), (#49, #50, #51, #52), (#53, #54, #55, #56)), .UNSPECIFIED., .T., .F., .U.)
   B_SPLINE_SURFACE_WITH_KNOTS ((6, 6), (4, 4), (0., 1.), (0., 1.), .UNSPECIFIED.)
   SURFACE ()
   GEOMETRIC_REPRESENTATION_ITEM ()
   RATIONAL_B_SPLINE_SURFACE (((5., 5., 5., 5.), (1., 1., 1., 1.), (1., 1., 1., 1.), (1., 1., 1., 1.), (1., 1., 1., 1.), (5., 5., 5., 5.)))
   REPRESENTATION_ITEM ('')
);
#58 = ADVANCED_FACE ('', (#32), #57, .F.);
#59 = CARTESIAN_POINT ('', (-108., 6.61309271539571E-15, -6.61309271539571E-15));
#60 = VERTEX_POINT ('', #59);
#61 = CARTESIAN_POINT ('', (-108., 7.75, -1.89820253867839E-15));
#62 = CARTESIAN_POINT ('', (-108., 6.61309271539571E-15, -6.61309271539571E-15));
#63 = B_SPLINE_CURVE_WITH_KNOTS ('', 1, (#61, #62), .UNSPECIFIED., .F., .U., (2, 2), (0., 1.), .UNSPECIFIED.);
#64 = EDGE_CURVE ('', #4, #60, #63, .T.);
#65 = ORIENTED_EDGE ('', *, *, #64, .F.);
#66 = ORIENTED_EDGE ('', *, *, #29, .T.);
#67 = ORIENTED_EDGE ('', *, *, #64, .T.);
#68 = EDGE_LOOP ('', (#65, #66, #67));
#69 = FACE_OUTER_BOUND ('', #68, .F.);
#70 = CARTESIAN_POINT ('', (-108., 7.75, -1.89820253867839E-15));
#71 = CARTESIAN_POINT ('', (-108., 6.61309271539571E-15, -6.61309271539571E-15));
#72 = CARTESIAN_POINT ('', (-108., 7.74999999999998, 31.));
#73 = CARTESIAN_POINT ('', (-108., 6.61309271539571E-15, -6.61309271539571E-15));
#74 = CARTESIAN_POINT ('', (-108., -23.25, 15.5));
#75 = CARTESIAN_POINT ('', (-108., 6.61309271539571E-15, -6.61309271539571E-15));
#76 = CARTESIAN_POINT ('', (-108., -23.25, -15.5));
#77 = CARTESIAN_POINT ('', (-108., 6.61309271539571E-15, -6.61309271539571E-15));
#78 = CARTESIAN_POINT ('', (-108., 7.75000000000002, -31.));
#79 = CARTESIAN_POINT ('', (-108., 6.61309271539571E-15, -6.61309271539571E-15));
#80 = CARTESIAN_POINT ('', (-108., 7.75, -1.89820253867839E-15));
#81 = CARTESIAN_POINT ('', (-108., 6.61309271539571E-15, -6.61309271539571E-15));
#82 = (
   BOUNDED_SURFACE ()
   B_SPLINE_SURFACE (5, 1, ((#70, #71), (#72, #73), (#74, #75), (#76, #77), (#78, #79), (#80, #81)), .UNSPECIFIED., .T., .F., .U.)
   B_SPLINE_SURFACE_WITH_KNOTS ((6, 6), (2, 2), (0., 1.), (0., 1.), .UNSPECIFIED.)
   SURFACE ()
   GEOMETRIC_REPRESENTATION_ITEM ()
   RATIONAL_B_SPLINE_SURFACE (((5., 5.), (1., 1.), (1., 1.), (1., 1.), (1., 1.), (5., 5.)))
   REPRESENTATION_ITEM ('')
);
#83 = ADVANCED_FACE ('', (#69), #82, .F.);
#84 = CARTESIAN_POINT ('', (-27.4641016151378, 8., -1.95943487863576E-15));
#85 = VERTEX_POINT ('', #84);
#86 = CARTESIAN_POINT ('', (-27.4641016151378, 8., -1.95943487863576E-15));
#87 = CARTESIAN_POINT ('', (-54.2260677434253, 8., -1.95943487863576E-15));
#88 = CARTESIAN_POINT ('', (-80.9880338717126, 8., -1.95943487863576E-15));
#89 = CARTESIAN_POINT ('', (-107.75, 8., -1.95943487863576E-15));
#90 = B_SPLINE_CURVE_WITH_KNOTS ('', 3, (#86, #87, #88, #89), .UNSPECIFIED., .F., .U., (4, 4), (0., 1.), .UNSPECIFIED.);
#91 = EDGE_CURVE ('', #85, #2, #90, .T.);
#92 = ORIENTED_EDGE ('', *, *, #91, .F.);
#93 = CARTESIAN_POINT ('', (-27.4641016151378, 8., -1.95943487863576E-15));
#94 = CARTESIAN_POINT ('', (-27.4641016151378, 8., 32.));
#95 = CARTESIAN_POINT ('', (-27.4641016151378, -24., 16.));
#96 = CARTESIAN_POINT ('', (-27.4641016151378, -24., -16.));
#97 = CARTESIAN_POINT ('', (-27.4641016151378, 8., -32.));
#98 = CARTESIAN_POINT ('', (-27.4641016151378, 8., -1.95943487863576E-15));
#99 = (
   BOUNDED_CURVE ()
   B_SPLINE_CURVE (5, (#93, #94, #95, #96, #97, #98), .UNSPECIFIED., .T., .U.)
   B_SPLINE_CURVE_WITH_KNOTS ((6, 6), (0., 1.), .UNSPECIFIED.)
   CURVE ()
   GEOMETRIC_REPRESENTATION_ITEM ()
   RATIONAL_B_SPLINE_CURVE ((5., 1., 1., 1., 1., 5.))
   REPRESENTATION_ITEM ('')
);
#100 = EDGE_CURVE ('', #85, #85, #99, .T.);
#101 = ORIENTED_EDGE ('', *, *, #100, .T.);
#102 = ORIENTED_EDGE ('', *, *, #91, .T.);
#103 = ORIENTED_EDGE ('', *, *, #19, .F.);
#104 = EDGE_LOOP ('', (#92, #101, #102, #103));
#105 = FACE_OUTER_BOUND ('', #104, .F.);
#106 = CARTESIAN_POINT ('', (-27.4641016151378, 8., -1.95943487863576E-15));
#107 = CARTESIAN_POINT ('', (-54.2260677434253, 8., -1.95943487863576E-15));
#108 = CARTESIAN_POINT ('', (-80.9880338717126, 8., -1.95943487863576E-15));
#109 = CARTESIAN_POINT ('', (-107.75, 8., -1.95943487863576E-15));
#110 = CARTESIAN_POINT ('', (-27.4641016151378, 8., 32.));
#111 = CARTESIAN_POINT ('', (-54.2260677434253, 7.99999999999999, 32.));
#112 = CARTESIAN_POINT ('', (-80.9880338717126, 7.99999999999999, 32.));
#113 = CARTESIAN_POINT ('', (-107.75, 7.99999999999998, 32.));
#114 = CARTESIAN_POINT ('', (-27.4641016151378, -24., 16.));
#115 = CARTESIAN_POINT ('', (-54.2260677434253, -24., 16.));
#116 = CARTESIAN_POINT ('', (-80.9880338717126, -24., 16.));
#117 = CARTESIAN_POINT ('', (-107.75, -24., 16.));
#118 = CARTESIAN_POINT ('', (-27.4641016151378, -24., -16.));
#119 = CARTESIAN_POINT ('', (-54.2260677434253, -24., -16.));
#120 = CARTESIAN_POINT ('', (-80.9880338717126, -24., -16.));
#121 = CARTESIAN_POINT ('', (-107.75, -24., -16.));
#122 = CARTESIAN_POINT ('', (-27.4641016151378, 8., -32.));
#123 = CARTESIAN_POINT ('', (-54.2260677434253, 8.00000000000001, -32.));
#124 = CARTESIAN_POINT ('', (-80.9880338717126, 8.00000000000001, -32.));
#125 = CARTESIAN_POINT ('', (-107.75, 8.00000000000002, -32.));
#126 = CARTESIAN_POINT ('', (-27.4641016151378, 8., -1.95943487863576E-15));
#127 = CARTESIAN_POINT ('', (-54.2260677434253, 8., -1.95943487863576E-15));
#128 = CARTESIAN_POINT ('', (-80.9880338717126, 8., -1.95943487863576E-15));
#129 = CARTESIAN_POINT ('', (-107.75, 8., -1.95943487863576E-15));
#130 = (
   BOUNDED_SURFACE ()
   B_SPLINE_SURFACE (5, 3, ((#106, #107, #108, #109), (#110, #111, #112, #113), (#114, #115, #116, #117), (#118, #119, #120, #121), (#122, #123, #124, #125), (#126, #127, #128, #129)), .UNSPECIFIED., .T., .F., .U.)
   B_SPLINE_SURFACE_WITH_KNOTS ((6, 6), (4, 4), (0., 1.), (0., 1.), .UNSPECIFIED.)
   SURFACE ()
   GEOMETRIC_REPRESENTATION_ITEM ()
   RATIONAL_B_SPLINE_SURFACE (((5., 5., 5., 5.), (1., 1., 1., 1.), (1., 1., 1., 1.), (1., 1., 1., 1.), (1., 1., 1., 1.), (5., 5., 5., 5.)))
   REPRESENTATION_ITEM ('')
);
#131 = ADVANCED_FACE ('', (#105), #130, .F.);
#132 = CARTESIAN_POINT ('', (-24., 6., -1.46957615897682E-15));
#133 = VERTEX_POINT ('', #132);
#134 = CARTESIAN_POINT ('', (-24., 6., -1.46957615897682E-15));
#135 = CARTESIAN_POINT ('', (-25.1547005383794, 6.66666666666667, -1.63286239886314E-15));
#136 = CARTESIAN_POINT ('', (-26.3094010767586, 7.33333333333334, -1.79614863874945E-15));
#137 = CARTESIAN_POINT ('', (-27.4641016151378, 8., -1.95943487863576E-15));
#138 = B_SPLINE_CURVE_WITH_KNOTS ('', 3, (#134, #135, #136, #137), .UNSPECIFIED., .F., .U., (4, 4), (0., 1.), .UNSPECIFIED.);
#139 = EDGE_CURVE ('', #133, #85, #138, .T.);
#140 = ORIENTED_EDGE ('', *, *, #139, .F.);
#141 = CARTESIAN_POINT ('', (-24., 6., -1.46957615897682E-15));
#142 = CARTESIAN_POINT ('', (-24., 6., 24.));
#143 = CARTESIAN_POINT ('', (-24., -18., 12.));
#144 = CARTESIAN_POINT ('', (-24., -18., -12.));
#145 = CARTESIAN_POINT ('', (-24., 6., -24.));
#146 = CARTESIAN_POINT ('', (-24., 6., -1.46957615897682E-15));
#147 = (
   BOUNDED_CURVE ()
   B_SPLINE_CURVE (5, (#141, #142, #143, #144, #145, #146), .UNSPECIFIED., .T., .U.)
   B_SPLINE_CURVE_WITH_KNOTS ((6, 6), (0., 1.), .UNSPECIFIED.)
   CURVE ()
   GEOMETRIC_REPRESENTATION_ITEM ()
   RATIONAL_B_SPLINE_CURVE ((5., 1., 1., 1., 1., 5.))
   REPRESENTATION_ITEM ('')
);
#148 = EDGE_CURVE ('', #133, #133, #147, .T.);
#149 = ORIENTED_EDGE ('', *, *, #148, .T.);
#150 = ORIENTED_EDGE ('', *, *, #139, .T.);
#151 = ORIENTED_EDGE ('', *, *, #100, .F.);
#152 = EDGE_LOOP ('', (#140, #149, #150, #151));
#153 = FACE_OUTER_BOUND ('', #152, .F.);
#154 = CARTESIAN_POINT ('', (-24., 6., -1.46957615897682E-15));
#155 = CARTESIAN_POINT ('', (-25.1547005383794, 6.66666666666667, -1.63286239886314E-15));
#156 = CARTESIAN_POINT ('', (-26.3094010767586, 7.33333333333334, -1.79614863874945E-15));
#157 = CARTESIAN_POINT ('', (-27.4641016151378, 8., -1.95943487863576E-15));
#158 = CARTESIAN_POINT ('', (-24., 6., 24.));
#159 = CARTESIAN_POINT ('', (-25.1547005383794, 6.66666666666667, 26.6666666666667));
#160 = CARTESIAN_POINT ('', (-26.3094010767586, 7.33333333333334, 29.3333333333334));
#161 = CARTESIAN_POINT ('', (-27.4641016151378, 8., 32.));
#162 = CARTESIAN_POINT ('', (-24., -18., 12.));
#163 = CARTESIAN_POINT ('', (-25.1547005383794, -20., 13.3333333333333));
#164 = CARTESIAN_POINT ('', (-26.3094010767586, -22., 14.6666666666667));
#165 = CARTESIAN_POINT ('', (-27.4641016151378, -24., 16.));
#166 = CARTESIAN_POINT ('', (-24., -18., -12.));
#167 = CARTESIAN_POINT ('', (-25.1547005383794, -20., -13.3333333333333));
#168 = CARTESIAN_POINT ('', (-26.3094010767586, -22., -14.6666666666667));
#169 = CARTESIAN_POINT ('', (-27.4641016151378, -24., -16.));
#170 = CARTESIAN_POINT ('', (-24., 6., -24.));
#171 = CARTESIAN_POINT ('', (-25.1547005383794, 6.66666666666667, -26.6666666666667));
#172 = CARTESIAN_POINT ('', (-26.3094010767586, 7.33333333333334, -29.3333333333334));
#173 = CARTESIAN_POINT ('', (-27.4641016151378, 8., -32.));
#174 = CARTESIAN_POINT ('', (-24., 6., -1.46957615897682E-15));
#175 = CARTESIAN_POINT ('', (-25.1547005383794, 6.66666666666667, -1.63286239886314E-15));
#176 = CARTESIAN_POINT ('', (-26.3094010767586, 7.33333333333334, -1.79614863874945E-15));
#177 = CARTESIAN_POINT ('', (-27.4641016151378, 8., -1.95943487863576E-15));
#178 = (
   BOUNDED_SURFACE ()
   B_SPLINE_SURFACE (5, 3, ((#154, #155, #156, #157), (#158, #159, #160, #161), (#162, #163, #164, #165), (#166, #167, #168, #169), (#170, #171, #172, #173), (#174, #175, #176, #177)), .UNSPECIFIED., .T., .F., .U.)
   B_SPLINE_SURFACE_WITH_KNOTS ((6, 6), (4, 4), (0., 1.), (0., 1.), .UNSPECIFIED.)
   SURFACE ()
   GEOMETRIC_REPRESENTATION_ITEM ()
   RATIONAL_B_SPLINE_SURFACE (((5., 5., 5., 5.), (1., 1., 1., 1.), (1., 1., 1., 1.), (1., 1., 1., 1.), (1., 1., 1., 1.), (5., 5., 5., 5.)))
   REPRESENTATION_ITEM ('')
);
#179 = ADVANCED_FACE ('', (#153), #178, .F.);
#180 = CARTESIAN_POINT ('', (-6., 6., -1.46957615897682E-15));
#181 = VERTEX_POINT ('', #180);
#182 = CARTESIAN_POINT ('', (-6., 6., -1.46957615897682E-15));
#183 = CARTESIAN_POINT ('', (-12., 6., -1.46957615897682E-15));
#184 = CARTESIAN_POINT ('', (-18., 6., -1.46957615897682E-15));
#185 = CARTESIAN_POINT ('', (-24., 6., -1.46957615897682E-15));
#186 = B_SPLINE_CURVE_WITH_KNOTS ('', 3, (#182, #183, #184, #185), .UNSPECIFIED., .F., .U., (4, 4), (0., 1.), .UNSPECIFIED.);
#187 = EDGE_CURVE ('', #181, #133, #186, .T.);
#188 = ORIENTED_EDGE ('', *, *, #187, .F.);
#189 = CARTESIAN_POINT ('', (-6., 6., -1.46957615897682E-15));
#190 = CARTESIAN_POINT ('', (-6., 6., 24.));
#191 = CARTESIAN_POINT ('', (-6., -18., 12.));
#192 = CARTESIAN_POINT ('', (-6., -18., -12.));
#193 = CARTESIAN_POINT ('', (-6., 6., -24.));
#194 = CARTESIAN_POINT ('', (-6., 6., -1.46957615897682E-15));
#195 = (
   BOUNDED_CURVE ()
   B_SPLINE_CURVE (5, (#189, #190, #191, #192, #193, #194), .UNSPECIFIED., .T., .U.)
   B_SPLINE_CURVE_WITH_KNOTS ((6, 6), (0., 1.), .UNSPECIFIED.)
   CURVE ()
   GEOMETRIC_REPRESENTATION_ITEM ()
   RATIONAL_B_SPLINE_CURVE ((5., 1., 1., 1., 1., 5.))
   REPRESENTATION_ITEM ('')
);
#196 = EDGE_CURVE ('', #181, #181, #195, .T.);
#197 = ORIENTED_EDGE ('', *, *, #196, .T.);
#198 = ORIENTED_EDGE ('', *, *, #187, .T.);
#199 = ORIENTED_EDGE ('', *, *, #148, .F.);
#200 = EDGE_LOOP ('', (#188, #197, #198, #199));
#201 = FACE_OUTER_BOUND ('', #200, .F.);
#202 = CARTESIAN_POINT ('', (-6., 6., -1.46957615897682E-15));
#203 = CARTESIAN_POINT ('', (-12., 6., -1.46957615897682E-15));
#204 = CARTESIAN_POINT ('', (-18., 6., -1.46957615897682E-15));
#205 = CARTESIAN_POINT ('', (-24., 6., -1.46957615897682E-15));
#206 = CARTESIAN_POINT ('', (-6., 6., 24.));
#207 = CARTESIAN_POINT ('', (-12., 6., 24.));
#208 = CARTESIAN_POINT ('', (-18., 6., 24.));
#209 = CARTESIAN_POINT ('', (-24., 6., 24.));
#210 = CARTESIAN_POINT ('', (-6., -18., 12.));
#211 = CARTESIAN_POINT ('', (-12., -18., 12.));
#212 = CARTESIAN_POINT ('', (-18., -18., 12.));
#213 = CARTESIAN_POINT ('', (-24., -18., 12.));
#214 = CARTESIAN_POINT ('', (-6., -18., -12.));
#215 = CARTESIAN_POINT ('', (-12., -18., -12.));
#216 = CARTESIAN_POINT ('', (-18., -18., -12.));
#217 = CARTESIAN_POINT ('', (-24., -18., -12.));
#218 = CARTESIAN_POINT ('', (-6., 6., -24.));
#219 = CARTESIAN_POINT ('', (-12., 6., -24.));
#220 = CARTESIAN_POINT ('', (-18., 6., -24.));
#221 = CARTESIAN_POINT ('', (-24., 6., -24.));
#222 = CARTESIAN_POINT ('', (-6., 6., -1.46957615897682E-15));
#223 = CARTESIAN_POINT ('', (-12., 6., -1.46957615897682E-15));
#224 = CARTESIAN_POINT ('', (-18., 6., -1.46957615897682E-15));
#225 = CARTESIAN_POINT ('', (-24., 6., -1.46957615897682E-15));
#226 = (
   BOUNDED_SURFACE ()
   B_SPLINE_SURFACE (5, 3, ((#202, #203, #204, #205), (#206, #207, #208, #209), (#210, #211, #212, #213), (#214, #215, #216, #217), (#218, #219, #220, #221), (#222, #223, #224, #225)), .UNSPECIFIED., .T., .F., .U.)
   B_SPLINE_SURFACE_WITH_KNOTS ((6, 6), (4, 4), (0., 1.), (0., 1.), .UNSPECIFIED.)
   SURFACE ()
   GEOMETRIC_REPRESENTATION_ITEM ()
   RATIONAL_B_SPLINE_SURFACE (((5., 5., 5., 5.), (1., 1., 1., 1.), (1., 1., 1., 1.), (1., 1., 1., 1.), (1., 1., 1., 1.), (5., 5., 5., 5.)))
   REPRESENTATION_ITEM ('')
);
#227 = ADVANCED_FACE ('', (#201), #226, .F.);
#228 = CARTESIAN_POINT ('', (0., 0., 0.));
#229 = VERTEX_POINT ('', #228);
#230 = CARTESIAN_POINT ('', (0., 0., 0.));
#231 = CARTESIAN_POINT ('', (6.16297582203915E-33, 0.65553226667836, -1.60559098425092E-16));
#232 = CARTESIAN_POINT ('', (-0.175025814678546, 1.71136952809112, -4.19164642947022E-16));
#233 = CARTESIAN_POINT ('', (-0.873290107694446, 3.24233808492332, -7.94143791490982E-16));
#234 = CARTESIAN_POINT ('', (-1.78608630185971, 4.3651308621155, -1.06914870762981E-15));
#235 = CARTESIAN_POINT ('', (-2.94691256530546, 5.21302582015075, -1.27682307690402E-15));
#236 = CARTESIAN_POINT ('', (-4.28863047190887, 5.82497418532145, -1.42670719823397E-15));
#237 = CARTESIAN_POINT ('', (-5.34446773332164, 6., -1.46957615897682E-15));
#238 = CARTESIAN_POINT ('', (-6., 6., -1.46957615897682E-15));
#239 = B_SPLINE_CURVE_WITH_KNOTS ('', 3, (#230, #231, #232, #233, #234, #235, #236, #237, #238), .UNSPECIFIED., .F., .U., (4, 1, 1, 1, 1, 1, 4), (0., 0.208662401196191, 0.33617370428258, 0.532939663384363, 0.66382629571742, 0.791337598803809, 1.), .UNSPECIFIED.);
#240 = EDGE_CURVE ('', #229, #181, #239, .T.);
#241 = ORIENTED_EDGE ('', *, *, #240, .F.);
#242 = ORIENTED_EDGE ('', *, *, #240, .T.);
#243 = ORIENTED_EDGE ('', *, *, #196, .F.);
#244 = EDGE_LOOP ('', (#241, #242, #243));
#245 = FACE_OUTER_BOUND ('', #244, .F.);
#246 = CARTESIAN_POINT ('', (0., 0., 0.));
#247 = CARTESIAN_POINT ('', (6.16297582203915E-33, 0.65553226667836, -1.60559098425092E-16));
#248 = CARTESIAN_POINT ('', (-0.175025814678546, 1.71136952809112, -4.19164642947022E-16));
#249 = CARTESIAN_POINT ('', (-0.873290107694446, 3.24233808492332, -7.94143791490982E-16));
#250 = CARTESIAN_POINT ('', (-1.78608630185971, 4.3651308621155, -1.06914870762981E-15));
#251 = CARTESIAN_POINT ('', (-2.94691256530546, 5.21302582015075, -1.27682307690402E-15));
#252 = CARTESIAN_POINT ('', (-4.28863047190887, 5.82497418532145, -1.42670719823397E-15));
#253 = CARTESIAN_POINT ('', (-5.34446773332164, 6., -1.46957615897682E-15));
#254 = CARTESIAN_POINT ('', (-6., 6., -1.46957615897682E-15));
#255 = CARTESIAN_POINT ('', (0., 0., 0.));
#256 = CARTESIAN_POINT ('', (-1.60559098425092E-16, 0.65553226667836, 2.62212906671344));
#257 = CARTESIAN_POINT ('', (-0.175025814678547, 1.71136952809112, 6.84547811236449));
#258 = CARTESIAN_POINT ('', (-0.873290107694446, 3.24233808492333, 12.9693523396933));
#259 = CARTESIAN_POINT ('', (-1.78608630185971, 4.3651308621155, 17.460523448462));
#260 = CARTESIAN_POINT ('', (-2.94691256530546, 5.21302582015076, 20.852103280603));
#261 = CARTESIAN_POINT ('', (-4.28863047190887, 5.82497418532145, 23.2998967412858));
#262 = CARTESIAN_POINT ('', (-5.34446773332164, 6., 24.));
#263 = CARTESIAN_POINT ('', (-6., 6., 24.));
#264 = CARTESIAN_POINT ('', (0., 0., 0.));
#265 = CARTESIAN_POINT ('', (-2.40838647637639E-16, -1.96659680003508, 1.31106453335672));
#266 = CARTESIAN_POINT ('', (-0.175025814678547, -5.13410858427337, 3.42273905618225));
#267 = CARTESIAN_POINT ('', (-0.873290107694447, -9.72701425476997, 6.48467616984665));
#268 = CARTESIAN_POINT ('', (-1.78608630185971, -13.0953925863465, 8.730261724231));
#269 = CARTESIAN_POINT ('', (-2.94691256530546, -15.6390774604523, 10.4260516403015));
#270 = CARTESIAN_POINT ('', (-4.28863047190887, -17.4749225559643, 11.6499483706429));
#271 = CARTESIAN_POINT ('', (-5.34446773332164, -18., 12.));
#272 = CARTESIAN_POINT ('', (-6., -18., 12.));
#273 = CARTESIAN_POINT ('', (0., 0., 0.));
#274 = CARTESIAN_POINT ('', (-8.02795492125463E-17, -1.96659680003508, -1.31106453335672));
#275 = CARTESIAN_POINT ('', (-0.175025814678547, -5.13410858427337, -3.42273905618225));
#276 = CARTESIAN_POINT ('', (-0.873290107694446, -9.72701425476997, -6.48467616984665));
#277 = CARTESIAN_POINT ('', (-1.78608630185971, -13.0953925863465, -8.73026172423099));
#278 = CARTESIAN_POINT ('', (-2.94691256530546, -15.6390774604523, -10.4260516403015));
#279 = CARTESIAN_POINT ('', (-4.28863047190887, -17.4749225559643, -11.6499483706429));
#280 = CARTESIAN_POINT ('', (-5.34446773332164, -18., -12.));
#281 = CARTESIAN_POINT ('', (-6., -18., -12.));
#282 = CARTESIAN_POINT ('', (0., 0., 0.));
#283 = CARTESIAN_POINT ('', (1.60559098425092E-16, 0.655532266678359, -2.62212906671344));
#284 = CARTESIAN_POINT ('', (-0.175025814678546, 1.71136952809112, -6.84547811236449));
#285 = CARTESIAN_POINT ('', (-0.873290107694445, 3.24233808492332, -12.9693523396933));
#286 = CARTESIAN_POINT ('', (-1.78608630185971, 4.36513086211549, -17.460523448462));
#287 = CARTESIAN_POINT ('', (-2.94691256530545, 5.21302582015075, -20.852103280603));
#288 = CARTESIAN_POINT ('', (-4.28863047190887, 5.82497418532144, -23.2998967412858));
#289 = CARTESIAN_POINT ('', (-5.34446773332164, 5.99999999999999, -24.));
#290 = CARTESIAN_POINT ('', (-6., 6., -24.));
#291 = CARTESIAN_POINT ('', (0., 0., 0.));
#292 = CARTESIAN_POINT ('', (6.16297582203915E-33, 0.65553226667836, -1.60559098425092E-16));
#293 = CARTESIAN_POINT ('', (-0.175025814678546, 1.71136952809112, -4.19164642947022E-16));
#294 = CARTESIAN_POINT ('', (-0.873290107694446, 3.24233808492332, -7.94143791490982E-16));
#295 = CARTESIAN_POINT ('', (-1.78608630185971, 4.3651308621155, -1.06914870762981E-15));
#296 = CARTESIAN_POINT ('', (-2.94691256530546, 5.21302582015075, -1.27682307690402E-15));
#297 = CARTESIAN_POINT ('', (-4.28863047190887, 5.82497418532145, -1.42670719823397E-15));
#298 = CARTESIAN_POINT ('', (-5.34446773332164, 6., -1.46957615897682E-15));
#299 = CARTESIAN_POINT ('', (-6., 6., -1.46957615897682E-15));
#300 = (
   BOUNDED_SURFACE ()
   B_SPLINE_SURFACE (5, 3, ((#246, #247, #248, #249, #250, #251, #252, #253, #254), (#255, #256, #257, #258, #259, #260, #261, #262, #263), (#264, #265, #266, #267, #268, #269, #270, #271, #272), (#273, #274, #275, #276, #277, #278, #279, #280, #281), (#282, #283, #284, #285, #286, #287, #288, #289, #290), (#291, #292, #293, #294, #295, #296, #297, #298, #299)), .UNSPECIFIED., .T., .F., .U.)
   B_SPLINE_SURFACE_WITH_KNOTS ((6, 6), (4, 1, 1, 1, 1, 1, 4), (0., 1.), (0., 0.208662401196191, 0.33617370428258, 0.532939663384363, 0.66382629571742, 0.791337598803809, 1.), .UNSPECIFIED.)
   SURFACE ()
   GEOMETRIC_REPRESENTATION_ITEM ()
   RATIONAL_B_SPLINE_SURFACE (((5., 5., 5., 5., 5., 5., 5., 5., 5.), (1., 1., 1., 1., 1., 1., 1., 1., 1.), (1., 1., 1., 1., 1., 1., 1., 1., 1.), (1., 1., 1., 1., 1., 1., 1., 1., 1.), (1., 1., 1., 1., 1., 1., 1., 1., 1.), (5., 5., 5., 5., 5., 5., 5., 5., 5.)))
   REPRESENTATION_ITEM ('')
);
#301 = ADVANCED_FACE ('', (#245), #300, .F.);
#302 = CLOSED_SHELL ('', (#58, #83, #131, #179, #227, #301));
#303 = MANIFOLD_SOLID_BREP ('', #302);
#304 = (
   LENGTH_UNIT ()
   NAMED_UNIT (*)
   SI_UNIT (.MILLI., .METRE.)
);
#305 = (
   NAMED_UNIT (*)
   SI_UNIT ($, .STERADIAN.)
   SOLID_ANGLE_UNIT ()
);
#306 = (
   NAMED_UNIT (*)
   SI_UNIT ($, .RADIAN.)
   PLANE_ANGLE_UNIT ()
);
#307 = UNCERTAINTY_MEASURE_WITH_UNIT (LENGTH_MEASURE(0.001), #304, 'DISTANCE_ACCURACY_VALUE', '');
#308 = (
   GEOMETRIC_REPRESENTATION_CONTEXT (3)
   GLOBAL_UNCERTAINTY_ASSIGNED_CONTEXT ((#307))
   GLOBAL_UNIT_ASSIGNED_CONTEXT ((#304, #305, #306))
   REPRESENTATION_CONTEXT ('', '3D')
);
#309 = SHAPE_REPRESENTATION ('', (), #308);
#310 = APPLICATION_CONTEXT ('configuration controlled 3D designs of mechanical parts and assemblies');
#311 = APPLICATION_PROTOCOL_DEFINITION ('International Standard', 'config_control_design', 1997, #310);
#312 = MECHANICAL_CONTEXT ('', #310, 'mechanical');
#313 = PRODUCT ('', '', '', (#312));
#314 = PERSON_AND_ORGANIZATION_ROLE ('design_owner');
#315 = PERSON ('', '', $, $, $, $);
#316 = ORGANIZATION ($, '', '');
#317 = PERSON_AND_ORGANIZATION (#315, #316);
#318 = CC_DESIGN_PERSON_AND_ORGANIZATION_ASSIGNMENT (#317, #314, (#313));
#319 = PRODUCT_RELATED_PRODUCT_CATEGORY ('detail', $, (#313));
#320 = PRODUCT_DEFINITION_FORMATION_WITH_SPECIFIED_SOURCE ('', '', #313, .NOT_KNOWN.);
#321 = APPROVAL_STATUS ('approved');
#322 = APPROVAL (#321, '');
#323 = CALENDAR_DATE (2020, 8, 7);
#324 = COORDINATED_UNIVERSAL_TIME_OFFSET (0, $, .AHEAD.);
#325 = LOCAL_TIME (14, 38, 35., #324);
#326 = DATE_AND_TIME (#323, #325);
#327 = APPROVAL_DATE_TIME (#326, #322);
#328 = APPROVAL_ROLE ('');
#329 = PERSON ('', '', $, $, $, $);
#330 = ORGANIZATION ($, '', '');
#331 = PERSON_AND_ORGANIZATION (#329, #330);
#332 = APPROVAL_PERSON_ORGANIZATION (#331, #322, #328);
#333 = CC_DESIGN_APPROVAL (#322, (#320));
#334 = PERSON_AND_ORGANIZATION_ROLE ('creator');
#335 = PERSON ('', '', $, $, $, $);
#336 = ORGANIZATION ($, '', '');
#337 = PERSON_AND_ORGANIZATION (#335, #336);
#338 = CC_DESIGN_PERSON_AND_ORGANIZATION_ASSIGNMENT (#337, #334, (#320));
#339 = PERSON_AND_ORGANIZATION_ROLE ('part_supplier');
#340 = PERSON ('', '', $, $, $, $);
#341 = ORGANIZATION ($, '', '');
#342 = PERSON_AND_ORGANIZATION (#340, #341);
#343 = CC_DESIGN_PERSON_AND_ORGANIZATION_ASSIGNMENT (#342, #339, (#320));
#344 = SECURITY_CLASSIFICATION_LEVEL ('unclassified');
#345 = SECURITY_CLASSIFICATION ('', '', #344);
#346 = APPROVAL_STATUS ('approved');
#347 = APPROVAL (#346, '');
#348 = CALENDAR_DATE (2020, 8, 7);
#349 = COORDINATED_UNIVERSAL_TIME_OFFSET (0, $, .AHEAD.);
#350 = LOCAL_TIME (14, 38, 35., #349);
#351 = DATE_AND_TIME (#348, #350);
#352 = APPROVAL_DATE_TIME (#351, #347);
#353 = APPROVAL_ROLE ('');
#354 = PERSON ('', '', $, $, $, $);
#355 = ORGANIZATION ($, '', '');
#356 = PERSON_AND_ORGANIZATION (#354, #355);
#357 = APPROVAL_PERSON_ORGANIZATION (#356, #347, #353);
#358 = CC_DESIGN_APPROVAL (#347, (#345));
#359 = DATE_TIME_ROLE ('classification_date');
#360 = CALENDAR_DATE (2020, 8, 7);
#361 = COORDINATED_UNIVERSAL_TIME_OFFSET (0, $, .AHEAD.);
#362 = LOCAL_TIME (14, 38, 35., #361);
#363 = DATE_AND_TIME (#360, #362);
#364 = CC_DESIGN_DATE_AND_TIME_ASSIGNMENT (#363, #359, (#345));
#365 = PERSON_AND_ORGANIZATION_ROLE ('classification_officer');
#366 = PERSON ('', '', $, $, $, $);
#367 = ORGANIZATION ($, '', '');
#368 = PERSON_AND_ORGANIZATION (#366, #367);
#369 = CC_DESIGN_PERSON_AND_ORGANIZATION_ASSIGNMENT (#368, #365, (#345));
#370 = CC_DESIGN_SECURITY_CLASSIFICATION (#345, (#320));
#371 = DESIGN_CONTEXT ('', #310, 'design');
#372 = PRODUCT_DEFINITION ('', '', #320, #371);
#373 = APPROVAL_STATUS ('approved');
#374 = APPROVAL (#373, '');
#375 = CALENDAR_DATE (2020, 8, 7);
#376 = COORDINATED_UNIVERSAL_TIME_OFFSET (0, $, .AHEAD.);
#377 = LOCAL_TIME (14, 38, 35., #376);
#378 = DATE_AND_TIME (#375, #377);
#379 = APPROVAL_DATE_TIME (#378, #374);
#380 = APPROVAL_ROLE ('');
#381 = PERSON ('', '', $, $, $, $);
#382 = ORGANIZATION ($, '', '');
#383 = PERSON_AND_ORGANIZATION (#381, #382);
#384 = APPROVAL_PERSON_ORGANIZATION (#383, #374, #380);
#385 = CC_DESIGN_APPROVAL (#374, (#372));
#386 = DATE_TIME_ROLE ('creation_date');
#387 = CALENDAR_DATE (2020, 8, 7);
#388 = COORDINATED_UNIVERSAL_TIME_OFFSET (0, $, .AHEAD.);
#389 = LOCAL_TIME (14, 38, 35., #388);
#390 = DATE_AND_TIME (#387, #389);
#391 = CC_DESIGN_DATE_AND_TIME_ASSIGNMENT (#390, #386, (#372));
#392 = PERSON_AND_ORGANIZATION_ROLE ('creator');
#393 = PERSON ('', '', $, $, $, $);
#394 = ORGANIZATION ($, '', '');
#395 = PERSON_AND_ORGANIZATION (#393, #394);
#396 = CC_DESIGN_PERSON_AND_ORGANIZATION_ASSIGNMENT (#395, #392, (#372));
#397 = PRODUCT_DEFINITION_SHAPE ('', '', #372);
#398 = SHAPE_DEFINITION_REPRESENTATION (#397, #309);
#399 = SHAPE_REPRESENTATION_RELATIONSHIP ('', '', #309, #400);
#400 = ADVANCED_BREP_SHAPE_REPRESENTATION ('', (#303), #308);
ENDSEC;
END-ISO-10303-21;
