ISO-10303-21;
HEADER;
FILE_DESCRIPTION ((), '1');
FILE_NAME ('C:\\Users\\kevin\\MFB Range\\New File.STP', '2020-07-09T12:13:00', ('Unknown'), ('mafordeurope'), 'OneCNC-XR7 Mill 3D Expert', 'OneCNC-XR7 Mill 3D Expert', '');
FILE_SCHEMA (('CONFIG_CONTROL_DESIGN'));
ENDSEC;

DATA;
#1 = CARTESIAN_POINT ('', (-3., 3., -7.34788079488412E-16));
#2 = VERTEX_POINT ('', #1);
#3 = CARTESIAN_POINT ('', (0., 0., 0.));
#4 = VERTEX_POINT ('', #3);
#5 = CARTESIAN_POINT ('', (-3., 3., -7.34788079488412E-16));
#6 = CARTESIAN_POINT ('', (-2.67223386666082, 3., -7.34788079488412E-16));
#7 = CARTESIAN_POINT ('', (-1.93877419916663, 2.87841461887293, -7.05008249924336E-16));
#8 = CARTESIAN_POINT ('', (-1.02090020810345, 2.33983709939422, -5.73094802859872E-16));
#9 = CARTESIAN_POINT ('', (-0.436645053847222, 1.62116904246166, -3.9707189574549E-16));
#10 = CARTESIAN_POINT ('', (-0.0875129073392734, 0.855684764045563, -2.09582321473511E-16));
#11 = CARTESIAN_POINT ('', (3.08148791101958E-33, 0.32776613333918, -8.02795492125462E-17));
#12 = CARTESIAN_POINT ('', (0., 0., 0.));
#13 = B_SPLINE_CURVE_WITH_KNOTS ('', 3, (#5, #6, #7, #8, #9, #10, #11, #12), .UNSPECIFIED., .F., .U., (4, 1, 1, 1, 1, 4), (0., 0.208662401196191, 0.467060336615637, 0.66382629571742, 0.791337598803809, 1.), .UNSPECIFIED.);
#14 = EDGE_CURVE ('', #2, #4, #13, .T.);
#15 = ORIENTED_EDGE ('', *, *, #14, .F.);
#16 = CARTESIAN_POINT ('', (-3., 3., -7.34788079488412E-16));
#17 = CARTESIAN_POINT ('', (-3., 3., 12.));
#18 = CARTESIAN_POINT ('', (-3., -9., 6.));
#19 = CARTESIAN_POINT ('', (-3., -9., -6.));
#20 = CARTESIAN_POINT ('', (-3., 3., -12.));
#21 = CARTESIAN_POINT ('', (-3., 3., -7.34788079488412E-16));
#22 = (
   BOUNDED_CURVE ()
   B_SPLINE_CURVE (5, (#16, #17, #18, #19, #20, #21), .UNSPECIFIED., .T., .U.)
   B_SPLINE_CURVE_WITH_KNOTS ((6, 6), (0., 1.), .UNSPECIFIED.)
   CURVE ()
   GEOMETRIC_REPRESENTATION_ITEM ()
   RATIONAL_B_SPLINE_CURVE ((5., 1., 1., 1., 1., 5.))
   REPRESENTATION_ITEM ('')
);
#23 = EDGE_CURVE ('', #2, #2, #22, .T.);
#24 = ORIENTED_EDGE ('', *, *, #23, .T.);
#25 = ORIENTED_EDGE ('', *, *, #14, .T.);
#26 = EDGE_LOOP ('', (#15, #24, #25));
#27 = FACE_OUTER_BOUND ('', #26, .T.);
#28 = CARTESIAN_POINT ('', (-3., 3., -7.34788079488412E-16));
#29 = CARTESIAN_POINT ('', (-2.67223386666082, 3., -7.34788079488412E-16));
#30 = CARTESIAN_POINT ('', (-1.93877419916663, 2.87841461887293, -7.05008249924336E-16));
#31 = CARTESIAN_POINT ('', (-1.02090020810345, 2.33983709939422, -5.73094802859872E-16));
#32 = CARTESIAN_POINT ('', (-0.436645053847222, 1.62116904246166, -3.9707189574549E-16));
#33 = CARTESIAN_POINT ('', (-0.0875129073392734, 0.855684764045563, -2.09582321473511E-16));
#34 = CARTESIAN_POINT ('', (3.08148791101958E-33, 0.32776613333918, -8.02795492125462E-17));
#35 = CARTESIAN_POINT ('', (0., 0., 0.));
#36 = CARTESIAN_POINT ('', (-3., 3., 12.));
#37 = CARTESIAN_POINT ('', (-2.67223386666082, 3., 12.));
#38 = CARTESIAN_POINT ('', (-1.93877419916663, 2.87841461887293, 11.5136584754917));
#39 = CARTESIAN_POINT ('', (-1.02090020810345, 2.33983709939422, 9.35934839757689));
#40 = CARTESIAN_POINT ('', (-0.436645053847222, 1.62116904246166, 6.48467616984663));
#41 = CARTESIAN_POINT ('', (-0.0875129073392736, 0.855684764045563, 3.42273905618225));
#42 = CARTESIAN_POINT ('', (-8.02795492125462E-17, 0.32776613333918, 1.31106453335672));
#43 = CARTESIAN_POINT ('', (0., 0., 0.));
#44 = CARTESIAN_POINT ('', (-3., -9., 6.));
#45 = CARTESIAN_POINT ('', (-2.67223386666082, -8.99999999999999, 6.));
#46 = CARTESIAN_POINT ('', (-1.93877419916663, -8.63524385661879, 5.75682923774586));
#47 = CARTESIAN_POINT ('', (-1.02090020810345, -7.01951129818266, 4.67967419878844));
#48 = CARTESIAN_POINT ('', (-0.436645053847223, -4.86350712738497, 3.24233808492332));
#49 = CARTESIAN_POINT ('', (-0.0875129073392737, -2.56705429213669, 1.71136952809113));
#50 = CARTESIAN_POINT ('', (-1.20419323818819E-16, -0.98329840001754, 0.65553226667836));
#51 = CARTESIAN_POINT ('', (0., 0., 0.));
#52 = CARTESIAN_POINT ('', (-3., -9., -6.));
#53 = CARTESIAN_POINT ('', (-2.67223386666082, -9., -6.));
#54 = CARTESIAN_POINT ('', (-1.93877419916663, -8.63524385661879, -5.75682923774586));
#55 = CARTESIAN_POINT ('', (-1.02090020810345, -7.01951129818266, -4.67967419878844));
#56 = CARTESIAN_POINT ('', (-0.436645053847222, -4.86350712738497, -3.24233808492331));
#57 = CARTESIAN_POINT ('', (-0.0875129073392735, -2.56705429213669, -1.71136952809112));
#58 = CARTESIAN_POINT ('', (-4.01397746062732E-17, -0.98329840001754, -0.65553226667836));
#59 = CARTESIAN_POINT ('', (0., 0., 0.));
#60 = CARTESIAN_POINT ('', (-3., 3., -12.));
#61 = CARTESIAN_POINT ('', (-2.67223386666082, 3., -12.));
#62 = CARTESIAN_POINT ('', (-1.93877419916663, 2.87841461887293, -11.5136584754917));
#63 = CARTESIAN_POINT ('', (-1.02090020810345, 2.33983709939422, -9.35934839757689));
#64 = CARTESIAN_POINT ('', (-0.436645053847222, 1.62116904246166, -6.48467616984663));
#65 = CARTESIAN_POINT ('', (-0.0875129073392732, 0.855684764045562, -3.42273905618225));
#66 = CARTESIAN_POINT ('', (8.02795492125462E-17, 0.32776613333918, -1.31106453335672));
#67 = CARTESIAN_POINT ('', (0., 0., 0.));
#68 = CARTESIAN_POINT ('', (-3., 3., -7.34788079488412E-16));
#69 = CARTESIAN_POINT ('', (-2.67223386666082, 3., -7.34788079488412E-16));
#70 = CARTESIAN_POINT ('', (-1.93877419916663, 2.87841461887293, -7.05008249924336E-16));
#71 = CARTESIAN_POINT ('', (-1.02090020810345, 2.33983709939422, -5.73094802859872E-16));
#72 = CARTESIAN_POINT ('', (-0.436645053847222, 1.62116904246166, -3.9707189574549E-16));
#73 = CARTESIAN_POINT ('', (-0.0875129073392734, 0.855684764045563, -2.09582321473511E-16));
#74 = CARTESIAN_POINT ('', (3.08148791101958E-33, 0.32776613333918, -8.02795492125462E-17));
#75 = CARTESIAN_POINT ('', (0., 0., 0.));
#76 = (
   BOUNDED_SURFACE ()
   B_SPLINE_SURFACE (5, 3, ((#28, #29, #30, #31, #32, #33, #34, #35), (#36, #37, #38, #39, #40, #41, #42, #43), (#44, #45, #46, #47, #48, #49, #50, #51), (#52, #53, #54, #55, #56, #57, #58, #59), (#60, #61, #62, #63, #64, #65, #66, #67), (#68, #69, #70, #71, #72, #73, #74, #75)), .UNSPECIFIED., .T., .F., .U.)
   B_SPLINE_SURFACE_WITH_KNOTS ((6, 6), (4, 1, 1, 1, 1, 4), (0., 1.), (0., 0.208662401196191, 0.467060336615637, 0.66382629571742, 0.791337598803809, 1.), .UNSPECIFIED.)
   SURFACE ()
   GEOMETRIC_REPRESENTATION_ITEM ()
   RATIONAL_B_SPLINE_SURFACE (((5., 5., 5., 5., 5., 5., 5., 5.), (1., 1., 1., 1., 1., 1., 1., 1.), (1., 1., 1., 1., 1., 1., 1., 1.), (1., 1., 1., 1., 1., 1., 1., 1.), (1., 1., 1., 1., 1., 1., 1., 1.), (5., 5., 5., 5., 5., 5., 5., 5.)))
   REPRESENTATION_ITEM ('')
);
#77 = ADVANCED_FACE ('', (#27), #76, .T.);
#78 = CARTESIAN_POINT ('', (-99.75, 3., -7.3478807948841E-16));
#79 = VERTEX_POINT ('', #78);
#80 = CARTESIAN_POINT ('', (-99.75, 3., -7.3478807948841E-16));
#81 = CARTESIAN_POINT ('', (-67.5, 3., -7.34788079488411E-16));
#82 = CARTESIAN_POINT ('', (-35.25, 3., -7.34788079488411E-16));
#83 = CARTESIAN_POINT ('', (-3., 3., -7.34788079488412E-16));
#84 = B_SPLINE_CURVE_WITH_KNOTS ('', 3, (#80, #81, #82, #83), .UNSPECIFIED., .F., .U., (4, 4), (0., 1.), .UNSPECIFIED.);
#85 = EDGE_CURVE ('', #79, #2, #84, .T.);
#86 = ORIENTED_EDGE ('', *, *, #85, .F.);
#87 = CARTESIAN_POINT ('', (-99.75, 3., -7.3478807948841E-16));
#88 = CARTESIAN_POINT ('', (-99.75, 2.99999999999998, 12.));
#89 = CARTESIAN_POINT ('', (-99.75, -8.99999999999999, 5.99999999999997));
#90 = CARTESIAN_POINT ('', (-99.75, -8.99999999999997, -6.00000000000001));
#91 = CARTESIAN_POINT ('', (-99.75, 3.00000000000002, -12.));
#92 = CARTESIAN_POINT ('', (-99.75, 3., -7.3478807948841E-16));
#93 = (
   BOUNDED_CURVE ()
   B_SPLINE_CURVE (5, (#87, #88, #89, #90, #91, #92), .UNSPECIFIED., .T., .U.)
   B_SPLINE_CURVE_WITH_KNOTS ((6, 6), (0., 1.), .UNSPECIFIED.)
   CURVE ()
   GEOMETRIC_REPRESENTATION_ITEM ()
   RATIONAL_B_SPLINE_CURVE ((5., 1., 1., 1., 1., 5.))
   REPRESENTATION_ITEM ('')
);
#94 = EDGE_CURVE ('', #79, #79, #93, .T.);
#95 = ORIENTED_EDGE ('', *, *, #94, .T.);
#96 = ORIENTED_EDGE ('', *, *, #85, .T.);
#97 = ORIENTED_EDGE ('', *, *, #23, .F.);
#98 = EDGE_LOOP ('', (#86, #95, #96, #97));
#99 = FACE_OUTER_BOUND ('', #98, .T.);
#100 = CARTESIAN_POINT ('', (-99.75, 3., -7.3478807948841E-16));
#101 = CARTESIAN_POINT ('', (-67.5, 3., -7.34788079488411E-16));
#102 = CARTESIAN_POINT ('', (-35.25, 3., -7.34788079488411E-16));
#103 = CARTESIAN_POINT ('', (-3., 3., -7.34788079488412E-16));
#104 = CARTESIAN_POINT ('', (-99.75, 2.99999999999998, 12.));
#105 = CARTESIAN_POINT ('', (-67.5, 2.99999999999999, 12.));
#106 = CARTESIAN_POINT ('', (-35.25, 2.99999999999999, 12.));
#107 = CARTESIAN_POINT ('', (-3., 3., 12.));
#108 = CARTESIAN_POINT ('', (-99.75, -8.99999999999999, 5.99999999999997));
#109 = CARTESIAN_POINT ('', (-67.5, -8.99999999999999, 5.99999999999998));
#110 = CARTESIAN_POINT ('', (-35.25, -9., 5.99999999999999));
#111 = CARTESIAN_POINT ('', (-3., -9., 6.));
#112 = CARTESIAN_POINT ('', (-99.75, -8.99999999999997, -6.00000000000001));
#113 = CARTESIAN_POINT ('', (-67.5, -8.99999999999998, -6.00000000000001));
#114 = CARTESIAN_POINT ('', (-35.25, -8.99999999999999, -6.));
#115 = CARTESIAN_POINT ('', (-3., -9., -6.));
#116 = CARTESIAN_POINT ('', (-99.75, 3.00000000000002, -12.));
#117 = CARTESIAN_POINT ('', (-67.5, 3.00000000000001, -12.));
#118 = CARTESIAN_POINT ('', (-35.25, 3.00000000000001, -12.));
#119 = CARTESIAN_POINT ('', (-3., 3., -12.));
#120 = CARTESIAN_POINT ('', (-99.75, 3., -7.3478807948841E-16));
#121 = CARTESIAN_POINT ('', (-67.5, 3., -7.34788079488411E-16));
#122 = CARTESIAN_POINT ('', (-35.25, 3., -7.34788079488411E-16));
#123 = CARTESIAN_POINT ('', (-3., 3., -7.34788079488412E-16));
#124 = (
   BOUNDED_SURFACE ()
   B_SPLINE_SURFACE (5, 3, ((#100, #101, #102, #103), (#104, #105, #106, #107), (#108, #109, #110, #111), (#112, #113, #114, #115), (#116, #117, #118, #119), (#120, #121, #122, #123)), .UNSPECIFIED., .T., .F., .U.)
   B_SPLINE_SURFACE_WITH_KNOTS ((6, 6), (4, 4), (0., 1.), (0., 1.), .UNSPECIFIED.)
   SURFACE ()
   GEOMETRIC_REPRESENTATION_ITEM ()
   RATIONAL_B_SPLINE_SURFACE (((5., 5., 5., 5.), (1., 1., 1., 1.), (1., 1., 1., 1.), (1., 1., 1., 1.), (1., 1., 1., 1.), (5., 5., 5., 5.)))
   REPRESENTATION_ITEM ('')
);
#125 = ADVANCED_FACE ('', (#99), #124, .T.);
#126 = CARTESIAN_POINT ('', (-100., 2.75, -6.73555739531043E-16));
#127 = VERTEX_POINT ('', #126);
#128 = CARTESIAN_POINT ('', (-100., 2.75, -6.73555739531043E-16));
#129 = CARTESIAN_POINT ('', (-99.9166666666666, 2.83333333333333, -6.9396651951683E-16));
#130 = CARTESIAN_POINT ('', (-99.8333333333336, 2.91666666666668, -7.14377299502622E-16));
#131 = CARTESIAN_POINT ('', (-99.75, 3., -7.3478807948841E-16));
#132 = B_SPLINE_CURVE_WITH_KNOTS ('', 3, (#128, #129, #130, #131), .UNSPECIFIED., .F., .U., (4, 4), (0., 1.), .UNSPECIFIED.);
#133 = EDGE_CURVE ('', #127, #79, #132, .T.);
#134 = ORIENTED_EDGE ('', *, *, #133, .F.);
#135 = CARTESIAN_POINT ('', (-100., 2.75, -6.73555739531043E-16));
#136 = CARTESIAN_POINT ('', (-100., 2.74999999999998, 11.));
#137 = CARTESIAN_POINT ('', (-100., -8.24999999999999, 5.49999999999997));
#138 = CARTESIAN_POINT ('', (-100., -8.24999999999997, -5.50000000000001));
#139 = CARTESIAN_POINT ('', (-100., 2.75000000000002, -11.));
#140 = CARTESIAN_POINT ('', (-100., 2.75, -6.73555739531043E-16));
#141 = (
   BOUNDED_CURVE ()
   B_SPLINE_CURVE (5, (#135, #136, #137, #138, #139, #140), .UNSPECIFIED., .T., .U.)
   B_SPLINE_CURVE_WITH_KNOTS ((6, 6), (0., 1.), .UNSPECIFIED.)
   CURVE ()
   GEOMETRIC_REPRESENTATION_ITEM ()
   RATIONAL_B_SPLINE_CURVE ((5., 1., 1., 1., 1., 5.))
   REPRESENTATION_ITEM ('')
);
#142 = EDGE_CURVE ('', #127, #127, #141, .T.);
#143 = ORIENTED_EDGE ('', *, *, #142, .T.);
#144 = ORIENTED_EDGE ('', *, *, #133, .T.);
#145 = ORIENTED_EDGE ('', *, *, #94, .F.);
#146 = EDGE_LOOP ('', (#134, #143, #144, #145));
#147 = FACE_OUTER_BOUND ('', #146, .T.);
#148 = CARTESIAN_POINT ('', (-100., 2.75, -6.73555739531043E-16));
#149 = CARTESIAN_POINT ('', (-99.9166666666666, 2.83333333333333, -6.9396651951683E-16));
#150 = CARTESIAN_POINT ('', (-99.8333333333336, 2.91666666666668, -7.14377299502622E-16));
#151 = CARTESIAN_POINT ('', (-99.75, 3., -7.3478807948841E-16));
#152 = CARTESIAN_POINT ('', (-100., 2.74999999999998, 11.));
#153 = CARTESIAN_POINT ('', (-99.9166666666666, 2.8333333333333, 11.3333333333333));
#154 = CARTESIAN_POINT ('', (-99.8333333333336, 2.91666666666665, 11.6666666666667));
#155 = CARTESIAN_POINT ('', (-99.75, 2.99999999999998, 12.));
#156 = CARTESIAN_POINT ('', (-100., -8.24999999999999, 5.49999999999997));
#157 = CARTESIAN_POINT ('', (-99.9166666666666, -8.49999999999996, 5.66666666666662));
#158 = CARTESIAN_POINT ('', (-99.8333333333336, -8.75000000000001, 5.83333333333332));
#159 = CARTESIAN_POINT ('', (-99.75, -8.99999999999999, 5.99999999999997));
#160 = CARTESIAN_POINT ('', (-100., -8.24999999999997, -5.50000000000001));
#161 = CARTESIAN_POINT ('', (-99.9166666666666, -8.49999999999994, -5.66666666666666));
#162 = CARTESIAN_POINT ('', (-99.8333333333336, -8.74999999999999, -5.83333333333336));
#163 = CARTESIAN_POINT ('', (-99.75, -8.99999999999997, -6.00000000000001));
#164 = CARTESIAN_POINT ('', (-100., 2.75000000000002, -11.));
#165 = CARTESIAN_POINT ('', (-99.9166666666666, 2.83333333333335, -11.3333333333333));
#166 = CARTESIAN_POINT ('', (-99.8333333333336, 2.9166666666667, -11.6666666666667));
#167 = CARTESIAN_POINT ('', (-99.75, 3.00000000000002, -12.));
#168 = CARTESIAN_POINT ('', (-100., 2.75, -6.73555739531043E-16));
#169 = CARTESIAN_POINT ('', (-99.9166666666666, 2.83333333333333, -6.9396651951683E-16));
#170 = CARTESIAN_POINT ('', (-99.8333333333336, 2.91666666666668, -7.14377299502622E-16));
#171 = CARTESIAN_POINT ('', (-99.75, 3., -7.3478807948841E-16));
#172 = (
   BOUNDED_SURFACE ()
   B_SPLINE_SURFACE (5, 3, ((#148, #149, #150, #151), (#152, #153, #154, #155), (#156, #157, #158, #159), (#160, #161, #162, #163), (#164, #165, #166, #167), (#168, #169, #170, #171)), .UNSPECIFIED., .T., .F., .U.)
   B_SPLINE_SURFACE_WITH_KNOTS ((6, 6), (4, 4), (0., 1.), (0., 1.), .UNSPECIFIED.)
   SURFACE ()
   GEOMETRIC_REPRESENTATION_ITEM ()
   RATIONAL_B_SPLINE_SURFACE (((5., 5., 5., 5.), (1., 1., 1., 1.), (1., 1., 1., 1.), (1., 1., 1., 1.), (1., 1., 1., 1.), (5., 5., 5., 5.)))
   REPRESENTATION_ITEM ('')
);
#173 = ADVANCED_FACE ('', (#147), #172, .T.);
#174 = CARTESIAN_POINT ('', (-100., 6.12323399573677E-15, -6.12323399573677E-15));
#175 = VERTEX_POINT ('', #174);
#176 = CARTESIAN_POINT ('', (-100., 6.12323399573677E-15, -6.12323399573677E-15));
#177 = CARTESIAN_POINT ('', (-100., 0.916666666666662, -2.2451857984368E-16));
#178 = CARTESIAN_POINT ('', (-100., 1.83333333333334, -4.49037159687362E-16));
#179 = CARTESIAN_POINT ('', (-100., 2.75, -6.73555739531043E-16));
#180 = B_SPLINE_CURVE_WITH_KNOTS ('', 3, (#176, #177, #178, #179), .UNSPECIFIED., .F., .U., (4, 4), (0., 1.), .UNSPECIFIED.);
#181 = EDGE_CURVE ('', #175, #127, #180, .T.);
#182 = ORIENTED_EDGE ('', *, *, #181, .F.);
#183 = ORIENTED_EDGE ('', *, *, #181, .T.);
#184 = ORIENTED_EDGE ('', *, *, #142, .F.);
#185 = EDGE_LOOP ('', (#182, #183, #184));
#186 = FACE_OUTER_BOUND ('', #185, .T.);
#187 = CARTESIAN_POINT ('', (-100., 6.12323399573677E-15, -6.12323399573677E-15));
#188 = CARTESIAN_POINT ('', (-100., 0.916666666666662, -2.2451857984368E-16));
#189 = CARTESIAN_POINT ('', (-100., 1.83333333333334, -4.49037159687362E-16));
#190 = CARTESIAN_POINT ('', (-100., 2.75, -6.73555739531043E-16));
#191 = CARTESIAN_POINT ('', (-100., 6.12323399573677E-15, -6.12323399573677E-15));
#192 = CARTESIAN_POINT ('', (-100., 0.916666666666639, 3.66666666666663));
#193 = CARTESIAN_POINT ('', (-100., 1.83333333333331, 7.33333333333332));
#194 = CARTESIAN_POINT ('', (-100., 2.74999999999998, 11.));
#195 = CARTESIAN_POINT ('', (-100., 6.12323399573677E-15, -6.12323399573677E-15));
#196 = CARTESIAN_POINT ('', (-100., -2.74999999999998, 1.83333333333329));
#197 = CARTESIAN_POINT ('', (-100., -5.5, 3.66666666666664));
#198 = CARTESIAN_POINT ('', (-100., -8.24999999999999, 5.49999999999997));
#199 = CARTESIAN_POINT ('', (-100., 6.12323399573677E-15, -6.12323399573677E-15));
#200 = CARTESIAN_POINT ('', (-100., -2.74999999999995, -1.83333333333334));
#201 = CARTESIAN_POINT ('', (-100., -5.49999999999997, -3.66666666666668));
#202 = CARTESIAN_POINT ('', (-100., -8.24999999999997, -5.50000000000001));
#203 = CARTESIAN_POINT ('', (-100., 6.12323399573677E-15, -6.12323399573677E-15));
#204 = CARTESIAN_POINT ('', (-100., 0.916666666666686, -3.66666666666663));
#205 = CARTESIAN_POINT ('', (-100., 1.83333333333336, -7.33333333333332));
#206 = CARTESIAN_POINT ('', (-100., 2.75000000000002, -11.));
#207 = CARTESIAN_POINT ('', (-100., 6.12323399573677E-15, -6.12323399573677E-15));
#208 = CARTESIAN_POINT ('', (-100., 0.916666666666662, -2.2451857984368E-16));
#209 = CARTESIAN_POINT ('', (-100., 1.83333333333334, -4.49037159687362E-16));
#210 = CARTESIAN_POINT ('', (-100., 2.75, -6.73555739531043E-16));
#211 = (
   BOUNDED_SURFACE ()
   B_SPLINE_SURFACE (5, 3, ((#187, #188, #189, #190), (#191, #192, #193, #194), (#195, #196, #197, #198), (#199, #200, #201, #202), (#203, #204, #205, #206), (#207, #208, #209, #210)), .UNSPECIFIED., .T., .F., .U.)
   B_SPLINE_SURFACE_WITH_KNOTS ((6, 6), (4, 4), (0., 1.), (0., 1.), .UNSPECIFIED.)
   SURFACE ()
   GEOMETRIC_REPRESENTATION_ITEM ()
   RATIONAL_B_SPLINE_SURFACE (((5., 5., 5., 5.), (1., 1., 1., 1.), (1., 1., 1., 1.), (1., 1., 1., 1.), (1., 1., 1., 1.), (5., 5., 5., 5.)))
   REPRESENTATION_ITEM ('')
);
#212 = ADVANCED_FACE ('', (#186), #211, .T.);
#213 = CLOSED_SHELL ('', (#77, #125, #173, #212));
#214 = MANIFOLD_SOLID_BREP ('', #213);
#215 = (
   LENGTH_UNIT ()
   NAMED_UNIT (*)
   SI_UNIT (.MILLI., .METRE.)
);
#216 = (
   NAMED_UNIT (*)
   SI_UNIT ($, .STERADIAN.)
   SOLID_ANGLE_UNIT ()
);
#217 = (
   NAMED_UNIT (*)
   SI_UNIT ($, .RADIAN.)
   PLANE_ANGLE_UNIT ()
);
#218 = UNCERTAINTY_MEASURE_WITH_UNIT (LENGTH_MEASURE(0.001), #215, 'DISTANCE_ACCURACY_VALUE', '');
#219 = (
   GEOMETRIC_REPRESENTATION_CONTEXT (3)
   GLOBAL_UNCERTAINTY_ASSIGNED_CONTEXT ((#218))
   GLOBAL_UNIT_ASSIGNED_CONTEXT ((#215, #216, #217))
   REPRESENTATION_CONTEXT ('', '3D')
);
#220 = SHAPE_REPRESENTATION ('', (), #219);
#221 = APPLICATION_CONTEXT ('configuration controlled 3D designs of mechanical parts and assemblies');
#222 = APPLICATION_PROTOCOL_DEFINITION ('International Standard', 'config_control_design', 1997, #221);
#223 = MECHANICAL_CONTEXT ('', #221, 'mechanical');
#224 = PRODUCT ('', '', '', (#223));
#225 = PERSON_AND_ORGANIZATION_ROLE ('design_owner');
#226 = PERSON ('', '', $, $, $, $);
#227 = ORGANIZATION ($, '', '');
#228 = PERSON_AND_ORGANIZATION (#226, #227);
#229 = CC_DESIGN_PERSON_AND_ORGANIZATION_ASSIGNMENT (#228, #225, (#224));
#230 = PRODUCT_RELATED_PRODUCT_CATEGORY ('detail', $, (#224));
#231 = PRODUCT_DEFINITION_FORMATION_WITH_SPECIFIED_SOURCE ('', '', #224, .NOT_KNOWN.);
#232 = APPROVAL_STATUS ('approved');
#233 = APPROVAL (#232, '');
#234 = CALENDAR_DATE (2020, 9, 7);
#235 = COORDINATED_UNIVERSAL_TIME_OFFSET (0, $, .AHEAD.);
#236 = LOCAL_TIME (12, 13, 0., #235);
#237 = DATE_AND_TIME (#234, #236);
#238 = APPROVAL_DATE_TIME (#237, #233);
#239 = APPROVAL_ROLE ('');
#240 = PERSON ('', '', $, $, $, $);
#241 = ORGANIZATION ($, '', '');
#242 = PERSON_AND_ORGANIZATION (#240, #241);
#243 = APPROVAL_PERSON_ORGANIZATION (#242, #233, #239);
#244 = CC_DESIGN_APPROVAL (#233, (#231));
#245 = PERSON_AND_ORGANIZATION_ROLE ('creator');
#246 = PERSON ('', '', $, $, $, $);
#247 = ORGANIZATION ($, '', '');
#248 = PERSON_AND_ORGANIZATION (#246, #247);
#249 = CC_DESIGN_PERSON_AND_ORGANIZATION_ASSIGNMENT (#248, #245, (#231));
#250 = PERSON_AND_ORGANIZATION_ROLE ('part_supplier');
#251 = PERSON ('', '', $, $, $, $);
#252 = ORGANIZATION ($, '', '');
#253 = PERSON_AND_ORGANIZATION (#251, #252);
#254 = CC_DESIGN_PERSON_AND_ORGANIZATION_ASSIGNMENT (#253, #250, (#231));
#255 = SECURITY_CLASSIFICATION_LEVEL ('unclassified');
#256 = SECURITY_CLASSIFICATION ('', '', #255);
#257 = APPROVAL_STATUS ('approved');
#258 = APPROVAL (#257, '');
#259 = CALENDAR_DATE (2020, 9, 7);
#260 = COORDINATED_UNIVERSAL_TIME_OFFSET (0, $, .AHEAD.);
#261 = LOCAL_TIME (12, 13, 0., #260);
#262 = DATE_AND_TIME (#259, #261);
#263 = APPROVAL_DATE_TIME (#262, #258);
#264 = APPROVAL_ROLE ('');
#265 = PERSON ('', '', $, $, $, $);
#266 = ORGANIZATION ($, '', '');
#267 = PERSON_AND_ORGANIZATION (#265, #266);
#268 = APPROVAL_PERSON_ORGANIZATION (#267, #258, #264);
#269 = CC_DESIGN_APPROVAL (#258, (#256));
#270 = DATE_TIME_ROLE ('classification_date');
#271 = CALENDAR_DATE (2020, 9, 7);
#272 = COORDINATED_UNIVERSAL_TIME_OFFSET (0, $, .AHEAD.);
#273 = LOCAL_TIME (12, 13, 0., #272);
#274 = DATE_AND_TIME (#271, #273);
#275 = CC_DESIGN_DATE_AND_TIME_ASSIGNMENT (#274, #270, (#256));
#276 = PERSON_AND_ORGANIZATION_ROLE ('classification_officer');
#277 = PERSON ('', '', $, $, $, $);
#278 = ORGANIZATION ($, '', '');
#279 = PERSON_AND_ORGANIZATION (#277, #278);
#280 = CC_DESIGN_PERSON_AND_ORGANIZATION_ASSIGNMENT (#279, #276, (#256));
#281 = CC_DESIGN_SECURITY_CLASSIFICATION (#256, (#231));
#282 = DESIGN_CONTEXT ('', #221, 'design');
#283 = PRODUCT_DEFINITION ('', '', #231, #282);
#284 = APPROVAL_STATUS ('approved');
#285 = APPROVAL (#284, '');
#286 = CALENDAR_DATE (2020, 9, 7);
#287 = COORDINATED_UNIVERSAL_TIME_OFFSET (0, $, .AHEAD.);
#288 = LOCAL_TIME (12, 13, 0., #287);
#289 = DATE_AND_TIME (#286, #288);
#290 = APPROVAL_DATE_TIME (#289, #285);
#291 = APPROVAL_ROLE ('');
#292 = PERSON ('', '', $, $, $, $);
#293 = ORGANIZATION ($, '', '');
#294 = PERSON_AND_ORGANIZATION (#292, #293);
#295 = APPROVAL_PERSON_ORGANIZATION (#294, #285, #291);
#296 = CC_DESIGN_APPROVAL (#285, (#283));
#297 = DATE_TIME_ROLE ('creation_date');
#298 = CALENDAR_DATE (2020, 9, 7);
#299 = COORDINATED_UNIVERSAL_TIME_OFFSET (0, $, .AHEAD.);
#300 = LOCAL_TIME (12, 13, 0., #299);
#301 = DATE_AND_TIME (#298, #300);
#302 = CC_DESIGN_DATE_AND_TIME_ASSIGNMENT (#301, #297, (#283));
#303 = PERSON_AND_ORGANIZATION_ROLE ('creator');
#304 = PERSON ('', '', $, $, $, $);
#305 = ORGANIZATION ($, '', '');
#306 = PERSON_AND_ORGANIZATION (#304, #305);
#307 = CC_DESIGN_PERSON_AND_ORGANIZATION_ASSIGNMENT (#306, #303, (#283));
#308 = PRODUCT_DEFINITION_SHAPE ('', '', #283);
#309 = SHAPE_DEFINITION_REPRESENTATION (#308, #220);
#310 = SHAPE_REPRESENTATION_RELATIONSHIP ('', '', #220, #311);
#311 = ADVANCED_BREP_SHAPE_REPRESENTATION ('', (#214), #219);
ENDSEC;
END-ISO-10303-21;
