ISO-10303-21;
HEADER;
FILE_DESCRIPTION ((), '1');
FILE_NAME ('C:\\Users\\kevin\\MFB Range\\MFPB0801.STP', '2020-07-09T12:17:48', ('Unknown'), ('mafordeurope'), 'OneCNC-XR7 Mill 3D Expert', 'OneCNC-XR7 Mill 3D Expert', '');
FILE_SCHEMA (('CONFIG_CONTROL_DESIGN'));
ENDSEC;

DATA;
#1 = CARTESIAN_POINT ('', (0., 0., 0.));
#2 = VERTEX_POINT ('', #1);
#3 = CARTESIAN_POINT ('', (-4., 4., -9.79717439317883E-16));
#4 = VERTEX_POINT ('', #3);
#5 = CARTESIAN_POINT ('', (0., 0., 0.));
#6 = CARTESIAN_POINT ('', (0., 0.437021511118906, -1.07039398950062E-16));
#7 = CARTESIAN_POINT ('', (-0.116683876452365, 1.14091301872742, -2.79443095298016E-16));
#8 = CARTESIAN_POINT ('', (-0.582193405129629, 2.16155872328221, -5.2942919432732E-16));
#9 = CARTESIAN_POINT ('', (-1.19072420123981, 2.91008724141033, -7.12765805086543E-16));
#10 = CARTESIAN_POINT ('', (-1.96460837687031, 3.47535054676717, -8.51215384602683E-16));
#11 = CARTESIAN_POINT ('', (-2.85908698127257, 3.88331612354763, -9.51138132155983E-16));
#12 = CARTESIAN_POINT ('', (-3.5629784888811, 4., -9.79717439317883E-16));
#13 = CARTESIAN_POINT ('', (-4., 4., -9.79717439317883E-16));
#14 = B_SPLINE_CURVE_WITH_KNOTS ('', 3, (#5, #6, #7, #8, #9, #10, #11, #12, #13), .UNSPECIFIED., .F., .U., (4, 1, 1, 1, 1, 1, 4), (0., 0.208662401196191, 0.33617370428258, 0.532939663384363, 0.66382629571742, 0.791337598803809, 1.), .UNSPECIFIED.);
#15 = EDGE_CURVE ('', #2, #4, #14, .T.);
#16 = ORIENTED_EDGE ('', *, *, #15, .F.);
#17 = ORIENTED_EDGE ('', *, *, #15, .T.);
#18 = CARTESIAN_POINT ('', (-4., 4., -9.79717439317883E-16));
#19 = CARTESIAN_POINT ('', (-4., 4., 16.));
#20 = CARTESIAN_POINT ('', (-4., -12., 8.));
#21 = CARTESIAN_POINT ('', (-4., -12., -8.));
#22 = CARTESIAN_POINT ('', (-4., 4., -16.));
#23 = CARTESIAN_POINT ('', (-4., 4., -9.79717439317883E-16));
#24 = (
   BOUNDED_CURVE ()
   B_SPLINE_CURVE (5, (#18, #19, #20, #21, #22, #23), .UNSPECIFIED., .T., .U.)
   B_SPLINE_CURVE_WITH_KNOTS ((6, 6), (0., 1.), .UNSPECIFIED.)
   CURVE ()
   GEOMETRIC_REPRESENTATION_ITEM ()
   RATIONAL_B_SPLINE_CURVE ((5., 1., 1., 1., 1., 5.))
   REPRESENTATION_ITEM ('')
);
#25 = EDGE_CURVE ('', #4, #4, #24, .T.);
#26 = ORIENTED_EDGE ('', *, *, #25, .F.);
#27 = EDGE_LOOP ('', (#16, #17, #26));
#28 = FACE_OUTER_BOUND ('', #27, .F.);
#29 = CARTESIAN_POINT ('', (0., 0., 0.));
#30 = CARTESIAN_POINT ('', (0., 0.437021511118906, -1.07039398950062E-16));
#31 = CARTESIAN_POINT ('', (-0.116683876452365, 1.14091301872742, -2.79443095298016E-16));
#32 = CARTESIAN_POINT ('', (-0.582193405129629, 2.16155872328221, -5.2942919432732E-16));
#33 = CARTESIAN_POINT ('', (-1.19072420123981, 2.91008724141033, -7.12765805086543E-16));
#34 = CARTESIAN_POINT ('', (-1.96460837687031, 3.47535054676717, -8.51215384602683E-16));
#35 = CARTESIAN_POINT ('', (-2.85908698127257, 3.88331612354763, -9.51138132155983E-16));
#36 = CARTESIAN_POINT ('', (-3.5629784888811, 4., -9.79717439317883E-16));
#37 = CARTESIAN_POINT ('', (-4., 4., -9.79717439317883E-16));
#38 = CARTESIAN_POINT ('', (0., 0., 0.));
#39 = CARTESIAN_POINT ('', (-1.07039398950062E-16, 0.437021511118907, 1.74808604447563));
#40 = CARTESIAN_POINT ('', (-0.116683876452365, 1.14091301872742, 4.56365207490968));
#41 = CARTESIAN_POINT ('', (-0.582193405129629, 2.16155872328221, 8.64623489312884));
#42 = CARTESIAN_POINT ('', (-1.19072420123981, 2.91008724141033, 11.6403489656413));
#43 = CARTESIAN_POINT ('', (-1.96460837687031, 3.47535054676717, 13.9014021870687));
#44 = CARTESIAN_POINT ('', (-2.85908698127257, 3.88331612354763, 15.5332644941905));
#45 = CARTESIAN_POINT ('', (-3.5629784888811, 4., 16.));
#46 = CARTESIAN_POINT ('', (-4., 4., 16.));
#47 = CARTESIAN_POINT ('', (0., 0., 0.));
#48 = CARTESIAN_POINT ('', (-1.60559098425092E-16, -1.31106453335672, 0.874043022237813));
#49 = CARTESIAN_POINT ('', (-0.116683876452366, -3.42273905618226, 2.28182603745484));
#50 = CARTESIAN_POINT ('', (-0.58219340512963, -6.48467616984663, 4.32311744656442));
#51 = CARTESIAN_POINT ('', (-1.19072420123981, -8.73026172423099, 5.82017448282067));
#52 = CARTESIAN_POINT ('', (-1.96460837687031, -10.4260516403015, 6.95070109353433));
#53 = CARTESIAN_POINT ('', (-2.85908698127257, -11.6499483706429, 7.76663224709526));
#54 = CARTESIAN_POINT ('', (-3.5629784888811, -12., 8.));
#55 = CARTESIAN_POINT ('', (-4., -12., 8.));
#56 = CARTESIAN_POINT ('', (0., 0., 0.));
#57 = CARTESIAN_POINT ('', (-5.35196994750308E-17, -1.31106453335672, -0.874043022237812));
#58 = CARTESIAN_POINT ('', (-0.116683876452365, -3.42273905618226, -2.28182603745484));
#59 = CARTESIAN_POINT ('', (-0.582193405129629, -6.48467616984663, -4.32311744656442));
#60 = CARTESIAN_POINT ('', (-1.19072420123981, -8.730261724231, -5.82017448282066));
#61 = CARTESIAN_POINT ('', (-1.96460837687031, -10.4260516403015, -6.95070109353433));
#62 = CARTESIAN_POINT ('', (-2.85908698127257, -11.6499483706429, -7.76663224709526));
#63 = CARTESIAN_POINT ('', (-3.5629784888811, -12., -8.));
#64 = CARTESIAN_POINT ('', (-4., -12., -8.));
#65 = CARTESIAN_POINT ('', (0., 0., 0.));
#66 = CARTESIAN_POINT ('', (1.07039398950062E-16, 0.437021511118906, -1.74808604447563));
#67 = CARTESIAN_POINT ('', (-0.116683876452365, 1.14091301872742, -4.56365207490968));
#68 = CARTESIAN_POINT ('', (-0.582193405129628, 2.16155872328221, -8.64623489312884));
#69 = CARTESIAN_POINT ('', (-1.19072420123981, 2.91008724141033, -11.6403489656413));
#70 = CARTESIAN_POINT ('', (-1.96460837687031, 3.47535054676716, -13.9014021870687));
#71 = CARTESIAN_POINT ('', (-2.85908698127257, 3.88331612354763, -15.5332644941905));
#72 = CARTESIAN_POINT ('', (-3.56297848888109, 4., -16.));
#73 = CARTESIAN_POINT ('', (-4., 4., -16.));
#74 = CARTESIAN_POINT ('', (0., 0., 0.));
#75 = CARTESIAN_POINT ('', (0., 0.437021511118906, -1.07039398950062E-16));
#76 = CARTESIAN_POINT ('', (-0.116683876452365, 1.14091301872742, -2.79443095298016E-16));
#77 = CARTESIAN_POINT ('', (-0.582193405129629, 2.16155872328221, -5.2942919432732E-16));
#78 = CARTESIAN_POINT ('', (-1.19072420123981, 2.91008724141033, -7.12765805086543E-16));
#79 = CARTESIAN_POINT ('', (-1.96460837687031, 3.47535054676717, -8.51215384602683E-16));
#80 = CARTESIAN_POINT ('', (-2.85908698127257, 3.88331612354763, -9.51138132155983E-16));
#81 = CARTESIAN_POINT ('', (-3.5629784888811, 4., -9.79717439317883E-16));
#82 = CARTESIAN_POINT ('', (-4., 4., -9.79717439317883E-16));
#83 = (
   BOUNDED_SURFACE ()
   B_SPLINE_SURFACE (5, 3, ((#29, #30, #31, #32, #33, #34, #35, #36, #37), (#38, #39, #40, #41, #42, #43, #44, #45, #46), (#47, #48, #49, #50, #51, #52, #53, #54, #55), (#56, #57, #58, #59, #60, #61, #62, #63, #64), (#65, #66, #67, #68, #69, #70, #71, #72, #73), (#74, #75, #76, #77, #78, #79, #80, #81, #82)), .UNSPECIFIED., .T., .F., .U.)
   B_SPLINE_SURFACE_WITH_KNOTS ((6, 6), (4, 1, 1, 1, 1, 1, 4), (0., 1.), (0., 0.208662401196191, 0.33617370428258, 0.532939663384363, 0.66382629571742, 0.791337598803809, 1.), .UNSPECIFIED.)
   SURFACE ()
   GEOMETRIC_REPRESENTATION_ITEM ()
   RATIONAL_B_SPLINE_SURFACE (((5., 5., 5., 5., 5., 5., 5., 5., 5.), (1., 1., 1., 1., 1., 1., 1., 1., 1.), (1., 1., 1., 1., 1., 1., 1., 1., 1.), (1., 1., 1., 1., 1., 1., 1., 1., 1.), (1., 1., 1., 1., 1., 1., 1., 1., 1.), (5., 5., 5., 5., 5., 5., 5., 5., 5.)))
   REPRESENTATION_ITEM ('')
);
#84 = ADVANCED_FACE ('', (#28), #83, .F.);
#85 = CARTESIAN_POINT ('', (-99.75, 4., -9.79717439317881E-16));
#86 = VERTEX_POINT ('', #85);
#87 = CARTESIAN_POINT ('', (-4., 4., -9.79717439317882E-16));
#88 = CARTESIAN_POINT ('', (-35.9166666666667, 4., -9.79717439317882E-16));
#89 = CARTESIAN_POINT ('', (-67.8333333333334, 4., -9.79717439317881E-16));
#90 = CARTESIAN_POINT ('', (-99.75, 4., -9.79717439317881E-16));
#91 = B_SPLINE_CURVE_WITH_KNOTS ('', 3, (#87, #88, #89, #90), .UNSPECIFIED., .F., .U., (4, 4), (0., 1.), .UNSPECIFIED.);
#92 = EDGE_CURVE ('', #4, #86, #91, .T.);
#93 = ORIENTED_EDGE ('', *, *, #92, .F.);
#94 = ORIENTED_EDGE ('', *, *, #25, .T.);
#95 = ORIENTED_EDGE ('', *, *, #92, .T.);
#96 = CARTESIAN_POINT ('', (-99.75, 4., -9.79717439317881E-16));
#97 = CARTESIAN_POINT ('', (-99.75, 3.99999999999998, 16.));
#98 = CARTESIAN_POINT ('', (-99.75, -12., 7.99999999999997));
#99 = CARTESIAN_POINT ('', (-99.75, -12., -8.00000000000001));
#100 = CARTESIAN_POINT ('', (-99.75, 4.00000000000002, -16.));
#101 = CARTESIAN_POINT ('', (-99.75, 4., -9.79717439317881E-16));
#102 = (
   BOUNDED_CURVE ()
   B_SPLINE_CURVE (5, (#96, #97, #98, #99, #100, #101), .UNSPECIFIED., .T., .U.)
   B_SPLINE_CURVE_WITH_KNOTS ((6, 6), (0., 1.), .UNSPECIFIED.)
   CURVE ()
   GEOMETRIC_REPRESENTATION_ITEM ()
   RATIONAL_B_SPLINE_CURVE ((5., 1., 1., 1., 1., 5.))
   REPRESENTATION_ITEM ('')
);
#103 = EDGE_CURVE ('', #86, #86, #102, .T.);
#104 = ORIENTED_EDGE ('', *, *, #103, .F.);
#105 = EDGE_LOOP ('', (#93, #94, #95, #104));
#106 = FACE_OUTER_BOUND ('', #105, .F.);
#107 = CARTESIAN_POINT ('', (-4., 4., -9.79717439317882E-16));
#108 = CARTESIAN_POINT ('', (-35.9166666666667, 4., -9.79717439317882E-16));
#109 = CARTESIAN_POINT ('', (-67.8333333333334, 4., -9.79717439317881E-16));
#110 = CARTESIAN_POINT ('', (-99.75, 4., -9.79717439317881E-16));
#111 = CARTESIAN_POINT ('', (-4., 4., 16.));
#112 = CARTESIAN_POINT ('', (-35.9166666666667, 4., 16.));
#113 = CARTESIAN_POINT ('', (-67.8333333333334, 3.99999999999999, 16.));
#114 = CARTESIAN_POINT ('', (-99.75, 3.99999999999998, 16.));
#115 = CARTESIAN_POINT ('', (-4., -12., 8.));
#116 = CARTESIAN_POINT ('', (-35.9166666666667, -12., 7.99999999999999));
#117 = CARTESIAN_POINT ('', (-67.8333333333334, -12., 7.99999999999998));
#118 = CARTESIAN_POINT ('', (-99.75, -12., 7.99999999999997));
#119 = CARTESIAN_POINT ('', (-4., -12., -8.));
#120 = CARTESIAN_POINT ('', (-35.9166666666667, -12., -8.));
#121 = CARTESIAN_POINT ('', (-67.8333333333334, -12., -8.00000000000001));
#122 = CARTESIAN_POINT ('', (-99.75, -12., -8.00000000000001));
#123 = CARTESIAN_POINT ('', (-4., 4., -16.));
#124 = CARTESIAN_POINT ('', (-35.9166666666667, 4., -16.));
#125 = CARTESIAN_POINT ('', (-67.8333333333334, 4.00000000000001, -16.));
#126 = CARTESIAN_POINT ('', (-99.75, 4.00000000000002, -16.));
#127 = CARTESIAN_POINT ('', (-4., 4., -9.79717439317882E-16));
#128 = CARTESIAN_POINT ('', (-35.9166666666667, 4., -9.79717439317882E-16));
#129 = CARTESIAN_POINT ('', (-67.8333333333334, 4., -9.79717439317881E-16));
#130 = CARTESIAN_POINT ('', (-99.75, 4., -9.79717439317881E-16));
#131 = (
   BOUNDED_SURFACE ()
   B_SPLINE_SURFACE (5, 3, ((#107, #108, #109, #110), (#111, #112, #113, #114), (#115, #116, #117, #118), (#119, #120, #121, #122), (#123, #124, #125, #126), (#127, #128, #129, #130)), .UNSPECIFIED., .T., .F., .U.)
   B_SPLINE_SURFACE_WITH_KNOTS ((6, 6), (4, 4), (0., 1.), (0., 1.), .UNSPECIFIED.)
   SURFACE ()
   GEOMETRIC_REPRESENTATION_ITEM ()
   RATIONAL_B_SPLINE_SURFACE (((5., 5., 5., 5.), (1., 1., 1., 1.), (1., 1., 1., 1.), (1., 1., 1., 1.), (1., 1., 1., 1.), (5., 5., 5., 5.)))
   REPRESENTATION_ITEM ('')
);
#132 = ADVANCED_FACE ('', (#106), #131, .F.);
#133 = CARTESIAN_POINT ('', (-100., 3.75, -9.18485099360513E-16));
#134 = VERTEX_POINT ('', #133);
#135 = CARTESIAN_POINT ('', (-99.75, 4., -9.79717439317881E-16));
#136 = CARTESIAN_POINT ('', (-99.8333333333334, 3.91666666666666, -9.59306659332091E-16));
#137 = CARTESIAN_POINT ('', (-99.9166666666667, 3.83333333333333, -9.388958793463E-16));
#138 = CARTESIAN_POINT ('', (-100., 3.75, -9.18485099360513E-16));
#139 = B_SPLINE_CURVE_WITH_KNOTS ('', 3, (#135, #136, #137, #138), .UNSPECIFIED., .F., .U., (4, 4), (0., 1.), .UNSPECIFIED.);
#140 = EDGE_CURVE ('', #86, #134, #139, .T.);
#141 = ORIENTED_EDGE ('', *, *, #140, .F.);
#142 = ORIENTED_EDGE ('', *, *, #103, .T.);
#143 = ORIENTED_EDGE ('', *, *, #140, .T.);
#144 = CARTESIAN_POINT ('', (-100., 3.75, -9.18485099360513E-16));
#145 = CARTESIAN_POINT ('', (-100., 3.74999999999998, 15.));
#146 = CARTESIAN_POINT ('', (-100., -11.25, 7.49999999999997));
#147 = CARTESIAN_POINT ('', (-100., -11.25, -7.50000000000001));
#148 = CARTESIAN_POINT ('', (-100., 3.75000000000002, -15.));
#149 = CARTESIAN_POINT ('', (-100., 3.75, -9.18485099360513E-16));
#150 = (
   BOUNDED_CURVE ()
   B_SPLINE_CURVE (5, (#144, #145, #146, #147, #148, #149), .UNSPECIFIED., .T., .U.)
   B_SPLINE_CURVE_WITH_KNOTS ((6, 6), (0., 1.), .UNSPECIFIED.)
   CURVE ()
   GEOMETRIC_REPRESENTATION_ITEM ()
   RATIONAL_B_SPLINE_CURVE ((5., 1., 1., 1., 1., 5.))
   REPRESENTATION_ITEM ('')
);
#151 = EDGE_CURVE ('', #134, #134, #150, .T.);
#152 = ORIENTED_EDGE ('', *, *, #151, .F.);
#153 = EDGE_LOOP ('', (#141, #142, #143, #152));
#154 = FACE_OUTER_BOUND ('', #153, .F.);
#155 = CARTESIAN_POINT ('', (-99.75, 4., -9.79717439317881E-16));
#156 = CARTESIAN_POINT ('', (-99.8333333333334, 3.91666666666666, -9.59306659332091E-16));
#157 = CARTESIAN_POINT ('', (-99.9166666666667, 3.83333333333333, -9.388958793463E-16));
#158 = CARTESIAN_POINT ('', (-100., 3.75, -9.18485099360513E-16));
#159 = CARTESIAN_POINT ('', (-99.75, 3.99999999999998, 16.));
#160 = CARTESIAN_POINT ('', (-99.8333333333334, 3.91666666666664, 15.6666666666666));
#161 = CARTESIAN_POINT ('', (-99.9166666666667, 3.83333333333331, 15.3333333333333));
#162 = CARTESIAN_POINT ('', (-100., 3.74999999999998, 15.));
#163 = CARTESIAN_POINT ('', (-99.75, -12., 7.99999999999997));
#164 = CARTESIAN_POINT ('', (-99.8333333333334, -11.75, 7.83333333333329));
#165 = CARTESIAN_POINT ('', (-99.9166666666667, -11.5, 7.66666666666662));
#166 = CARTESIAN_POINT ('', (-100., -11.25, 7.49999999999997));
#167 = CARTESIAN_POINT ('', (-99.75, -12., -8.00000000000001));
#168 = CARTESIAN_POINT ('', (-99.8333333333334, -11.75, -7.83333333333334));
#169 = CARTESIAN_POINT ('', (-99.9166666666667, -11.4999999999999, -7.66666666666666));
#170 = CARTESIAN_POINT ('', (-100., -11.25, -7.50000000000001));
#171 = CARTESIAN_POINT ('', (-99.75, 4.00000000000002, -16.));
#172 = CARTESIAN_POINT ('', (-99.8333333333334, 3.91666666666668, -15.6666666666666));
#173 = CARTESIAN_POINT ('', (-99.9166666666667, 3.83333333333335, -15.3333333333333));
#174 = CARTESIAN_POINT ('', (-100., 3.75000000000002, -15.));
#175 = CARTESIAN_POINT ('', (-99.75, 4., -9.79717439317881E-16));
#176 = CARTESIAN_POINT ('', (-99.8333333333334, 3.91666666666666, -9.59306659332091E-16));
#177 = CARTESIAN_POINT ('', (-99.9166666666667, 3.83333333333333, -9.388958793463E-16));
#178 = CARTESIAN_POINT ('', (-100., 3.75, -9.18485099360513E-16));
#179 = (
   BOUNDED_SURFACE ()
   B_SPLINE_SURFACE (5, 3, ((#155, #156, #157, #158), (#159, #160, #161, #162), (#163, #164, #165, #166), (#167, #168, #169, #170), (#171, #172, #173, #174), (#175, #176, #177, #178)), .UNSPECIFIED., .T., .F., .U.)
   B_SPLINE_SURFACE_WITH_KNOTS ((6, 6), (4, 4), (0., 1.), (0., 1.), .UNSPECIFIED.)
   SURFACE ()
   GEOMETRIC_REPRESENTATION_ITEM ()
   RATIONAL_B_SPLINE_SURFACE (((5., 5., 5., 5.), (1., 1., 1., 1.), (1., 1., 1., 1.), (1., 1., 1., 1.), (1., 1., 1., 1.), (5., 5., 5., 5.)))
   REPRESENTATION_ITEM ('')
);
#180 = ADVANCED_FACE ('', (#154), #179, .F.);
#181 = CARTESIAN_POINT ('', (-100., 6.12323399573677E-15, -6.12323399573677E-15));
#182 = VERTEX_POINT ('', #181);
#183 = CARTESIAN_POINT ('', (-100., 3.75, -9.18485099360513E-16));
#184 = CARTESIAN_POINT ('', (-100., 2.49999999999999, -6.12323399573674E-16));
#185 = CARTESIAN_POINT ('', (-100., 1.25, -3.06161699786838E-16));
#186 = CARTESIAN_POINT ('', (-100., 6.12323399573677E-15, -6.12323399573677E-15));
#187 = B_SPLINE_CURVE_WITH_KNOTS ('', 3, (#183, #184, #185, #186), .UNSPECIFIED., .F., .U., (4, 4), (0., 1.), .UNSPECIFIED.);
#188 = EDGE_CURVE ('', #134, #182, #187, .T.);
#189 = ORIENTED_EDGE ('', *, *, #188, .F.);
#190 = ORIENTED_EDGE ('', *, *, #151, .T.);
#191 = ORIENTED_EDGE ('', *, *, #188, .T.);
#192 = EDGE_LOOP ('', (#189, #190, #191));
#193 = FACE_OUTER_BOUND ('', #192, .F.);
#194 = CARTESIAN_POINT ('', (-100., 3.75, -9.18485099360513E-16));
#195 = CARTESIAN_POINT ('', (-100., 2.49999999999999, -6.12323399573674E-16));
#196 = CARTESIAN_POINT ('', (-100., 1.25, -3.06161699786838E-16));
#197 = CARTESIAN_POINT ('', (-100., 6.12323399573677E-15, -6.12323399573677E-15));
#198 = CARTESIAN_POINT ('', (-100., 3.74999999999998, 15.));
#199 = CARTESIAN_POINT ('', (-100., 2.49999999999997, 9.99999999999995));
#200 = CARTESIAN_POINT ('', (-100., 1.24999999999998, 4.99999999999999));
#201 = CARTESIAN_POINT ('', (-100., 6.12323399573677E-15, -6.12323399573677E-15));
#202 = CARTESIAN_POINT ('', (-100., -11.25, 7.49999999999997));
#203 = CARTESIAN_POINT ('', (-100., -7.49999999999997, 4.99999999999995));
#204 = CARTESIAN_POINT ('', (-100., -3.75, 2.49999999999997));
#205 = CARTESIAN_POINT ('', (-100., 6.12323399573677E-15, -6.12323399573677E-15));
#206 = CARTESIAN_POINT ('', (-100., -11.25, -7.50000000000001));
#207 = CARTESIAN_POINT ('', (-100., -7.49999999999995, -5.));
#208 = CARTESIAN_POINT ('', (-100., -3.74999999999998, -2.50000000000002));
#209 = CARTESIAN_POINT ('', (-100., 6.12323399573677E-15, -6.12323399573677E-15));
#210 = CARTESIAN_POINT ('', (-100., 3.75000000000002, -15.));
#211 = CARTESIAN_POINT ('', (-100., 2.50000000000002, -9.99999999999995));
#212 = CARTESIAN_POINT ('', (-100., 1.25000000000003, -4.99999999999999));
#213 = CARTESIAN_POINT ('', (-100., 6.12323399573677E-15, -6.12323399573677E-15));
#214 = CARTESIAN_POINT ('', (-100., 3.75, -9.18485099360513E-16));
#215 = CARTESIAN_POINT ('', (-100., 2.49999999999999, -6.12323399573674E-16));
#216 = CARTESIAN_POINT ('', (-100., 1.25, -3.06161699786838E-16));
#217 = CARTESIAN_POINT ('', (-100., 6.12323399573677E-15, -6.12323399573677E-15));
#218 = (
   BOUNDED_SURFACE ()
   B_SPLINE_SURFACE (5, 3, ((#194, #195, #196, #197), (#198, #199, #200, #201), (#202, #203, #204, #205), (#206, #207, #208, #209), (#210, #211, #212, #213), (#214, #215, #216, #217)), .UNSPECIFIED., .T., .F., .U.)
   B_SPLINE_SURFACE_WITH_KNOTS ((6, 6), (4, 4), (0., 1.), (0., 1.), .UNSPECIFIED.)
   SURFACE ()
   GEOMETRIC_REPRESENTATION_ITEM ()
   RATIONAL_B_SPLINE_SURFACE (((5., 5., 5., 5.), (1., 1., 1., 1.), (1., 1., 1., 1.), (1., 1., 1., 1.), (1., 1., 1., 1.), (5., 5., 5., 5.)))
   REPRESENTATION_ITEM ('')
);
#219 = ADVANCED_FACE ('', (#193), #218, .F.);
#220 = CLOSED_SHELL ('', (#84, #132, #180, #219));
#221 = MANIFOLD_SOLID_BREP ('', #220);
#222 = (
   LENGTH_UNIT ()
   NAMED_UNIT (*)
   SI_UNIT (.MILLI., .METRE.)
);
#223 = (
   NAMED_UNIT (*)
   SI_UNIT ($, .STERADIAN.)
   SOLID_ANGLE_UNIT ()
);
#224 = (
   NAMED_UNIT (*)
   SI_UNIT ($, .RADIAN.)
   PLANE_ANGLE_UNIT ()
);
#225 = UNCERTAINTY_MEASURE_WITH_UNIT (LENGTH_MEASURE(0.001), #222, 'DISTANCE_ACCURACY_VALUE', '');
#226 = (
   GEOMETRIC_REPRESENTATION_CONTEXT (3)
   GLOBAL_UNCERTAINTY_ASSIGNED_CONTEXT ((#225))
   GLOBAL_UNIT_ASSIGNED_CONTEXT ((#222, #223, #224))
   REPRESENTATION_CONTEXT ('', '3D')
);
#227 = SHAPE_REPRESENTATION ('', (), #226);
#228 = APPLICATION_CONTEXT ('configuration controlled 3D designs of mechanical parts and assemblies');
#229 = APPLICATION_PROTOCOL_DEFINITION ('International Standard', 'config_control_design', 1997, #228);
#230 = MECHANICAL_CONTEXT ('', #228, 'mechanical');
#231 = PRODUCT ('', '', '', (#230));
#232 = PERSON_AND_ORGANIZATION_ROLE ('design_owner');
#233 = PERSON ('', '', $, $, $, $);
#234 = ORGANIZATION ($, '', '');
#235 = PERSON_AND_ORGANIZATION (#233, #234);
#236 = CC_DESIGN_PERSON_AND_ORGANIZATION_ASSIGNMENT (#235, #232, (#231));
#237 = PRODUCT_RELATED_PRODUCT_CATEGORY ('detail', $, (#231));
#238 = PRODUCT_DEFINITION_FORMATION_WITH_SPECIFIED_SOURCE ('', '', #231, .NOT_KNOWN.);
#239 = APPROVAL_STATUS ('approved');
#240 = APPROVAL (#239, '');
#241 = CALENDAR_DATE (2020, 9, 7);
#242 = COORDINATED_UNIVERSAL_TIME_OFFSET (0, $, .AHEAD.);
#243 = LOCAL_TIME (12, 17, 48., #242);
#244 = DATE_AND_TIME (#241, #243);
#245 = APPROVAL_DATE_TIME (#244, #240);
#246 = APPROVAL_ROLE ('');
#247 = PERSON ('', '', $, $, $, $);
#248 = ORGANIZATION ($, '', '');
#249 = PERSON_AND_ORGANIZATION (#247, #248);
#250 = APPROVAL_PERSON_ORGANIZATION (#249, #240, #246);
#251 = CC_DESIGN_APPROVAL (#240, (#238));
#252 = PERSON_AND_ORGANIZATION_ROLE ('creator');
#253 = PERSON ('', '', $, $, $, $);
#254 = ORGANIZATION ($, '', '');
#255 = PERSON_AND_ORGANIZATION (#253, #254);
#256 = CC_DESIGN_PERSON_AND_ORGANIZATION_ASSIGNMENT (#255, #252, (#238));
#257 = PERSON_AND_ORGANIZATION_ROLE ('part_supplier');
#258 = PERSON ('', '', $, $, $, $);
#259 = ORGANIZATION ($, '', '');
#260 = PERSON_AND_ORGANIZATION (#258, #259);
#261 = CC_DESIGN_PERSON_AND_ORGANIZATION_ASSIGNMENT (#260, #257, (#238));
#262 = SECURITY_CLASSIFICATION_LEVEL ('unclassified');
#263 = SECURITY_CLASSIFICATION ('', '', #262);
#264 = APPROVAL_STATUS ('approved');
#265 = APPROVAL (#264, '');
#266 = CALENDAR_DATE (2020, 9, 7);
#267 = COORDINATED_UNIVERSAL_TIME_OFFSET (0, $, .AHEAD.);
#268 = LOCAL_TIME (12, 17, 48., #267);
#269 = DATE_AND_TIME (#266, #268);
#270 = APPROVAL_DATE_TIME (#269, #265);
#271 = APPROVAL_ROLE ('');
#272 = PERSON ('', '', $, $, $, $);
#273 = ORGANIZATION ($, '', '');
#274 = PERSON_AND_ORGANIZATION (#272, #273);
#275 = APPROVAL_PERSON_ORGANIZATION (#274, #265, #271);
#276 = CC_DESIGN_APPROVAL (#265, (#263));
#277 = DATE_TIME_ROLE ('classification_date');
#278 = CALENDAR_DATE (2020, 9, 7);
#279 = COORDINATED_UNIVERSAL_TIME_OFFSET (0, $, .AHEAD.);
#280 = LOCAL_TIME (12, 17, 48., #279);
#281 = DATE_AND_TIME (#278, #280);
#282 = CC_DESIGN_DATE_AND_TIME_ASSIGNMENT (#281, #277, (#263));
#283 = PERSON_AND_ORGANIZATION_ROLE ('classification_officer');
#284 = PERSON ('', '', $, $, $, $);
#285 = ORGANIZATION ($, '', '');
#286 = PERSON_AND_ORGANIZATION (#284, #285);
#287 = CC_DESIGN_PERSON_AND_ORGANIZATION_ASSIGNMENT (#286, #283, (#263));
#288 = CC_DESIGN_SECURITY_CLASSIFICATION (#263, (#238));
#289 = DESIGN_CONTEXT ('', #228, 'design');
#290 = PRODUCT_DEFINITION ('', '', #238, #289);
#291 = APPROVAL_STATUS ('approved');
#292 = APPROVAL (#291, '');
#293 = CALENDAR_DATE (2020, 9, 7);
#294 = COORDINATED_UNIVERSAL_TIME_OFFSET (0, $, .AHEAD.);
#295 = LOCAL_TIME (12, 17, 48., #294);
#296 = DATE_AND_TIME (#293, #295);
#297 = APPROVAL_DATE_TIME (#296, #292);
#298 = APPROVAL_ROLE ('');
#299 = PERSON ('', '', $, $, $, $);
#300 = ORGANIZATION ($, '', '');
#301 = PERSON_AND_ORGANIZATION (#299, #300);
#302 = APPROVAL_PERSON_ORGANIZATION (#301, #292, #298);
#303 = CC_DESIGN_APPROVAL (#292, (#290));
#304 = DATE_TIME_ROLE ('creation_date');
#305 = CALENDAR_DATE (2020, 9, 7);
#306 = COORDINATED_UNIVERSAL_TIME_OFFSET (0, $, .AHEAD.);
#307 = LOCAL_TIME (12, 17, 48., #306);
#308 = DATE_AND_TIME (#305, #307);
#309 = CC_DESIGN_DATE_AND_TIME_ASSIGNMENT (#308, #304, (#290));
#310 = PERSON_AND_ORGANIZATION_ROLE ('creator');
#311 = PERSON ('', '', $, $, $, $);
#312 = ORGANIZATION ($, '', '');
#313 = PERSON_AND_ORGANIZATION (#311, #312);
#314 = CC_DESIGN_PERSON_AND_ORGANIZATION_ASSIGNMENT (#313, #310, (#290));
#315 = PRODUCT_DEFINITION_SHAPE ('', '', #290);
#316 = SHAPE_DEFINITION_REPRESENTATION (#315, #227);
#317 = SHAPE_REPRESENTATION_RELATIONSHIP ('', '', #227, #318);
#318 = ADVANCED_BREP_SHAPE_REPRESENTATION ('', (#221), #226);
ENDSEC;
END-ISO-10303-21;
