ISO-10303-21;
HEADER;
FILE_DESCRIPTION ((), '1');
FILE_NAME ('C:\\Users\\kevin\\MFB Range\\MFPB1001.STP', '2020-07-09T12:20:47', ('Unknown'), ('mafordeurope'), 'OneCNC-XR7 Mill 3D Expert', 'OneCNC-XR7 Mill 3D Expert', '');
FILE_SCHEMA (('CONFIG_CONTROL_DESIGN'));
ENDSEC;

DATA;
#1 = CARTESIAN_POINT ('', (-2.52367716649075E-33, 1.54530658201208E-49, -1.54530658201208E-49));
#2 = VERTEX_POINT ('', #1);
#3 = CARTESIAN_POINT ('', (-5., 5., -1.22464679914735E-15));
#4 = VERTEX_POINT ('', #3);
#5 = CARTESIAN_POINT ('', (-2.52367716649075E-33, 1.54530658201208E-49, -1.54530658201208E-49));
#6 = CARTESIAN_POINT ('', (-2.25146795313544E-18, 0.546276888898633, -1.33799248687577E-16));
#7 = CARTESIAN_POINT ('', (-0.145854845565456, 1.42614127340927, -3.49303869122519E-16));
#8 = CARTESIAN_POINT ('', (-0.727741756412037, 2.70194840410276, -6.6178649290915E-16));
#9 = CARTESIAN_POINT ('', (-1.48840525154976, 3.63760905176292, -8.90957256358179E-16));
#10 = CARTESIAN_POINT ('', (-2.45576047108788, 4.34418818345896, -1.06401923075335E-15));
#11 = CARTESIAN_POINT ('', (-3.57385872659072, 4.85414515443454, -1.18892266519498E-15));
#12 = CARTESIAN_POINT ('', (-4.45372311110137, 5., -1.22464679914735E-15));
#13 = CARTESIAN_POINT ('', (-5., 5., -1.22464679914735E-15));
#14 = B_SPLINE_CURVE_WITH_KNOTS ('', 3, (#5, #6, #7, #8, #9, #10, #11, #12, #13), .UNSPECIFIED., .F., .U., (4, 1, 1, 1, 1, 1, 4), (0., 0.208662401196191, 0.33617370428258, 0.532939663384363, 0.66382629571742, 0.791337598803809, 1.), .UNSPECIFIED.);
#15 = EDGE_CURVE ('', #2, #4, #14, .T.);
#16 = ORIENTED_EDGE ('', *, *, #15, .F.);
#17 = ORIENTED_EDGE ('', *, *, #15, .T.);
#18 = CARTESIAN_POINT ('', (-5., 5., -1.22464679914735E-15));
#19 = CARTESIAN_POINT ('', (-5., 5., 20.));
#20 = CARTESIAN_POINT ('', (-5., -15., 10.));
#21 = CARTESIAN_POINT ('', (-5., -15., -10.));
#22 = CARTESIAN_POINT ('', (-5., 5., -20.));
#23 = CARTESIAN_POINT ('', (-5., 5., -1.22464679914735E-15));
#24 = (
   BOUNDED_CURVE ()
   B_SPLINE_CURVE (5, (#18, #19, #20, #21, #22, #23), .UNSPECIFIED., .T., .U.)
   B_SPLINE_CURVE_WITH_KNOTS ((6, 6), (0., 1.), .UNSPECIFIED.)
   CURVE ()
   GEOMETRIC_REPRESENTATION_ITEM ()
   RATIONAL_B_SPLINE_CURVE ((5., 1., 1., 1., 1., 5.))
   REPRESENTATION_ITEM ('')
);
#25 = EDGE_CURVE ('', #4, #4, #24, .T.);
#26 = ORIENTED_EDGE ('', *, *, #25, .F.);
#27 = EDGE_LOOP ('', (#16, #17, #26));
#28 = FACE_OUTER_BOUND ('', #27, .F.);
#29 = CARTESIAN_POINT ('', (-2.52367716649075E-33, 1.54530658201208E-49, -1.54530658201208E-49));
#30 = CARTESIAN_POINT ('', (-2.25146795313544E-18, 0.546276888898633, -1.33799248687577E-16));
#31 = CARTESIAN_POINT ('', (-0.145854845565456, 1.42614127340927, -3.49303869122519E-16));
#32 = CARTESIAN_POINT ('', (-0.727741756412037, 2.70194840410276, -6.6178649290915E-16));
#33 = CARTESIAN_POINT ('', (-1.48840525154976, 3.63760905176292, -8.90957256358179E-16));
#34 = CARTESIAN_POINT ('', (-2.45576047108788, 4.34418818345896, -1.06401923075335E-15));
#35 = CARTESIAN_POINT ('', (-3.57385872659072, 4.85414515443454, -1.18892266519498E-15));
#36 = CARTESIAN_POINT ('', (-4.45372311110137, 5., -1.22464679914735E-15));
#37 = CARTESIAN_POINT ('', (-5., 5., -1.22464679914735E-15));
#38 = CARTESIAN_POINT ('', (-2.52367716649075E-33, 1.54530658201208E-49, -1.54530658201208E-49));
#39 = CARTESIAN_POINT ('', (-1.36050716640712E-16, 0.546276888898633, 2.18510755559453));
#40 = CARTESIAN_POINT ('', (-0.145854845565456, 1.42614127340927, 5.70456509363709));
#41 = CARTESIAN_POINT ('', (-0.727741756412038, 2.70194840410277, 10.8077936164111));
#42 = CARTESIAN_POINT ('', (-1.48840525154976, 3.63760905176292, 14.5504362070517));
#43 = CARTESIAN_POINT ('', (-2.45576047108788, 4.34418818345896, 17.3767527338358));
#44 = CARTESIAN_POINT ('', (-3.57385872659073, 4.85414515443455, 19.4165806177382));
#45 = CARTESIAN_POINT ('', (-4.45372311110137, 5.00000000000001, 20.));
#46 = CARTESIAN_POINT ('', (-5., 5., 20.));
#47 = CARTESIAN_POINT ('', (-2.52367716649075E-33, 1.54530658201208E-49, -1.54530658201208E-49));
#48 = CARTESIAN_POINT ('', (-2.02950340984501E-16, -1.6388306666959, 1.09255377779727));
#49 = CARTESIAN_POINT ('', (-0.145854845565456, -4.27842382022782, 2.85228254681855));
#50 = CARTESIAN_POINT ('', (-0.727741756412038, -8.10584521230829, 5.40389680820553));
#51 = CARTESIAN_POINT ('', (-1.48840525154976, -10.9128271552887, 7.27521810352584));
#52 = CARTESIAN_POINT ('', (-2.45576047108788, -13.0325645503769, 8.68837636691791));
#53 = CARTESIAN_POINT ('', (-3.57385872659073, -14.5624354633036, 9.70829030886909));
#54 = CARTESIAN_POINT ('', (-4.45372311110137, -15., 10.));
#55 = CARTESIAN_POINT ('', (-5., -15., 10.));
#56 = CARTESIAN_POINT ('', (-2.52367716649075E-33, 1.54530658201208E-49, -1.54530658201208E-49));
#57 = CARTESIAN_POINT ('', (-6.9151092296924E-17, -1.6388306666959, -1.09255377779726));
#58 = CARTESIAN_POINT ('', (-0.145854845565456, -4.27842382022782, -2.85228254681855));
#59 = CARTESIAN_POINT ('', (-0.727741756412037, -8.10584521230829, -5.40389680820553));
#60 = CARTESIAN_POINT ('', (-1.48840525154976, -10.9128271552888, -7.27521810352583));
#61 = CARTESIAN_POINT ('', (-2.45576047108788, -13.0325645503769, -8.68837636691791));
#62 = CARTESIAN_POINT ('', (-3.57385872659072, -14.5624354633036, -9.70829030886908));
#63 = CARTESIAN_POINT ('', (-4.45372311110137, -15., -10.));
#64 = CARTESIAN_POINT ('', (-5., -15., -10.));
#65 = CARTESIAN_POINT ('', (-2.52367716649075E-33, 1.54530658201208E-49, -1.54530658201208E-49));
#66 = CARTESIAN_POINT ('', (1.31547780734441E-16, 0.546276888898632, -2.18510755559453));
#67 = CARTESIAN_POINT ('', (-0.145854845565456, 1.42614127340927, -5.70456509363709));
#68 = CARTESIAN_POINT ('', (-0.727741756412037, 2.70194840410276, -10.8077936164111));
#69 = CARTESIAN_POINT ('', (-1.48840525154976, 3.63760905176291, -14.5504362070517));
#70 = CARTESIAN_POINT ('', (-2.45576047108788, 4.34418818345895, -17.3767527338358));
#71 = CARTESIAN_POINT ('', (-3.57385872659072, 4.85414515443454, -19.4165806177382));
#72 = CARTESIAN_POINT ('', (-4.45372311110137, 5., -20.));
#73 = CARTESIAN_POINT ('', (-5., 5., -20.));
#74 = CARTESIAN_POINT ('', (-2.52367716649075E-33, 1.54530658201208E-49, -1.54530658201208E-49));
#75 = CARTESIAN_POINT ('', (-2.25146795313544E-18, 0.546276888898633, -1.33799248687577E-16));
#76 = CARTESIAN_POINT ('', (-0.145854845565456, 1.42614127340927, -3.49303869122519E-16));
#77 = CARTESIAN_POINT ('', (-0.727741756412037, 2.70194840410276, -6.6178649290915E-16));
#78 = CARTESIAN_POINT ('', (-1.48840525154976, 3.63760905176292, -8.90957256358179E-16));
#79 = CARTESIAN_POINT ('', (-2.45576047108788, 4.34418818345896, -1.06401923075335E-15));
#80 = CARTESIAN_POINT ('', (-3.57385872659072, 4.85414515443454, -1.18892266519498E-15));
#81 = CARTESIAN_POINT ('', (-4.45372311110137, 5., -1.22464679914735E-15));
#82 = CARTESIAN_POINT ('', (-5., 5., -1.22464679914735E-15));
#83 = (
   BOUNDED_SURFACE ()
   B_SPLINE_SURFACE (5, 3, ((#29, #30, #31, #32, #33, #34, #35, #36, #37), (#38, #39, #40, #41, #42, #43, #44, #45, #46), (#47, #48, #49, #50, #51, #52, #53, #54, #55), (#56, #57, #58, #59, #60, #61, #62, #63, #64), (#65, #66, #67, #68, #69, #70, #71, #72, #73), (#74, #75, #76, #77, #78, #79, #80, #81, #82)), .UNSPECIFIED., .T., .F., .U.)
   B_SPLINE_SURFACE_WITH_KNOTS ((6, 6), (4, 1, 1, 1, 1, 1, 4), (0., 1.), (0., 0.208662401196191, 0.33617370428258, 0.532939663384363, 0.66382629571742, 0.791337598803809, 1.), .UNSPECIFIED.)
   SURFACE ()
   GEOMETRIC_REPRESENTATION_ITEM ()
   RATIONAL_B_SPLINE_SURFACE (((5., 5., 5., 5., 5., 5., 5., 5., 5.), (1., 1., 1., 1., 1., 1., 1., 1., 1.), (1., 1., 1., 1., 1., 1., 1., 1., 1.), (1., 1., 1., 1., 1., 1., 1., 1., 1.), (1., 1., 1., 1., 1., 1., 1., 1., 1.), (5., 5., 5., 5., 5., 5., 5., 5., 5.)))
   REPRESENTATION_ITEM ('')
);
#84 = ADVANCED_FACE ('', (#28), #83, .F.);
#85 = CARTESIAN_POINT ('', (-107.75, 5., -1.22464679914735E-15));
#86 = VERTEX_POINT ('', #85);
#87 = CARTESIAN_POINT ('', (-5., 5., -1.22464679914735E-15));
#88 = CARTESIAN_POINT ('', (-39.25, 5., -1.22464679914735E-15));
#89 = CARTESIAN_POINT ('', (-73.5, 4.99999999999999, -1.22464679914735E-15));
#90 = CARTESIAN_POINT ('', (-107.75, 5., -1.22464679914735E-15));
#91 = B_SPLINE_CURVE_WITH_KNOTS ('', 3, (#87, #88, #89, #90), .UNSPECIFIED., .F., .U., (4, 4), (0., 1.), .UNSPECIFIED.);
#92 = EDGE_CURVE ('', #4, #86, #91, .T.);
#93 = ORIENTED_EDGE ('', *, *, #92, .F.);
#94 = ORIENTED_EDGE ('', *, *, #25, .T.);
#95 = ORIENTED_EDGE ('', *, *, #92, .T.);
#96 = CARTESIAN_POINT ('', (-107.75, 5., -1.22464679914735E-15));
#97 = CARTESIAN_POINT ('', (-107.75, 4.99999999999998, 20.));
#98 = CARTESIAN_POINT ('', (-107.75, -15., 9.99999999999996));
#99 = CARTESIAN_POINT ('', (-107.75, -15., -10.));
#100 = CARTESIAN_POINT ('', (-107.75, 5.00000000000002, -20.));
#101 = CARTESIAN_POINT ('', (-107.75, 5., -1.22464679914735E-15));
#102 = (
   BOUNDED_CURVE ()
   B_SPLINE_CURVE (5, (#96, #97, #98, #99, #100, #101), .UNSPECIFIED., .T., .U.)
   B_SPLINE_CURVE_WITH_KNOTS ((6, 6), (0., 1.), .UNSPECIFIED.)
   CURVE ()
   GEOMETRIC_REPRESENTATION_ITEM ()
   RATIONAL_B_SPLINE_CURVE ((5., 1., 1., 1., 1., 5.))
   REPRESENTATION_ITEM ('')
);
#103 = EDGE_CURVE ('', #86, #86, #102, .T.);
#104 = ORIENTED_EDGE ('', *, *, #103, .F.);
#105 = EDGE_LOOP ('', (#93, #94, #95, #104));
#106 = FACE_OUTER_BOUND ('', #105, .F.);
#107 = CARTESIAN_POINT ('', (-5., 5., -1.22464679914735E-15));
#108 = CARTESIAN_POINT ('', (-39.25, 5., -1.22464679914735E-15));
#109 = CARTESIAN_POINT ('', (-73.5, 4.99999999999999, -1.22464679914735E-15));
#110 = CARTESIAN_POINT ('', (-107.75, 5., -1.22464679914735E-15));
#111 = CARTESIAN_POINT ('', (-5., 5., 20.));
#112 = CARTESIAN_POINT ('', (-39.25, 5., 20.));
#113 = CARTESIAN_POINT ('', (-73.5, 4.99999999999998, 20.));
#114 = CARTESIAN_POINT ('', (-107.75, 4.99999999999998, 20.));
#115 = CARTESIAN_POINT ('', (-5., -15., 10.));
#116 = CARTESIAN_POINT ('', (-39.25, -15., 9.99999999999999));
#117 = CARTESIAN_POINT ('', (-73.5, -15., 9.99999999999996));
#118 = CARTESIAN_POINT ('', (-107.75, -15., 9.99999999999996));
#119 = CARTESIAN_POINT ('', (-5., -15., -10.));
#120 = CARTESIAN_POINT ('', (-39.25, -15., -10.));
#121 = CARTESIAN_POINT ('', (-73.5, -15., -9.99999999999999));
#122 = CARTESIAN_POINT ('', (-107.75, -15., -10.));
#123 = CARTESIAN_POINT ('', (-5., 5., -20.));
#124 = CARTESIAN_POINT ('', (-39.25, 5.00000000000001, -20.));
#125 = CARTESIAN_POINT ('', (-73.5, 5.00000000000001, -20.));
#126 = CARTESIAN_POINT ('', (-107.75, 5.00000000000002, -20.));
#127 = CARTESIAN_POINT ('', (-5., 5., -1.22464679914735E-15));
#128 = CARTESIAN_POINT ('', (-39.25, 5., -1.22464679914735E-15));
#129 = CARTESIAN_POINT ('', (-73.5, 4.99999999999999, -1.22464679914735E-15));
#130 = CARTESIAN_POINT ('', (-107.75, 5., -1.22464679914735E-15));
#131 = (
   BOUNDED_SURFACE ()
   B_SPLINE_SURFACE (5, 3, ((#107, #108, #109, #110), (#111, #112, #113, #114), (#115, #116, #117, #118), (#119, #120, #121, #122), (#123, #124, #125, #126), (#127, #128, #129, #130)), .UNSPECIFIED., .T., .F., .U.)
   B_SPLINE_SURFACE_WITH_KNOTS ((6, 6), (4, 4), (0., 1.), (0., 1.), .UNSPECIFIED.)
   SURFACE ()
   GEOMETRIC_REPRESENTATION_ITEM ()
   RATIONAL_B_SPLINE_SURFACE (((5., 5., 5., 5.), (1., 1., 1., 1.), (1., 1., 1., 1.), (1., 1., 1., 1.), (1., 1., 1., 1.), (5., 5., 5., 5.)))
   REPRESENTATION_ITEM ('')
);
#132 = ADVANCED_FACE ('', (#106), #131, .F.);
#133 = CARTESIAN_POINT ('', (-108., 4.75, -1.16341445918998E-15));
#134 = VERTEX_POINT ('', #133);
#135 = CARTESIAN_POINT ('', (-107.75, 5., -1.22464679914735E-15));
#136 = CARTESIAN_POINT ('', (-107.833333333334, 4.91666666666666, -1.20423601916156E-15));
#137 = CARTESIAN_POINT ('', (-107.916666666666, 4.83333333333334, -1.18382523917577E-15));
#138 = CARTESIAN_POINT ('', (-108., 4.75, -1.16341445918998E-15));
#139 = B_SPLINE_CURVE_WITH_KNOTS ('', 3, (#135, #136, #137, #138), .UNSPECIFIED., .F., .U., (4, 4), (0., 1.), .UNSPECIFIED.);
#140 = EDGE_CURVE ('', #86, #134, #139, .T.);
#141 = ORIENTED_EDGE ('', *, *, #140, .F.);
#142 = ORIENTED_EDGE ('', *, *, #103, .T.);
#143 = ORIENTED_EDGE ('', *, *, #140, .T.);
#144 = CARTESIAN_POINT ('', (-108., 4.75, -1.16341445918998E-15));
#145 = CARTESIAN_POINT ('', (-108., 4.74999999999998, 19.));
#146 = CARTESIAN_POINT ('', (-108., -14.25, 9.49999999999996));
#147 = CARTESIAN_POINT ('', (-108., -14.25, -9.50000000000001));
#148 = CARTESIAN_POINT ('', (-108., 4.75000000000002, -19.));
#149 = CARTESIAN_POINT ('', (-108., 4.75, -1.16341445918998E-15));
#150 = (
   BOUNDED_CURVE ()
   B_SPLINE_CURVE (5, (#144, #145, #146, #147, #148, #149), .UNSPECIFIED., .T., .U.)
   B_SPLINE_CURVE_WITH_KNOTS ((6, 6), (0., 1.), .UNSPECIFIED.)
   CURVE ()
   GEOMETRIC_REPRESENTATION_ITEM ()
   RATIONAL_B_SPLINE_CURVE ((5., 1., 1., 1., 1., 5.))
   REPRESENTATION_ITEM ('')
);
#151 = EDGE_CURVE ('', #134, #134, #150, .T.);
#152 = ORIENTED_EDGE ('', *, *, #151, .F.);
#153 = EDGE_LOOP ('', (#141, #142, #143, #152));
#154 = FACE_OUTER_BOUND ('', #153, .F.);
#155 = CARTESIAN_POINT ('', (-107.75, 5., -1.22464679914735E-15));
#156 = CARTESIAN_POINT ('', (-107.833333333334, 4.91666666666666, -1.20423601916156E-15));
#157 = CARTESIAN_POINT ('', (-107.916666666666, 4.83333333333334, -1.18382523917577E-15));
#158 = CARTESIAN_POINT ('', (-108., 4.75, -1.16341445918998E-15));
#159 = CARTESIAN_POINT ('', (-107.75, 4.99999999999998, 20.));
#160 = CARTESIAN_POINT ('', (-107.833333333334, 4.91666666666664, 19.6666666666666));
#161 = CARTESIAN_POINT ('', (-107.916666666666, 4.83333333333332, 19.3333333333333));
#162 = CARTESIAN_POINT ('', (-108., 4.74999999999998, 19.));
#163 = CARTESIAN_POINT ('', (-107.75, -15., 9.99999999999996));
#164 = CARTESIAN_POINT ('', (-107.833333333334, -14.75, 9.83333333333328));
#165 = CARTESIAN_POINT ('', (-107.916666666666, -14.5, 9.66666666666664));
#166 = CARTESIAN_POINT ('', (-108., -14.25, 9.49999999999996));
#167 = CARTESIAN_POINT ('', (-107.75, -15., -10.));
#168 = CARTESIAN_POINT ('', (-107.833333333334, -14.7499999999999, -9.83333333333333));
#169 = CARTESIAN_POINT ('', (-107.916666666666, -14.5, -9.66666666666669));
#170 = CARTESIAN_POINT ('', (-108., -14.25, -9.50000000000001));
#171 = CARTESIAN_POINT ('', (-107.75, 5.00000000000002, -20.));
#172 = CARTESIAN_POINT ('', (-107.833333333334, 4.91666666666668, -19.6666666666666));
#173 = CARTESIAN_POINT ('', (-107.916666666666, 4.83333333333336, -19.3333333333333));
#174 = CARTESIAN_POINT ('', (-108., 4.75000000000002, -19.));
#175 = CARTESIAN_POINT ('', (-107.75, 5., -1.22464679914735E-15));
#176 = CARTESIAN_POINT ('', (-107.833333333334, 4.91666666666666, -1.20423601916156E-15));
#177 = CARTESIAN_POINT ('', (-107.916666666666, 4.83333333333334, -1.18382523917577E-15));
#178 = CARTESIAN_POINT ('', (-108., 4.75, -1.16341445918998E-15));
#179 = (
   BOUNDED_SURFACE ()
   B_SPLINE_SURFACE (5, 3, ((#155, #156, #157, #158), (#159, #160, #161, #162), (#163, #164, #165, #166), (#167, #168, #169, #170), (#171, #172, #173, #174), (#175, #176, #177, #178)), .UNSPECIFIED., .T., .F., .U.)
   B_SPLINE_SURFACE_WITH_KNOTS ((6, 6), (4, 4), (0., 1.), (0., 1.), .UNSPECIFIED.)
   SURFACE ()
   GEOMETRIC_REPRESENTATION_ITEM ()
   RATIONAL_B_SPLINE_SURFACE (((5., 5., 5., 5.), (1., 1., 1., 1.), (1., 1., 1., 1.), (1., 1., 1., 1.), (1., 1., 1., 1.), (5., 5., 5., 5.)))
   REPRESENTATION_ITEM ('')
);
#180 = ADVANCED_FACE ('', (#154), #179, .F.);
#181 = CARTESIAN_POINT ('', (-108., 6.61309271539571E-15, -6.61309271539571E-15));
#182 = VERTEX_POINT ('', #181);
#183 = CARTESIAN_POINT ('', (-108., 4.75, -1.16341445918998E-15));
#184 = CARTESIAN_POINT ('', (-108., 3.16666666666665, -7.75609639459985E-16));
#185 = CARTESIAN_POINT ('', (-108., 1.58333333333334, -3.87804819729995E-16));
#186 = CARTESIAN_POINT ('', (-108., 6.61309271539571E-15, -6.61309271539571E-15));
#187 = B_SPLINE_CURVE_WITH_KNOTS ('', 3, (#183, #184, #185, #186), .UNSPECIFIED., .F., .U., (4, 4), (0., 1.), .UNSPECIFIED.);
#188 = EDGE_CURVE ('', #134, #182, #187, .T.);
#189 = ORIENTED_EDGE ('', *, *, #188, .F.);
#190 = ORIENTED_EDGE ('', *, *, #151, .T.);
#191 = ORIENTED_EDGE ('', *, *, #188, .T.);
#192 = EDGE_LOOP ('', (#189, #190, #191));
#193 = FACE_OUTER_BOUND ('', #192, .F.);
#194 = CARTESIAN_POINT ('', (-108., 4.75, -1.16341445918998E-15));
#195 = CARTESIAN_POINT ('', (-108., 3.16666666666665, -7.75609639459985E-16));
#196 = CARTESIAN_POINT ('', (-108., 1.58333333333334, -3.87804819729995E-16));
#197 = CARTESIAN_POINT ('', (-108., 6.61309271539571E-15, -6.61309271539571E-15));
#198 = CARTESIAN_POINT ('', (-108., 4.74999999999998, 19.));
#199 = CARTESIAN_POINT ('', (-108., 3.16666666666663, 12.6666666666666));
#200 = CARTESIAN_POINT ('', (-108., 1.58333333333331, 6.33333333333332));
#201 = CARTESIAN_POINT ('', (-108., 6.61309271539571E-15, -6.61309271539571E-15));
#202 = CARTESIAN_POINT ('', (-108., -14.25, 9.49999999999996));
#203 = CARTESIAN_POINT ('', (-108., -9.49999999999994, 6.33333333333327));
#204 = CARTESIAN_POINT ('', (-108., -4.75, 3.16666666666664));
#205 = CARTESIAN_POINT ('', (-108., 6.61309271539571E-15, -6.61309271539571E-15));
#206 = CARTESIAN_POINT ('', (-108., -14.25, -9.50000000000001));
#207 = CARTESIAN_POINT ('', (-108., -9.49999999999992, -6.33333333333331));
#208 = CARTESIAN_POINT ('', (-108., -4.74999999999997, -3.16666666666669));
#209 = CARTESIAN_POINT ('', (-108., 6.61309271539571E-15, -6.61309271539571E-15));
#210 = CARTESIAN_POINT ('', (-108., 4.75000000000002, -19.));
#211 = CARTESIAN_POINT ('', (-108., 3.16666666666668, -12.6666666666666));
#212 = CARTESIAN_POINT ('', (-108., 1.58333333333336, -6.33333333333332));
#213 = CARTESIAN_POINT ('', (-108., 6.61309271539571E-15, -6.61309271539571E-15));
#214 = CARTESIAN_POINT ('', (-108., 4.75, -1.16341445918998E-15));
#215 = CARTESIAN_POINT ('', (-108., 3.16666666666665, -7.75609639459985E-16));
#216 = CARTESIAN_POINT ('', (-108., 1.58333333333334, -3.87804819729995E-16));
#217 = CARTESIAN_POINT ('', (-108., 6.61309271539571E-15, -6.61309271539571E-15));
#218 = (
   BOUNDED_SURFACE ()
   B_SPLINE_SURFACE (5, 3, ((#194, #195, #196, #197), (#198, #199, #200, #201), (#202, #203, #204, #205), (#206, #207, #208, #209), (#210, #211, #212, #213), (#214, #215, #216, #217)), .UNSPECIFIED., .T., .F., .U.)
   B_SPLINE_SURFACE_WITH_KNOTS ((6, 6), (4, 4), (0., 1.), (0., 1.), .UNSPECIFIED.)
   SURFACE ()
   GEOMETRIC_REPRESENTATION_ITEM ()
   RATIONAL_B_SPLINE_SURFACE (((5., 5., 5., 5.), (1., 1., 1., 1.), (1., 1., 1., 1.), (1., 1., 1., 1.), (1., 1., 1., 1.), (5., 5., 5., 5.)))
   REPRESENTATION_ITEM ('')
);
#219 = ADVANCED_FACE ('', (#193), #218, .F.);
#220 = CLOSED_SHELL ('', (#84, #132, #180, #219));
#221 = MANIFOLD_SOLID_BREP ('', #220);
#222 = (
   LENGTH_UNIT ()
   NAMED_UNIT (*)
   SI_UNIT (.MILLI., .METRE.)
);
#223 = (
   NAMED_UNIT (*)
   SI_UNIT ($, .STERADIAN.)
   SOLID_ANGLE_UNIT ()
);
#224 = (
   NAMED_UNIT (*)
   SI_UNIT ($, .RADIAN.)
   PLANE_ANGLE_UNIT ()
);
#225 = UNCERTAINTY_MEASURE_WITH_UNIT (LENGTH_MEASURE(0.001), #222, 'DISTANCE_ACCURACY_VALUE', '');
#226 = (
   GEOMETRIC_REPRESENTATION_CONTEXT (3)
   GLOBAL_UNCERTAINTY_ASSIGNED_CONTEXT ((#225))
   GLOBAL_UNIT_ASSIGNED_CONTEXT ((#222, #223, #224))
   REPRESENTATION_CONTEXT ('', '3D')
);
#227 = SHAPE_REPRESENTATION ('', (), #226);
#228 = APPLICATION_CONTEXT ('configuration controlled 3D designs of mechanical parts and assemblies');
#229 = APPLICATION_PROTOCOL_DEFINITION ('International Standard', 'config_control_design', 1997, #228);
#230 = MECHANICAL_CONTEXT ('', #228, 'mechanical');
#231 = PRODUCT ('', '', '', (#230));
#232 = PERSON_AND_ORGANIZATION_ROLE ('design_owner');
#233 = PERSON ('', '', $, $, $, $);
#234 = ORGANIZATION ($, '', '');
#235 = PERSON_AND_ORGANIZATION (#233, #234);
#236 = CC_DESIGN_PERSON_AND_ORGANIZATION_ASSIGNMENT (#235, #232, (#231));
#237 = PRODUCT_RELATED_PRODUCT_CATEGORY ('detail', $, (#231));
#238 = PRODUCT_DEFINITION_FORMATION_WITH_SPECIFIED_SOURCE ('', '', #231, .NOT_KNOWN.);
#239 = APPROVAL_STATUS ('approved');
#240 = APPROVAL (#239, '');
#241 = CALENDAR_DATE (2020, 9, 7);
#242 = COORDINATED_UNIVERSAL_TIME_OFFSET (0, $, .AHEAD.);
#243 = LOCAL_TIME (12, 20, 47., #242);
#244 = DATE_AND_TIME (#241, #243);
#245 = APPROVAL_DATE_TIME (#244, #240);
#246 = APPROVAL_ROLE ('');
#247 = PERSON ('', '', $, $, $, $);
#248 = ORGANIZATION ($, '', '');
#249 = PERSON_AND_ORGANIZATION (#247, #248);
#250 = APPROVAL_PERSON_ORGANIZATION (#249, #240, #246);
#251 = CC_DESIGN_APPROVAL (#240, (#238));
#252 = PERSON_AND_ORGANIZATION_ROLE ('creator');
#253 = PERSON ('', '', $, $, $, $);
#254 = ORGANIZATION ($, '', '');
#255 = PERSON_AND_ORGANIZATION (#253, #254);
#256 = CC_DESIGN_PERSON_AND_ORGANIZATION_ASSIGNMENT (#255, #252, (#238));
#257 = PERSON_AND_ORGANIZATION_ROLE ('part_supplier');
#258 = PERSON ('', '', $, $, $, $);
#259 = ORGANIZATION ($, '', '');
#260 = PERSON_AND_ORGANIZATION (#258, #259);
#261 = CC_DESIGN_PERSON_AND_ORGANIZATION_ASSIGNMENT (#260, #257, (#238));
#262 = SECURITY_CLASSIFICATION_LEVEL ('unclassified');
#263 = SECURITY_CLASSIFICATION ('', '', #262);
#264 = APPROVAL_STATUS ('approved');
#265 = APPROVAL (#264, '');
#266 = CALENDAR_DATE (2020, 9, 7);
#267 = COORDINATED_UNIVERSAL_TIME_OFFSET (0, $, .AHEAD.);
#268 = LOCAL_TIME (12, 20, 47., #267);
#269 = DATE_AND_TIME (#266, #268);
#270 = APPROVAL_DATE_TIME (#269, #265);
#271 = APPROVAL_ROLE ('');
#272 = PERSON ('', '', $, $, $, $);
#273 = ORGANIZATION ($, '', '');
#274 = PERSON_AND_ORGANIZATION (#272, #273);
#275 = APPROVAL_PERSON_ORGANIZATION (#274, #265, #271);
#276 = CC_DESIGN_APPROVAL (#265, (#263));
#277 = DATE_TIME_ROLE ('classification_date');
#278 = CALENDAR_DATE (2020, 9, 7);
#279 = COORDINATED_UNIVERSAL_TIME_OFFSET (0, $, .AHEAD.);
#280 = LOCAL_TIME (12, 20, 47., #279);
#281 = DATE_AND_TIME (#278, #280);
#282 = CC_DESIGN_DATE_AND_TIME_ASSIGNMENT (#281, #277, (#263));
#283 = PERSON_AND_ORGANIZATION_ROLE ('classification_officer');
#284 = PERSON ('', '', $, $, $, $);
#285 = ORGANIZATION ($, '', '');
#286 = PERSON_AND_ORGANIZATION (#284, #285);
#287 = CC_DESIGN_PERSON_AND_ORGANIZATION_ASSIGNMENT (#286, #283, (#263));
#288 = CC_DESIGN_SECURITY_CLASSIFICATION (#263, (#238));
#289 = DESIGN_CONTEXT ('', #228, 'design');
#290 = PRODUCT_DEFINITION ('', '', #238, #289);
#291 = APPROVAL_STATUS ('approved');
#292 = APPROVAL (#291, '');
#293 = CALENDAR_DATE (2020, 9, 7);
#294 = COORDINATED_UNIVERSAL_TIME_OFFSET (0, $, .AHEAD.);
#295 = LOCAL_TIME (12, 20, 47., #294);
#296 = DATE_AND_TIME (#293, #295);
#297 = APPROVAL_DATE_TIME (#296, #292);
#298 = APPROVAL_ROLE ('');
#299 = PERSON ('', '', $, $, $, $);
#300 = ORGANIZATION ($, '', '');
#301 = PERSON_AND_ORGANIZATION (#299, #300);
#302 = APPROVAL_PERSON_ORGANIZATION (#301, #292, #298);
#303 = CC_DESIGN_APPROVAL (#292, (#290));
#304 = DATE_TIME_ROLE ('creation_date');
#305 = CALENDAR_DATE (2020, 9, 7);
#306 = COORDINATED_UNIVERSAL_TIME_OFFSET (0, $, .AHEAD.);
#307 = LOCAL_TIME (12, 20, 47., #306);
#308 = DATE_AND_TIME (#305, #307);
#309 = CC_DESIGN_DATE_AND_TIME_ASSIGNMENT (#308, #304, (#290));
#310 = PERSON_AND_ORGANIZATION_ROLE ('creator');
#311 = PERSON ('', '', $, $, $, $);
#312 = ORGANIZATION ($, '', '');
#313 = PERSON_AND_ORGANIZATION (#311, #312);
#314 = CC_DESIGN_PERSON_AND_ORGANIZATION_ASSIGNMENT (#313, #310, (#290));
#315 = PRODUCT_DEFINITION_SHAPE ('', '', #290);
#316 = SHAPE_DEFINITION_REPRESENTATION (#315, #227);
#317 = SHAPE_REPRESENTATION_RELATIONSHIP ('', '', #227, #318);
#318 = ADVANCED_BREP_SHAPE_REPRESENTATION ('', (#221), #226);
ENDSEC;
END-ISO-10303-21;
