ISO-10303-21;
HEADER;
FILE_DESCRIPTION ((), '1');
FILE_NAME ('C:\\Users\\kevin\\MFB Range\\MFPB1201.STP', '2020-07-09T12:23:28', ('Unknown'), ('mafordeurope'), 'OneCNC-XR7 Mill 3D Expert', 'OneCNC-XR7 Mill 3D Expert', '');
FILE_SCHEMA (('CONFIG_CONTROL_DESIGN'));
ENDSEC;

DATA;
#1 = CARTESIAN_POINT ('', (1.23259516440783E-32, 1., -2.44929359829471E-16));
#2 = VERTEX_POINT ('', #1);
#3 = CARTESIAN_POINT ('', (0., 0., 0.));
#4 = VERTEX_POINT ('', #3);
#5 = CARTESIAN_POINT ('', (1.23259516440783E-32, 1., -2.44929359829471E-16));
#6 = CARTESIAN_POINT ('', (1.23259516440783E-32, 0.666666666666666, -1.63286239886314E-16));
#7 = CARTESIAN_POINT ('', (6.16297582203915E-33, 0.333333333333333, -8.16431199431569E-17));
#8 = CARTESIAN_POINT ('', (0., 0., 0.));
#9 = B_SPLINE_CURVE_WITH_KNOTS ('', 3, (#5, #6, #7, #8), .UNSPECIFIED., .F., .U., (4, 4), (0., 1.), .UNSPECIFIED.);
#10 = EDGE_CURVE ('', #2, #4, #9, .T.);
#11 = ORIENTED_EDGE ('', *, *, #10, .F.);
#12 = CARTESIAN_POINT ('', (1.23259516440783E-32, 1., -2.44929359829471E-16));
#13 = CARTESIAN_POINT ('', (-2.44929359829471E-16, 1., 4.));
#14 = CARTESIAN_POINT ('', (-3.67394039744206E-16, -3., 2.));
#15 = CARTESIAN_POINT ('', (-1.22464679914735E-16, -3., -2.));
#16 = CARTESIAN_POINT ('', (2.44929359829471E-16, 0.999999999999999, -4.));
#17 = CARTESIAN_POINT ('', (1.23259516440783E-32, 1., -2.44929359829471E-16));
#18 = (
   BOUNDED_CURVE ()
   B_SPLINE_CURVE (5, (#12, #13, #14, #15, #16, #17), .UNSPECIFIED., .T., .U.)
   B_SPLINE_CURVE_WITH_KNOTS ((6, 6), (0., 1.), .UNSPECIFIED.)
   CURVE ()
   GEOMETRIC_REPRESENTATION_ITEM ()
   RATIONAL_B_SPLINE_CURVE ((5., 1., 1., 1., 1., 5.))
   REPRESENTATION_ITEM ('')
);
#19 = EDGE_CURVE ('', #2, #2, #18, .T.);
#20 = ORIENTED_EDGE ('', *, *, #19, .T.);
#21 = ORIENTED_EDGE ('', *, *, #10, .T.);
#22 = EDGE_LOOP ('', (#11, #20, #21));
#23 = FACE_OUTER_BOUND ('', #22, .T.);
#24 = CARTESIAN_POINT ('', (1.23259516440783E-32, 1., -2.44929359829471E-16));
#25 = CARTESIAN_POINT ('', (1.23259516440783E-32, 0.666666666666666, -1.63286239886314E-16));
#26 = CARTESIAN_POINT ('', (6.16297582203915E-33, 0.333333333333333, -8.16431199431569E-17));
#27 = CARTESIAN_POINT ('', (0., 0., 0.));
#28 = CARTESIAN_POINT ('', (-2.44929359829471E-16, 1., 4.));
#29 = CARTESIAN_POINT ('', (-1.63286239886313E-16, 0.666666666666666, 2.66666666666666));
#30 = CARTESIAN_POINT ('', (-8.16431199431569E-17, 0.333333333333334, 1.33333333333333));
#31 = CARTESIAN_POINT ('', (0., 0., 0.));
#32 = CARTESIAN_POINT ('', (-3.67394039744206E-16, -3., 2.));
#33 = CARTESIAN_POINT ('', (-2.4492935982947E-16, -2., 1.33333333333333));
#34 = CARTESIAN_POINT ('', (-1.22464679914735E-16, -1., 0.666666666666667));
#35 = CARTESIAN_POINT ('', (0., 0., 0.));
#36 = CARTESIAN_POINT ('', (-1.22464679914735E-16, -3., -2.));
#37 = CARTESIAN_POINT ('', (-8.16431199431568E-17, -2., -1.33333333333333));
#38 = CARTESIAN_POINT ('', (-4.08215599715785E-17, -1., -0.666666666666666));
#39 = CARTESIAN_POINT ('', (0., 0., 0.));
#40 = CARTESIAN_POINT ('', (2.44929359829471E-16, 0.999999999999999, -4.));
#41 = CARTESIAN_POINT ('', (1.63286239886313E-16, 0.666666666666665, -2.66666666666666));
#42 = CARTESIAN_POINT ('', (8.16431199431569E-17, 0.333333333333333, -1.33333333333333));
#43 = CARTESIAN_POINT ('', (0., 0., 0.));
#44 = CARTESIAN_POINT ('', (1.23259516440783E-32, 1., -2.44929359829471E-16));
#45 = CARTESIAN_POINT ('', (1.23259516440783E-32, 0.666666666666666, -1.63286239886314E-16));
#46 = CARTESIAN_POINT ('', (6.16297582203915E-33, 0.333333333333333, -8.16431199431569E-17));
#47 = CARTESIAN_POINT ('', (0., 0., 0.));
#48 = (
   BOUNDED_SURFACE ()
   B_SPLINE_SURFACE (5, 3, ((#24, #25, #26, #27), (#28, #29, #30, #31), (#32, #33, #34, #35), (#36, #37, #38, #39), (#40, #41, #42, #43), (#44, #45, #46, #47)), .UNSPECIFIED., .T., .F., .U.)
   B_SPLINE_SURFACE_WITH_KNOTS ((6, 6), (4, 4), (0., 1.), (0., 1.), .UNSPECIFIED.)
   SURFACE ()
   GEOMETRIC_REPRESENTATION_ITEM ()
   RATIONAL_B_SPLINE_SURFACE (((5., 5., 5., 5.), (1., 1., 1., 1.), (1., 1., 1., 1.), (1., 1., 1., 1.), (1., 1., 1., 1.), (5., 5., 5., 5.)))
   REPRESENTATION_ITEM ('')
);
#49 = ADVANCED_FACE ('', (#23), #48, .T.);
#50 = CARTESIAN_POINT ('', (-5., 6., -1.46957615897682E-15));
#51 = VERTEX_POINT ('', #50);
#52 = CARTESIAN_POINT ('', (-5., 6., -1.46957615897682E-15));
#53 = CARTESIAN_POINT ('', (-4.45372311110137, 6., -1.46957615897682E-15));
#54 = CARTESIAN_POINT ('', (-3.57385872659072, 5.85414515443454, -1.43385202502445E-15));
#55 = CARTESIAN_POINT ('', (-2.29805159589724, 5.27225824358797, -1.29133083645765E-15));
#56 = CARTESIAN_POINT ('', (-1.36239094823709, 4.51159474845024, -1.10502201354792E-15));
#57 = CARTESIAN_POINT ('', (-0.65581181654104, 3.54423952891212, -8.68088318898751E-16));
#58 = CARTESIAN_POINT ('', (-0.145854845565456, 2.42614127340927, -5.94233228951989E-16));
#59 = CARTESIAN_POINT ('', (2.46519032881566E-32, 1.54627688889863, -3.78728608517048E-16));
#60 = CARTESIAN_POINT ('', (1.23259516440783E-32, 1., -2.44929359829471E-16));
#61 = B_SPLINE_CURVE_WITH_KNOTS ('', 3, (#52, #53, #54, #55, #56, #57, #58, #59, #60), .UNSPECIFIED., .F., .U., (4, 1, 1, 1, 1, 1, 4), (0., 0.208662401196191, 0.33617370428258, 0.532939663384363, 0.66382629571742, 0.791337598803809, 1.), .UNSPECIFIED.);
#62 = EDGE_CURVE ('', #51, #2, #61, .T.);
#63 = ORIENTED_EDGE ('', *, *, #62, .F.);
#64 = CARTESIAN_POINT ('', (-5., 6., -1.46957615897682E-15));
#65 = CARTESIAN_POINT ('', (-5., 6., 24.));
#66 = CARTESIAN_POINT ('', (-5., -18., 12.));
#67 = CARTESIAN_POINT ('', (-5., -18., -12.));
#68 = CARTESIAN_POINT ('', (-5., 6., -24.));
#69 = CARTESIAN_POINT ('', (-5., 6., -1.46957615897682E-15));
#70 = (
   BOUNDED_CURVE ()
   B_SPLINE_CURVE (5, (#64, #65, #66, #67, #68, #69), .UNSPECIFIED., .T., .U.)
   B_SPLINE_CURVE_WITH_KNOTS ((6, 6), (0., 1.), .UNSPECIFIED.)
   CURVE ()
   GEOMETRIC_REPRESENTATION_ITEM ()
   RATIONAL_B_SPLINE_CURVE ((5., 1., 1., 1., 1., 5.))
   REPRESENTATION_ITEM ('')
);
#71 = EDGE_CURVE ('', #51, #51, #70, .T.);
#72 = ORIENTED_EDGE ('', *, *, #71, .T.);
#73 = ORIENTED_EDGE ('', *, *, #62, .T.);
#74 = ORIENTED_EDGE ('', *, *, #19, .F.);
#75 = EDGE_LOOP ('', (#63, #72, #73, #74));
#76 = FACE_OUTER_BOUND ('', #75, .T.);
#77 = CARTESIAN_POINT ('', (-5., 6., -1.46957615897682E-15));
#78 = CARTESIAN_POINT ('', (-4.45372311110137, 6., -1.46957615897682E-15));
#79 = CARTESIAN_POINT ('', (-3.57385872659072, 5.85414515443454, -1.43385202502445E-15));
#80 = CARTESIAN_POINT ('', (-2.29805159589724, 5.27225824358797, -1.29133083645765E-15));
#81 = CARTESIAN_POINT ('', (-1.36239094823709, 4.51159474845024, -1.10502201354792E-15));
#82 = CARTESIAN_POINT ('', (-0.65581181654104, 3.54423952891212, -8.68088318898751E-16));
#83 = CARTESIAN_POINT ('', (-0.145854845565456, 2.42614127340927, -5.94233228951989E-16));
#84 = CARTESIAN_POINT ('', (2.46519032881566E-32, 1.54627688889863, -3.78728608517048E-16));
#85 = CARTESIAN_POINT ('', (1.23259516440783E-32, 1., -2.44929359829471E-16));
#86 = CARTESIAN_POINT ('', (-5., 6., 24.));
#87 = CARTESIAN_POINT ('', (-4.45372311110137, 6., 24.));
#88 = CARTESIAN_POINT ('', (-3.57385872659072, 5.85414515443454, 23.4165806177381));
#89 = CARTESIAN_POINT ('', (-2.29805159589724, 5.27225824358797, 21.0890329743519));
#90 = CARTESIAN_POINT ('', (-1.36239094823709, 4.51159474845024, 18.046378993801));
#91 = CARTESIAN_POINT ('', (-0.655811816541041, 3.54423952891212, 14.1769581156485));
#92 = CARTESIAN_POINT ('', (-0.145854845565456, 2.42614127340927, 9.70456509363708));
#93 = CARTESIAN_POINT ('', (-3.78728608517048E-16, 1.54627688889863, 6.18510755559453));
#94 = CARTESIAN_POINT ('', (-2.44929359829471E-16, 1., 4.));
#95 = CARTESIAN_POINT ('', (-5., -18., 12.));
#96 = CARTESIAN_POINT ('', (-4.45372311110137, -18., 12.));
#97 = CARTESIAN_POINT ('', (-3.57385872659073, -17.5624354633036, 11.7082903088691));
#98 = CARTESIAN_POINT ('', (-2.29805159589724, -15.8167747307639, 10.5445164871759));
#99 = CARTESIAN_POINT ('', (-1.36239094823709, -13.5347842453507, 9.02318949690048));
#100 = CARTESIAN_POINT ('', (-0.655811816541041, -10.6327185867364, 7.08847905782425));
#101 = CARTESIAN_POINT ('', (-0.145854845565457, -7.27842382022781, 4.85228254681854));
#102 = CARTESIAN_POINT ('', (-5.68092912775571E-16, -4.6388306666959, 3.09255377779727));
#103 = CARTESIAN_POINT ('', (-3.67394039744206E-16, -3., 2.));
#104 = CARTESIAN_POINT ('', (-5., -18., -12.));
#105 = CARTESIAN_POINT ('', (-4.45372311110137, -18., -12.));
#106 = CARTESIAN_POINT ('', (-3.57385872659072, -17.5624354633036, -11.7082903088691));
#107 = CARTESIAN_POINT ('', (-2.29805159589724, -15.8167747307639, -10.5445164871759));
#108 = CARTESIAN_POINT ('', (-1.36239094823709, -13.5347842453507, -9.02318949690047));
#109 = CARTESIAN_POINT ('', (-0.655811816541041, -10.6327185867364, -7.08847905782424));
#110 = CARTESIAN_POINT ('', (-0.145854845565456, -7.27842382022781, -4.85228254681854));
#111 = CARTESIAN_POINT ('', (-1.89364304258524E-16, -4.6388306666959, -3.09255377779726));
#112 = CARTESIAN_POINT ('', (-1.22464679914735E-16, -3., -2.));
#113 = CARTESIAN_POINT ('', (-5., 6., -24.));
#114 = CARTESIAN_POINT ('', (-4.45372311110137, 5.99999999999999, -24.));
#115 = CARTESIAN_POINT ('', (-3.57385872659072, 5.85414515443453, -23.4165806177381));
#116 = CARTESIAN_POINT ('', (-2.29805159589724, 5.27225824358796, -21.0890329743519));
#117 = CARTESIAN_POINT ('', (-1.36239094823709, 4.51159474845023, -18.046378993801));
#118 = CARTESIAN_POINT ('', (-0.655811816541039, 3.54423952891212, -14.1769581156485));
#119 = CARTESIAN_POINT ('', (-0.145854845565455, 2.42614127340927, -9.70456509363708));
#120 = CARTESIAN_POINT ('', (3.78728608517048E-16, 1.54627688889863, -6.18510755559453));
#121 = CARTESIAN_POINT ('', (2.44929359829471E-16, 0.999999999999999, -4.));
#122 = CARTESIAN_POINT ('', (-5., 6., -1.46957615897682E-15));
#123 = CARTESIAN_POINT ('', (-4.45372311110137, 6., -1.46957615897682E-15));
#124 = CARTESIAN_POINT ('', (-3.57385872659072, 5.85414515443454, -1.43385202502445E-15));
#125 = CARTESIAN_POINT ('', (-2.29805159589724, 5.27225824358797, -1.29133083645765E-15));
#126 = CARTESIAN_POINT ('', (-1.36239094823709, 4.51159474845024, -1.10502201354792E-15));
#127 = CARTESIAN_POINT ('', (-0.65581181654104, 3.54423952891212, -8.68088318898751E-16));
#128 = CARTESIAN_POINT ('', (-0.145854845565456, 2.42614127340927, -5.94233228951989E-16));
#129 = CARTESIAN_POINT ('', (2.46519032881566E-32, 1.54627688889863, -3.78728608517048E-16));
#130 = CARTESIAN_POINT ('', (1.23259516440783E-32, 1., -2.44929359829471E-16));
#131 = (
   BOUNDED_SURFACE ()
   B_SPLINE_SURFACE (5, 3, ((#77, #78, #79, #80, #81, #82, #83, #84, #85), (#86, #87, #88, #89, #90, #91, #92, #93, #94), (#95, #96, #97, #98, #99, #100, #101, #102, #103), (#104, #105, #106, #107, #108, #109, #110, #111, #112), (#113, #114, #115, #116, #117, #118, #119, #120, #121), (#122, #123, #124, #125, #126, #127, #128, #129, #130)), .UNSPECIFIED., .T., .F., .U.)
   B_SPLINE_SURFACE_WITH_KNOTS ((6, 6), (4, 1, 1, 1, 1, 1, 4), (0., 1.), (0., 0.208662401196191, 0.33617370428258, 0.532939663384363, 0.66382629571742, 0.791337598803809, 1.), .UNSPECIFIED.)
   SURFACE ()
   GEOMETRIC_REPRESENTATION_ITEM ()
   RATIONAL_B_SPLINE_SURFACE (((5., 5., 5., 5., 5., 5., 5., 5., 5.), (1., 1., 1., 1., 1., 1., 1., 1., 1.), (1., 1., 1., 1., 1., 1., 1., 1., 1.), (1., 1., 1., 1., 1., 1., 1., 1., 1.), (1., 1., 1., 1., 1., 1., 1., 1., 1.), (5., 5., 5., 5., 5., 5., 5., 5., 5.)))
   REPRESENTATION_ITEM ('')
);
#132 = ADVANCED_FACE ('', (#76), #131, .T.);
#133 = CARTESIAN_POINT ('', (-107.75, 6., -1.46957615897682E-15));
#134 = VERTEX_POINT ('', #133);
#135 = CARTESIAN_POINT ('', (-107.75, 6., -1.46957615897682E-15));
#136 = CARTESIAN_POINT ('', (-73.5, 6., -1.46957615897682E-15));
#137 = CARTESIAN_POINT ('', (-39.25, 6., -1.46957615897682E-15));
#138 = CARTESIAN_POINT ('', (-5., 6., -1.46957615897682E-15));
#139 = B_SPLINE_CURVE_WITH_KNOTS ('', 3, (#135, #136, #137, #138), .UNSPECIFIED., .F., .U., (4, 4), (0., 1.), .UNSPECIFIED.);
#140 = EDGE_CURVE ('', #134, #51, #139, .T.);
#141 = ORIENTED_EDGE ('', *, *, #140, .F.);
#142 = CARTESIAN_POINT ('', (-107.75, 6., -1.46957615897682E-15));
#143 = CARTESIAN_POINT ('', (-107.75, 5.99999999999998, 24.));
#144 = CARTESIAN_POINT ('', (-107.75, -18., 12.));
#145 = CARTESIAN_POINT ('', (-107.75, -18., -12.));
#146 = CARTESIAN_POINT ('', (-107.75, 6.00000000000002, -24.));
#147 = CARTESIAN_POINT ('', (-107.75, 6., -1.46957615897682E-15));
#148 = (
   BOUNDED_CURVE ()
   B_SPLINE_CURVE (5, (#142, #143, #144, #145, #146, #147), .UNSPECIFIED., .T., .U.)
   B_SPLINE_CURVE_WITH_KNOTS ((6, 6), (0., 1.), .UNSPECIFIED.)
   CURVE ()
   GEOMETRIC_REPRESENTATION_ITEM ()
   RATIONAL_B_SPLINE_CURVE ((5., 1., 1., 1., 1., 5.))
   REPRESENTATION_ITEM ('')
);
#149 = EDGE_CURVE ('', #134, #134, #148, .T.);
#150 = ORIENTED_EDGE ('', *, *, #149, .T.);
#151 = ORIENTED_EDGE ('', *, *, #140, .T.);
#152 = ORIENTED_EDGE ('', *, *, #71, .F.);
#153 = EDGE_LOOP ('', (#141, #150, #151, #152));
#154 = FACE_OUTER_BOUND ('', #153, .T.);
#155 = CARTESIAN_POINT ('', (-107.75, 6., -1.46957615897682E-15));
#156 = CARTESIAN_POINT ('', (-73.5, 6., -1.46957615897682E-15));
#157 = CARTESIAN_POINT ('', (-39.25, 6., -1.46957615897682E-15));
#158 = CARTESIAN_POINT ('', (-5., 6., -1.46957615897682E-15));
#159 = CARTESIAN_POINT ('', (-107.75, 5.99999999999998, 24.));
#160 = CARTESIAN_POINT ('', (-73.5, 5.99999999999999, 24.));
#161 = CARTESIAN_POINT ('', (-39.25, 6., 24.));
#162 = CARTESIAN_POINT ('', (-5., 6., 24.));
#163 = CARTESIAN_POINT ('', (-107.75, -18., 12.));
#164 = CARTESIAN_POINT ('', (-73.5, -18., 12.));
#165 = CARTESIAN_POINT ('', (-39.25, -18., 12.));
#166 = CARTESIAN_POINT ('', (-5., -18., 12.));
#167 = CARTESIAN_POINT ('', (-107.75, -18., -12.));
#168 = CARTESIAN_POINT ('', (-73.5, -18., -12.));
#169 = CARTESIAN_POINT ('', (-39.25, -18., -12.));
#170 = CARTESIAN_POINT ('', (-5., -18., -12.));
#171 = CARTESIAN_POINT ('', (-107.75, 6.00000000000002, -24.));
#172 = CARTESIAN_POINT ('', (-73.5, 6.00000000000001, -24.));
#173 = CARTESIAN_POINT ('', (-39.25, 6.00000000000001, -24.));
#174 = CARTESIAN_POINT ('', (-5., 6., -24.));
#175 = CARTESIAN_POINT ('', (-107.75, 6., -1.46957615897682E-15));
#176 = CARTESIAN_POINT ('', (-73.5, 6., -1.46957615897682E-15));
#177 = CARTESIAN_POINT ('', (-39.25, 6., -1.46957615897682E-15));
#178 = CARTESIAN_POINT ('', (-5., 6., -1.46957615897682E-15));
#179 = (
   BOUNDED_SURFACE ()
   B_SPLINE_SURFACE (5, 3, ((#155, #156, #157, #158), (#159, #160, #161, #162), (#163, #164, #165, #166), (#167, #168, #169, #170), (#171, #172, #173, #174), (#175, #176, #177, #178)), .UNSPECIFIED., .T., .F., .U.)
   B_SPLINE_SURFACE_WITH_KNOTS ((6, 6), (4, 4), (0., 1.), (0., 1.), .UNSPECIFIED.)
   SURFACE ()
   GEOMETRIC_REPRESENTATION_ITEM ()
   RATIONAL_B_SPLINE_SURFACE (((5., 5., 5., 5.), (1., 1., 1., 1.), (1., 1., 1., 1.), (1., 1., 1., 1.), (1., 1., 1., 1.), (5., 5., 5., 5.)))
   REPRESENTATION_ITEM ('')
);
#180 = ADVANCED_FACE ('', (#154), #179, .T.);
#181 = CARTESIAN_POINT ('', (-108., 5.75, -1.40834381901946E-15));
#182 = VERTEX_POINT ('', #181);
#183 = CARTESIAN_POINT ('', (-108., 5.75, -1.40834381901946E-15));
#184 = CARTESIAN_POINT ('', (-107.916666666666, 5.83333333333334, -1.42875459900525E-15));
#185 = CARTESIAN_POINT ('', (-107.833333333333, 5.91666666666667, -1.44916537899103E-15));
#186 = CARTESIAN_POINT ('', (-107.75, 6., -1.46957615897682E-15));
#187 = B_SPLINE_CURVE_WITH_KNOTS ('', 3, (#183, #184, #185, #186), .UNSPECIFIED., .F., .U., (4, 4), (0., 1.), .UNSPECIFIED.);
#188 = EDGE_CURVE ('', #182, #134, #187, .T.);
#189 = ORIENTED_EDGE ('', *, *, #188, .F.);
#190 = CARTESIAN_POINT ('', (-108., 5.75, -1.40834381901946E-15));
#191 = CARTESIAN_POINT ('', (-108., 5.74999999999998, 23.));
#192 = CARTESIAN_POINT ('', (-108., -17.25, 11.5));
#193 = CARTESIAN_POINT ('', (-108., -17.25, -11.5));
#194 = CARTESIAN_POINT ('', (-108., 5.75000000000002, -23.));
#195 = CARTESIAN_POINT ('', (-108., 5.75, -1.40834381901946E-15));
#196 = (
   BOUNDED_CURVE ()
   B_SPLINE_CURVE (5, (#190, #191, #192, #193, #194, #195), .UNSPECIFIED., .T., .U.)
   B_SPLINE_CURVE_WITH_KNOTS ((6, 6), (0., 1.), .UNSPECIFIED.)
   CURVE ()
   GEOMETRIC_REPRESENTATION_ITEM ()
   RATIONAL_B_SPLINE_CURVE ((5., 1., 1., 1., 1., 5.))
   REPRESENTATION_ITEM ('')
);
#197 = EDGE_CURVE ('', #182, #182, #196, .T.);
#198 = ORIENTED_EDGE ('', *, *, #197, .T.);
#199 = ORIENTED_EDGE ('', *, *, #188, .T.);
#200 = ORIENTED_EDGE ('', *, *, #149, .F.);
#201 = EDGE_LOOP ('', (#189, #198, #199, #200));
#202 = FACE_OUTER_BOUND ('', #201, .T.);
#203 = CARTESIAN_POINT ('', (-108., 5.75, -1.40834381901946E-15));
#204 = CARTESIAN_POINT ('', (-107.916666666666, 5.83333333333334, -1.42875459900525E-15));
#205 = CARTESIAN_POINT ('', (-107.833333333333, 5.91666666666667, -1.44916537899103E-15));
#206 = CARTESIAN_POINT ('', (-107.75, 6., -1.46957615897682E-15));
#207 = CARTESIAN_POINT ('', (-108., 5.74999999999998, 23.));
#208 = CARTESIAN_POINT ('', (-107.916666666666, 5.83333333333332, 23.3333333333333));
#209 = CARTESIAN_POINT ('', (-107.833333333333, 5.91666666666665, 23.6666666666666));
#210 = CARTESIAN_POINT ('', (-107.75, 5.99999999999998, 24.));
#211 = CARTESIAN_POINT ('', (-108., -17.25, 11.5));
#212 = CARTESIAN_POINT ('', (-107.916666666666, -17.5, 11.6666666666666));
#213 = CARTESIAN_POINT ('', (-107.833333333333, -17.75, 11.8333333333333));
#214 = CARTESIAN_POINT ('', (-107.75, -18., 12.));
#215 = CARTESIAN_POINT ('', (-108., -17.25, -11.5));
#216 = CARTESIAN_POINT ('', (-107.916666666666, -17.5, -11.6666666666667));
#217 = CARTESIAN_POINT ('', (-107.833333333333, -17.75, -11.8333333333333));
#218 = CARTESIAN_POINT ('', (-107.75, -18., -12.));
#219 = CARTESIAN_POINT ('', (-108., 5.75000000000002, -23.));
#220 = CARTESIAN_POINT ('', (-107.916666666666, 5.83333333333336, -23.3333333333333));
#221 = CARTESIAN_POINT ('', (-107.833333333333, 5.91666666666669, -23.6666666666666));
#222 = CARTESIAN_POINT ('', (-107.75, 6.00000000000002, -24.));
#223 = CARTESIAN_POINT ('', (-108., 5.75, -1.40834381901946E-15));
#224 = CARTESIAN_POINT ('', (-107.916666666666, 5.83333333333334, -1.42875459900525E-15));
#225 = CARTESIAN_POINT ('', (-107.833333333333, 5.91666666666667, -1.44916537899103E-15));
#226 = CARTESIAN_POINT ('', (-107.75, 6., -1.46957615897682E-15));
#227 = (
   BOUNDED_SURFACE ()
   B_SPLINE_SURFACE (5, 3, ((#203, #204, #205, #206), (#207, #208, #209, #210), (#211, #212, #213, #214), (#215, #216, #217, #218), (#219, #220, #221, #222), (#223, #224, #225, #226)), .UNSPECIFIED., .T., .F., .U.)
   B_SPLINE_SURFACE_WITH_KNOTS ((6, 6), (4, 4), (0., 1.), (0., 1.), .UNSPECIFIED.)
   SURFACE ()
   GEOMETRIC_REPRESENTATION_ITEM ()
   RATIONAL_B_SPLINE_SURFACE (((5., 5., 5., 5.), (1., 1., 1., 1.), (1., 1., 1., 1.), (1., 1., 1., 1.), (1., 1., 1., 1.), (5., 5., 5., 5.)))
   REPRESENTATION_ITEM ('')
);
#228 = ADVANCED_FACE ('', (#202), #227, .T.);
#229 = CARTESIAN_POINT ('', (-108., 6.61309271539571E-15, -6.61309271539571E-15));
#230 = VERTEX_POINT ('', #229);
#231 = CARTESIAN_POINT ('', (-108., 6.61309271539571E-15, -6.61309271539571E-15));
#232 = CARTESIAN_POINT ('', (-108., 1.91666666666667, -4.69447939673152E-16));
#233 = CARTESIAN_POINT ('', (-108., 3.83333333333332, -9.38895879346298E-16));
#234 = CARTESIAN_POINT ('', (-108., 5.75, -1.40834381901946E-15));
#235 = B_SPLINE_CURVE_WITH_KNOTS ('', 3, (#231, #232, #233, #234), .UNSPECIFIED., .F., .U., (4, 4), (0., 1.), .UNSPECIFIED.);
#236 = EDGE_CURVE ('', #230, #182, #235, .T.);
#237 = ORIENTED_EDGE ('', *, *, #236, .F.);
#238 = ORIENTED_EDGE ('', *, *, #236, .T.);
#239 = ORIENTED_EDGE ('', *, *, #197, .F.);
#240 = EDGE_LOOP ('', (#237, #238, #239));
#241 = FACE_OUTER_BOUND ('', #240, .T.);
#242 = CARTESIAN_POINT ('', (-108., 6.61309271539571E-15, -6.61309271539571E-15));
#243 = CARTESIAN_POINT ('', (-108., 1.91666666666667, -4.69447939673152E-16));
#244 = CARTESIAN_POINT ('', (-108., 3.83333333333332, -9.38895879346298E-16));
#245 = CARTESIAN_POINT ('', (-108., 5.75, -1.40834381901946E-15));
#246 = CARTESIAN_POINT ('', (-108., 6.61309271539571E-15, -6.61309271539571E-15));
#247 = CARTESIAN_POINT ('', (-108., 1.91666666666665, 7.66666666666666));
#248 = CARTESIAN_POINT ('', (-108., 3.83333333333329, 15.3333333333332));
#249 = CARTESIAN_POINT ('', (-108., 5.74999999999998, 23.));
#250 = CARTESIAN_POINT ('', (-108., 6.61309271539571E-15, -6.61309271539571E-15));
#251 = CARTESIAN_POINT ('', (-108., -5.75, 3.8333333333333));
#252 = CARTESIAN_POINT ('', (-108., -11.4999999999999, 7.66666666666659));
#253 = CARTESIAN_POINT ('', (-108., -17.25, 11.5));
#254 = CARTESIAN_POINT ('', (-108., 6.61309271539571E-15, -6.61309271539571E-15));
#255 = CARTESIAN_POINT ('', (-108., -5.74999999999997, -3.83333333333335));
#256 = CARTESIAN_POINT ('', (-108., -11.4999999999999, -7.66666666666664));
#257 = CARTESIAN_POINT ('', (-108., -17.25, -11.5));
#258 = CARTESIAN_POINT ('', (-108., 6.61309271539571E-15, -6.61309271539571E-15));
#259 = CARTESIAN_POINT ('', (-108., 1.9166666666667, -7.66666666666666));
#260 = CARTESIAN_POINT ('', (-108., 3.83333333333334, -15.3333333333332));
#261 = CARTESIAN_POINT ('', (-108., 5.75000000000002, -23.));
#262 = CARTESIAN_POINT ('', (-108., 6.61309271539571E-15, -6.61309271539571E-15));
#263 = CARTESIAN_POINT ('', (-108., 1.91666666666667, -4.69447939673152E-16));
#264 = CARTESIAN_POINT ('', (-108., 3.83333333333332, -9.38895879346298E-16));
#265 = CARTESIAN_POINT ('', (-108., 5.75, -1.40834381901946E-15));
#266 = (
   BOUNDED_SURFACE ()
   B_SPLINE_SURFACE (5, 3, ((#242, #243, #244, #245), (#246, #247, #248, #249), (#250, #251, #252, #253), (#254, #255, #256, #257), (#258, #259, #260, #261), (#262, #263, #264, #265)), .UNSPECIFIED., .T., .F., .U.)
   B_SPLINE_SURFACE_WITH_KNOTS ((6, 6), (4, 4), (0., 1.), (0., 1.), .UNSPECIFIED.)
   SURFACE ()
   GEOMETRIC_REPRESENTATION_ITEM ()
   RATIONAL_B_SPLINE_SURFACE (((5., 5., 5., 5.), (1., 1., 1., 1.), (1., 1., 1., 1.), (1., 1., 1., 1.), (1., 1., 1., 1.), (5., 5., 5., 5.)))
   REPRESENTATION_ITEM ('')
);
#267 = ADVANCED_FACE ('', (#241), #266, .T.);
#268 = CLOSED_SHELL ('', (#49, #132, #180, #228, #267));
#269 = MANIFOLD_SOLID_BREP ('', #268);
#270 = (
   LENGTH_UNIT ()
   NAMED_UNIT (*)
   SI_UNIT (.MILLI., .METRE.)
);
#271 = (
   NAMED_UNIT (*)
   SI_UNIT ($, .STERADIAN.)
   SOLID_ANGLE_UNIT ()
);
#272 = (
   NAMED_UNIT (*)
   SI_UNIT ($, .RADIAN.)
   PLANE_ANGLE_UNIT ()
);
#273 = UNCERTAINTY_MEASURE_WITH_UNIT (LENGTH_MEASURE(0.001), #270, 'DISTANCE_ACCURACY_VALUE', '');
#274 = (
   GEOMETRIC_REPRESENTATION_CONTEXT (3)
   GLOBAL_UNCERTAINTY_ASSIGNED_CONTEXT ((#273))
   GLOBAL_UNIT_ASSIGNED_CONTEXT ((#270, #271, #272))
   REPRESENTATION_CONTEXT ('', '3D')
);
#275 = SHAPE_REPRESENTATION ('', (), #274);
#276 = APPLICATION_CONTEXT ('configuration controlled 3D designs of mechanical parts and assemblies');
#277 = APPLICATION_PROTOCOL_DEFINITION ('International Standard', 'config_control_design', 1997, #276);
#278 = MECHANICAL_CONTEXT ('', #276, 'mechanical');
#279 = PRODUCT ('', '', '', (#278));
#280 = PERSON_AND_ORGANIZATION_ROLE ('design_owner');
#281 = PERSON ('', '', $, $, $, $);
#282 = ORGANIZATION ($, '', '');
#283 = PERSON_AND_ORGANIZATION (#281, #282);
#284 = CC_DESIGN_PERSON_AND_ORGANIZATION_ASSIGNMENT (#283, #280, (#279));
#285 = PRODUCT_RELATED_PRODUCT_CATEGORY ('detail', $, (#279));
#286 = PRODUCT_DEFINITION_FORMATION_WITH_SPECIFIED_SOURCE ('', '', #279, .NOT_KNOWN.);
#287 = APPROVAL_STATUS ('approved');
#288 = APPROVAL (#287, '');
#289 = CALENDAR_DATE (2020, 9, 7);
#290 = COORDINATED_UNIVERSAL_TIME_OFFSET (0, $, .AHEAD.);
#291 = LOCAL_TIME (12, 23, 28., #290);
#292 = DATE_AND_TIME (#289, #291);
#293 = APPROVAL_DATE_TIME (#292, #288);
#294 = APPROVAL_ROLE ('');
#295 = PERSON ('', '', $, $, $, $);
#296 = ORGANIZATION ($, '', '');
#297 = PERSON_AND_ORGANIZATION (#295, #296);
#298 = APPROVAL_PERSON_ORGANIZATION (#297, #288, #294);
#299 = CC_DESIGN_APPROVAL (#288, (#286));
#300 = PERSON_AND_ORGANIZATION_ROLE ('creator');
#301 = PERSON ('', '', $, $, $, $);
#302 = ORGANIZATION ($, '', '');
#303 = PERSON_AND_ORGANIZATION (#301, #302);
#304 = CC_DESIGN_PERSON_AND_ORGANIZATION_ASSIGNMENT (#303, #300, (#286));
#305 = PERSON_AND_ORGANIZATION_ROLE ('part_supplier');
#306 = PERSON ('', '', $, $, $, $);
#307 = ORGANIZATION ($, '', '');
#308 = PERSON_AND_ORGANIZATION (#306, #307);
#309 = CC_DESIGN_PERSON_AND_ORGANIZATION_ASSIGNMENT (#308, #305, (#286));
#310 = SECURITY_CLASSIFICATION_LEVEL ('unclassified');
#311 = SECURITY_CLASSIFICATION ('', '', #310);
#312 = APPROVAL_STATUS ('approved');
#313 = APPROVAL (#312, '');
#314 = CALENDAR_DATE (2020, 9, 7);
#315 = COORDINATED_UNIVERSAL_TIME_OFFSET (0, $, .AHEAD.);
#316 = LOCAL_TIME (12, 23, 28., #315);
#317 = DATE_AND_TIME (#314, #316);
#318 = APPROVAL_DATE_TIME (#317, #313);
#319 = APPROVAL_ROLE ('');
#320 = PERSON ('', '', $, $, $, $);
#321 = ORGANIZATION ($, '', '');
#322 = PERSON_AND_ORGANIZATION (#320, #321);
#323 = APPROVAL_PERSON_ORGANIZATION (#322, #313, #319);
#324 = CC_DESIGN_APPROVAL (#313, (#311));
#325 = DATE_TIME_ROLE ('classification_date');
#326 = CALENDAR_DATE (2020, 9, 7);
#327 = COORDINATED_UNIVERSAL_TIME_OFFSET (0, $, .AHEAD.);
#328 = LOCAL_TIME (12, 23, 28., #327);
#329 = DATE_AND_TIME (#326, #328);
#330 = CC_DESIGN_DATE_AND_TIME_ASSIGNMENT (#329, #325, (#311));
#331 = PERSON_AND_ORGANIZATION_ROLE ('classification_officer');
#332 = PERSON ('', '', $, $, $, $);
#333 = ORGANIZATION ($, '', '');
#334 = PERSON_AND_ORGANIZATION (#332, #333);
#335 = CC_DESIGN_PERSON_AND_ORGANIZATION_ASSIGNMENT (#334, #331, (#311));
#336 = CC_DESIGN_SECURITY_CLASSIFICATION (#311, (#286));
#337 = DESIGN_CONTEXT ('', #276, 'design');
#338 = PRODUCT_DEFINITION ('', '', #286, #337);
#339 = APPROVAL_STATUS ('approved');
#340 = APPROVAL (#339, '');
#341 = CALENDAR_DATE (2020, 9, 7);
#342 = COORDINATED_UNIVERSAL_TIME_OFFSET (0, $, .AHEAD.);
#343 = LOCAL_TIME (12, 23, 28., #342);
#344 = DATE_AND_TIME (#341, #343);
#345 = APPROVAL_DATE_TIME (#344, #340);
#346 = APPROVAL_ROLE ('');
#347 = PERSON ('', '', $, $, $, $);
#348 = ORGANIZATION ($, '', '');
#349 = PERSON_AND_ORGANIZATION (#347, #348);
#350 = APPROVAL_PERSON_ORGANIZATION (#349, #340, #346);
#351 = CC_DESIGN_APPROVAL (#340, (#338));
#352 = DATE_TIME_ROLE ('creation_date');
#353 = CALENDAR_DATE (2020, 9, 7);
#354 = COORDINATED_UNIVERSAL_TIME_OFFSET (0, $, .AHEAD.);
#355 = LOCAL_TIME (12, 23, 28., #354);
#356 = DATE_AND_TIME (#353, #355);
#357 = CC_DESIGN_DATE_AND_TIME_ASSIGNMENT (#356, #352, (#338));
#358 = PERSON_AND_ORGANIZATION_ROLE ('creator');
#359 = PERSON ('', '', $, $, $, $);
#360 = ORGANIZATION ($, '', '');
#361 = PERSON_AND_ORGANIZATION (#359, #360);
#362 = CC_DESIGN_PERSON_AND_ORGANIZATION_ASSIGNMENT (#361, #358, (#338));
#363 = PRODUCT_DEFINITION_SHAPE ('', '', #338);
#364 = SHAPE_DEFINITION_REPRESENTATION (#363, #275);
#365 = SHAPE_REPRESENTATION_RELATIONSHIP ('', '', #275, #366);
#366 = ADVANCED_BREP_SHAPE_REPRESENTATION ('', (#269), #274);
ENDSEC;
END-ISO-10303-21;
