ISO-10303-21;
HEADER;
FILE_DESCRIPTION ((), '1');
FILE_NAME ('C:\\DDrive\\ROB\\Rob\\Documents\\ROB\\Customers & Projects\\M\\MAFE\\TOOL STEP FILES\\MFBN\\MFPB1601.STP', '2020-07-08T09:36:09', ('Unknown'), ('M A Ford'), 'OneCNC-XR8 Mill 3D Expert', 'OneCNC-XR8 Mill 3D Expert', '');
FILE_SCHEMA (('CONFIG_CONTROL_DESIGN'));
ENDSEC;

DATA;
#1 = CARTESIAN_POINT ('', (-107.75, 8., -1.95943487863576E-15));
#2 = VERTEX_POINT ('', #1);
#3 = CARTESIAN_POINT ('', (-108., 7.75, -1.89820253867839E-15));
#4 = VERTEX_POINT ('', #3);
#5 = CARTESIAN_POINT ('', (-107.75, 8., -1.95943487863576E-15));
#6 = CARTESIAN_POINT ('', (-107.833333333334, 7.91666666666665, -1.93902409864997E-15));
#7 = CARTESIAN_POINT ('', (-107.916666666667, 7.83333333333334, -1.91861331866419E-15));
#8 = CARTESIAN_POINT ('', (-108., 7.75, -1.89820253867839E-15));
#9 = B_SPLINE_CURVE_WITH_KNOTS ('', 3, (#5, #6, #7, #8), .UNSPECIFIED., .F., .U., (4, 4), (0., 1.), .UNSPECIFIED.);
#10 = EDGE_CURVE ('', #2, #4, #9, .T.);
#11 = ORIENTED_EDGE ('', *, *, #10, .F.);
#12 = CARTESIAN_POINT ('', (-107.75, 8., -1.95943487863576E-15));
#13 = CARTESIAN_POINT ('', (-107.75, 7.99999999999998, 32.));
#14 = CARTESIAN_POINT ('', (-107.75, -24., 16.));
#15 = CARTESIAN_POINT ('', (-107.75, -24., -16.));
#16 = CARTESIAN_POINT ('', (-107.75, 8.00000000000002, -32.));
#17 = CARTESIAN_POINT ('', (-107.75, 8., -1.95943487863576E-15));
#18 = (
   BOUNDED_CURVE ()
   B_SPLINE_CURVE (5, (#12, #13, #14, #15, #16, #17), .UNSPECIFIED., .T., .U.)
   B_SPLINE_CURVE_WITH_KNOTS ((6, 6), (0., 1.), .UNSPECIFIED.)
   CURVE ()
   GEOMETRIC_REPRESENTATION_ITEM ()
   RATIONAL_B_SPLINE_CURVE ((5., 1., 1., 1., 1., 5.))
   REPRESENTATION_ITEM ('')
);
#19 = EDGE_CURVE ('', #2, #2, #18, .T.);
#20 = ORIENTED_EDGE ('', *, *, #19, .T.);
#21 = ORIENTED_EDGE ('', *, *, #10, .T.);
#22 = CARTESIAN_POINT ('', (-108., 7.75, -1.89820253867839E-15));
#23 = CARTESIAN_POINT ('', (-108., 7.74999999999998, 31.));
#24 = CARTESIAN_POINT ('', (-108., -23.25, 15.5));
#25 = CARTESIAN_POINT ('', (-108., -23.25, -15.5));
#26 = CARTESIAN_POINT ('', (-108., 7.75000000000002, -31.));
#27 = CARTESIAN_POINT ('', (-108., 7.75, -1.89820253867839E-15));
#28 = (
   BOUNDED_CURVE ()
   B_SPLINE_CURVE (5, (#22, #23, #24, #25, #26, #27), .UNSPECIFIED., .T., .U.)
   B_SPLINE_CURVE_WITH_KNOTS ((6, 6), (0., 1.), .UNSPECIFIED.)
   CURVE ()
   GEOMETRIC_REPRESENTATION_ITEM ()
   RATIONAL_B_SPLINE_CURVE ((5., 1., 1., 1., 1., 5.))
   REPRESENTATION_ITEM ('')
);
#29 = EDGE_CURVE ('', #4, #4, #28, .T.);
#30 = ORIENTED_EDGE ('', *, *, #29, .F.);
#31 = EDGE_LOOP ('', (#11, #20, #21, #30));
#32 = FACE_OUTER_BOUND ('', #31, .F.);
#33 = CARTESIAN_POINT ('', (-107.75, 8., -1.95943487863576E-15));
#34 = CARTESIAN_POINT ('', (-107.833333333334, 7.91666666666665, -1.93902409864997E-15));
#35 = CARTESIAN_POINT ('', (-107.916666666667, 7.83333333333334, -1.91861331866419E-15));
#36 = CARTESIAN_POINT ('', (-108., 7.75, -1.89820253867839E-15));
#37 = CARTESIAN_POINT ('', (-107.75, 7.99999999999998, 32.));
#38 = CARTESIAN_POINT ('', (-107.833333333334, 7.91666666666663, 31.6666666666666));
#39 = CARTESIAN_POINT ('', (-107.916666666667, 7.83333333333332, 31.3333333333333));
#40 = CARTESIAN_POINT ('', (-108., 7.74999999999998, 31.));
#41 = CARTESIAN_POINT ('', (-107.75, -24., 16.));
#42 = CARTESIAN_POINT ('', (-107.833333333334, -23.7499999999999, 15.8333333333333));
#43 = CARTESIAN_POINT ('', (-107.916666666667, -23.5, 15.6666666666666));
#44 = CARTESIAN_POINT ('', (-108., -23.25, 15.5));
#45 = CARTESIAN_POINT ('', (-107.75, -24., -16.));
#46 = CARTESIAN_POINT ('', (-107.833333333334, -23.7499999999999, -15.8333333333333));
#47 = CARTESIAN_POINT ('', (-107.916666666667, -23.5, -15.6666666666667));
#48 = CARTESIAN_POINT ('', (-108., -23.25, -15.5));
#49 = CARTESIAN_POINT ('', (-107.75, 8.00000000000002, -32.));
#50 = CARTESIAN_POINT ('', (-107.833333333334, 7.91666666666667, -31.6666666666666));
#51 = CARTESIAN_POINT ('', (-107.916666666667, 7.83333333333336, -31.3333333333333));
#52 = CARTESIAN_POINT ('', (-108., 7.75000000000002, -31.));
#53 = CARTESIAN_POINT ('', (-107.75, 8., -1.95943487863576E-15));
#54 = CARTESIAN_POINT ('', (-107.833333333334, 7.91666666666665, -1.93902409864997E-15));
#55 = CARTESIAN_POINT ('', (-107.916666666667, 7.83333333333334, -1.91861331866419E-15));
#56 = CARTESIAN_POINT ('', (-108., 7.75, -1.89820253867839E-15));
#57 = (
   BOUNDED_SURFACE ()
   B_SPLINE_SURFACE (5, 3, ((#33, #34, #35, #36), (#37, #38, #39, #40), (#41, #42, #43, #44), (#45, #46, #47, #48), (#49, #50, #51, #52), (#53, #54, #55, #56)), .UNSPECIFIED., .T., .F., .U.)
   B_SPLINE_SURFACE_WITH_KNOTS ((6, 6), (4, 4), (0., 1.), (0., 1.), .UNSPECIFIED.)
   SURFACE ()
   GEOMETRIC_REPRESENTATION_ITEM ()
   RATIONAL_B_SPLINE_SURFACE (((5., 5., 5., 5.), (1., 1., 1., 1.), (1., 1., 1., 1.), (1., 1., 1., 1.), (1., 1., 1., 1.), (5., 5., 5., 5.)))
   REPRESENTATION_ITEM ('')
);
#58 = ADVANCED_FACE ('', (#32), #57, .F.);
#59 = CARTESIAN_POINT ('', (-108., 6.61309271539571E-15, -6.61309271539571E-15));
#60 = VERTEX_POINT ('', #59);
#61 = CARTESIAN_POINT ('', (-108., 7.75, -1.89820253867839E-15));
#62 = CARTESIAN_POINT ('', (-108., 6.61309271539571E-15, -6.61309271539571E-15));
#63 = B_SPLINE_CURVE_WITH_KNOTS ('', 1, (#61, #62), .UNSPECIFIED., .F., .U., (2, 2), (0., 1.), .UNSPECIFIED.);
#64 = EDGE_CURVE ('', #4, #60, #63, .T.);
#65 = ORIENTED_EDGE ('', *, *, #64, .F.);
#66 = ORIENTED_EDGE ('', *, *, #29, .T.);
#67 = ORIENTED_EDGE ('', *, *, #64, .T.);
#68 = EDGE_LOOP ('', (#65, #66, #67));
#69 = FACE_OUTER_BOUND ('', #68, .F.);
#70 = CARTESIAN_POINT ('', (-108., 7.75, -1.89820253867839E-15));
#71 = CARTESIAN_POINT ('', (-108., 6.61309271539571E-15, -6.61309271539571E-15));
#72 = CARTESIAN_POINT ('', (-108., 7.74999999999998, 31.));
#73 = CARTESIAN_POINT ('', (-108., 6.61309271539571E-15, -6.61309271539571E-15));
#74 = CARTESIAN_POINT ('', (-108., -23.25, 15.5));
#75 = CARTESIAN_POINT ('', (-108., 6.61309271539571E-15, -6.61309271539571E-15));
#76 = CARTESIAN_POINT ('', (-108., -23.25, -15.5));
#77 = CARTESIAN_POINT ('', (-108., 6.61309271539571E-15, -6.61309271539571E-15));
#78 = CARTESIAN_POINT ('', (-108., 7.75000000000002, -31.));
#79 = CARTESIAN_POINT ('', (-108., 6.61309271539571E-15, -6.61309271539571E-15));
#80 = CARTESIAN_POINT ('', (-108., 7.75, -1.89820253867839E-15));
#81 = CARTESIAN_POINT ('', (-108., 6.61309271539571E-15, -6.61309271539571E-15));
#82 = (
   BOUNDED_SURFACE ()
   B_SPLINE_SURFACE (5, 1, ((#70, #71), (#72, #73), (#74, #75), (#76, #77), (#78, #79), (#80, #81)), .UNSPECIFIED., .T., .F., .U.)
   B_SPLINE_SURFACE_WITH_KNOTS ((6, 6), (2, 2), (0., 1.), (0., 1.), .UNSPECIFIED.)
   SURFACE ()
   GEOMETRIC_REPRESENTATION_ITEM ()
   RATIONAL_B_SPLINE_SURFACE (((5., 5.), (1., 1.), (1., 1.), (1., 1.), (1., 1.), (5., 5.)))
   REPRESENTATION_ITEM ('')
);
#83 = ADVANCED_FACE ('', (#69), #82, .F.);
#84 = CARTESIAN_POINT ('', (-8., 8., -1.95943487863577E-15));
#85 = VERTEX_POINT ('', #84);
#86 = CARTESIAN_POINT ('', (-8., 8., -1.95943487863576E-15));
#87 = CARTESIAN_POINT ('', (-41.25, 8., -1.95943487863576E-15));
#88 = CARTESIAN_POINT ('', (-74.5000000000001, 8., -1.95943487863576E-15));
#89 = CARTESIAN_POINT ('', (-107.75, 8., -1.95943487863576E-15));
#90 = B_SPLINE_CURVE_WITH_KNOTS ('', 3, (#86, #87, #88, #89), .UNSPECIFIED., .F., .U., (4, 4), (0., 1.), .UNSPECIFIED.);
#91 = EDGE_CURVE ('', #85, #2, #90, .T.);
#92 = ORIENTED_EDGE ('', *, *, #91, .F.);
#93 = CARTESIAN_POINT ('', (-8., 8., -1.95943487863577E-15));
#94 = CARTESIAN_POINT ('', (-8., 8.00000000000001, 32.));
#95 = CARTESIAN_POINT ('', (-8., -24., 16.));
#96 = CARTESIAN_POINT ('', (-8., -24., -16.));
#97 = CARTESIAN_POINT ('', (-8., 7.99999999999999, -32.));
#98 = CARTESIAN_POINT ('', (-8., 8., -1.95943487863577E-15));
#99 = (
   BOUNDED_CURVE ()
   B_SPLINE_CURVE (5, (#93, #94, #95, #96, #97, #98), .UNSPECIFIED., .T., .U.)
   B_SPLINE_CURVE_WITH_KNOTS ((6, 6), (0., 1.), .UNSPECIFIED.)
   CURVE ()
   GEOMETRIC_REPRESENTATION_ITEM ()
   RATIONAL_B_SPLINE_CURVE ((5., 1., 1., 1., 1., 5.))
   REPRESENTATION_ITEM ('')
);
#100 = EDGE_CURVE ('', #85, #85, #99, .T.);
#101 = ORIENTED_EDGE ('', *, *, #100, .T.);
#102 = ORIENTED_EDGE ('', *, *, #91, .T.);
#103 = ORIENTED_EDGE ('', *, *, #19, .F.);
#104 = EDGE_LOOP ('', (#92, #101, #102, #103));
#105 = FACE_OUTER_BOUND ('', #104, .F.);
#106 = CARTESIAN_POINT ('', (-8., 8., -1.95943487863576E-15));
#107 = CARTESIAN_POINT ('', (-41.25, 8., -1.95943487863576E-15));
#108 = CARTESIAN_POINT ('', (-74.5000000000001, 8., -1.95943487863576E-15));
#109 = CARTESIAN_POINT ('', (-107.75, 8., -1.95943487863576E-15));
#110 = CARTESIAN_POINT ('', (-8., 8.00000000000001, 32.));
#111 = CARTESIAN_POINT ('', (-41.25, 8., 32.));
#112 = CARTESIAN_POINT ('', (-74.5000000000001, 7.99999999999999, 32.));
#113 = CARTESIAN_POINT ('', (-107.75, 7.99999999999998, 32.));
#114 = CARTESIAN_POINT ('', (-8., -24., 16.));
#115 = CARTESIAN_POINT ('', (-41.25, -24., 16.));
#116 = CARTESIAN_POINT ('', (-74.5000000000001, -24., 16.));
#117 = CARTESIAN_POINT ('', (-107.75, -24., 16.));
#118 = CARTESIAN_POINT ('', (-8., -24., -16.));
#119 = CARTESIAN_POINT ('', (-41.25, -24., -16.));
#120 = CARTESIAN_POINT ('', (-74.5000000000001, -24., -16.));
#121 = CARTESIAN_POINT ('', (-107.75, -24., -16.));
#122 = CARTESIAN_POINT ('', (-8., 7.99999999999999, -32.));
#123 = CARTESIAN_POINT ('', (-41.25, 8., -32.));
#124 = CARTESIAN_POINT ('', (-74.5000000000001, 8.00000000000001, -32.));
#125 = CARTESIAN_POINT ('', (-107.75, 8.00000000000002, -32.));
#126 = CARTESIAN_POINT ('', (-8., 8., -1.95943487863576E-15));
#127 = CARTESIAN_POINT ('', (-41.25, 8., -1.95943487863576E-15));
#128 = CARTESIAN_POINT ('', (-74.5000000000001, 8., -1.95943487863576E-15));
#129 = CARTESIAN_POINT ('', (-107.75, 8., -1.95943487863576E-15));
#130 = (
   BOUNDED_SURFACE ()
   B_SPLINE_SURFACE (5, 3, ((#106, #107, #108, #109), (#110, #111, #112, #113), (#114, #115, #116, #117), (#118, #119, #120, #121), (#122, #123, #124, #125), (#126, #127, #128, #129)), .UNSPECIFIED., .T., .F., .U.)
   B_SPLINE_SURFACE_WITH_KNOTS ((6, 6), (4, 4), (0., 1.), (0., 1.), .UNSPECIFIED.)
   SURFACE ()
   GEOMETRIC_REPRESENTATION_ITEM ()
   RATIONAL_B_SPLINE_SURFACE (((5., 5., 5., 5.), (1., 1., 1., 1.), (1., 1., 1., 1.), (1., 1., 1., 1.), (1., 1., 1., 1.), (5., 5., 5., 5.)))
   REPRESENTATION_ITEM ('')
);
#131 = ADVANCED_FACE ('', (#105), #130, .F.);
#132 = CARTESIAN_POINT ('', (0., 0., 0.));
#133 = VERTEX_POINT ('', #132);
#134 = CARTESIAN_POINT ('', (0., 0., 0.));
#135 = CARTESIAN_POINT ('', (0., 0.874043022237813, -2.14078797900123E-16));
#136 = CARTESIAN_POINT ('', (-0.23336775290473, 2.28182603745484, -5.58886190596032E-16));
#137 = CARTESIAN_POINT ('', (-1.16438681025926, 4.32311744656442, -1.05885838865464E-15));
#138 = CARTESIAN_POINT ('', (-2.38144840247961, 5.82017448282066, -1.42553161017309E-15));
#139 = CARTESIAN_POINT ('', (-3.92921675374061, 6.95070109353433, -1.70243076920537E-15));
#140 = CARTESIAN_POINT ('', (-5.71817396254515, 7.76663224709526, -1.90227626431197E-15));
#141 = CARTESIAN_POINT ('', (-7.12595697776219, 8., -1.95943487863577E-15));
#142 = CARTESIAN_POINT ('', (-8., 8., -1.95943487863577E-15));
#143 = B_SPLINE_CURVE_WITH_KNOTS ('', 3, (#134, #135, #136, #137, #138, #139, #140, #141, #142), .UNSPECIFIED., .F., .U., (4, 1, 1, 1, 1, 1, 4), (0., 0.208662401196191, 0.33617370428258, 0.532939663384363, 0.66382629571742, 0.791337598803809, 1.), .UNSPECIFIED.);
#144 = EDGE_CURVE ('', #133, #85, #143, .T.);
#145 = ORIENTED_EDGE ('', *, *, #144, .F.);
#146 = ORIENTED_EDGE ('', *, *, #144, .T.);
#147 = ORIENTED_EDGE ('', *, *, #100, .F.);
#148 = EDGE_LOOP ('', (#145, #146, #147));
#149 = FACE_OUTER_BOUND ('', #148, .F.);
#150 = CARTESIAN_POINT ('', (0., 0., 0.));
#151 = CARTESIAN_POINT ('', (0., 0.874043022237813, -2.14078797900123E-16));
#152 = CARTESIAN_POINT ('', (-0.23336775290473, 2.28182603745484, -5.58886190596032E-16));
#153 = CARTESIAN_POINT ('', (-1.16438681025926, 4.32311744656442, -1.05885838865464E-15));
#154 = CARTESIAN_POINT ('', (-2.38144840247961, 5.82017448282066, -1.42553161017309E-15));
#155 = CARTESIAN_POINT ('', (-3.92921675374061, 6.95070109353433, -1.70243076920537E-15));
#156 = CARTESIAN_POINT ('', (-5.71817396254515, 7.76663224709526, -1.90227626431197E-15));
#157 = CARTESIAN_POINT ('', (-7.12595697776219, 8., -1.95943487863577E-15));
#158 = CARTESIAN_POINT ('', (-8., 8., -1.95943487863577E-15));
#159 = CARTESIAN_POINT ('', (0., 0., 0.));
#160 = CARTESIAN_POINT ('', (-2.14078797900123E-16, 0.874043022237813, 3.49617208895125));
#161 = CARTESIAN_POINT ('', (-0.233367752904731, 2.28182603745484, 9.12730414981936));
#162 = CARTESIAN_POINT ('', (-1.16438681025926, 4.32311744656442, 17.2924697862577));
#163 = CARTESIAN_POINT ('', (-2.38144840247961, 5.82017448282067, 23.2806979312827));
#164 = CARTESIAN_POINT ('', (-3.92921675374061, 6.95070109353434, 27.8028043741373));
#165 = CARTESIAN_POINT ('', (-5.71817396254515, 7.76663224709527, 31.066528988381));
#166 = CARTESIAN_POINT ('', (-7.12595697776219, 8.00000000000001, 32.));
#167 = CARTESIAN_POINT ('', (-8., 8.00000000000001, 32.));
#168 = CARTESIAN_POINT ('', (0., 0., 0.));
#169 = CARTESIAN_POINT ('', (-3.21118196850185E-16, -2.62212906671344, 1.74808604447563));
#170 = CARTESIAN_POINT ('', (-0.233367752904731, -6.84547811236452, 4.56365207490968));
#171 = CARTESIAN_POINT ('', (-1.16438681025926, -12.9693523396933, 8.64623489312885));
#172 = CARTESIAN_POINT ('', (-2.38144840247961, -17.460523448462, 11.6403489656413));
#173 = CARTESIAN_POINT ('', (-3.92921675374062, -20.852103280603, 13.9014021870687));
#174 = CARTESIAN_POINT ('', (-5.71817396254515, -23.2998967412858, 15.5332644941905));
#175 = CARTESIAN_POINT ('', (-7.1259569777622, -24., 16.));
#176 = CARTESIAN_POINT ('', (-8., -24., 16.));
#177 = CARTESIAN_POINT ('', (0., 0., 0.));
#178 = CARTESIAN_POINT ('', (-1.07039398950062E-16, -2.62212906671344, -1.74808604447562));
#179 = CARTESIAN_POINT ('', (-0.233367752904731, -6.84547811236452, -4.56365207490968));
#180 = CARTESIAN_POINT ('', (-1.16438681025926, -12.9693523396933, -8.64623489312884));
#181 = CARTESIAN_POINT ('', (-2.38144840247961, -17.460523448462, -11.6403489656413));
#182 = CARTESIAN_POINT ('', (-3.92921675374061, -20.852103280603, -13.9014021870687));
#183 = CARTESIAN_POINT ('', (-5.71817396254515, -23.2998967412858, -15.5332644941905));
#184 = CARTESIAN_POINT ('', (-7.12595697776219, -24., -16.));
#185 = CARTESIAN_POINT ('', (-8., -24., -16.));
#186 = CARTESIAN_POINT ('', (0., 0., 0.));
#187 = CARTESIAN_POINT ('', (2.14078797900123E-16, 0.874043022237812, -3.49617208895125));
#188 = CARTESIAN_POINT ('', (-0.23336775290473, 2.28182603745484, -9.12730414981936));
#189 = CARTESIAN_POINT ('', (-1.16438681025926, 4.32311744656442, -17.2924697862577));
#190 = CARTESIAN_POINT ('', (-2.38144840247961, 5.82017448282066, -23.2806979312827));
#191 = CARTESIAN_POINT ('', (-3.92921675374061, 6.95070109353433, -27.8028043741373));
#192 = CARTESIAN_POINT ('', (-5.71817396254514, 7.76663224709526, -31.066528988381));
#193 = CARTESIAN_POINT ('', (-7.12595697776219, 7.99999999999999, -32.));
#194 = CARTESIAN_POINT ('', (-8., 7.99999999999999, -32.));
#195 = CARTESIAN_POINT ('', (0., 0., 0.));
#196 = CARTESIAN_POINT ('', (0., 0.874043022237813, -2.14078797900123E-16));
#197 = CARTESIAN_POINT ('', (-0.23336775290473, 2.28182603745484, -5.58886190596032E-16));
#198 = CARTESIAN_POINT ('', (-1.16438681025926, 4.32311744656442, -1.05885838865464E-15));
#199 = CARTESIAN_POINT ('', (-2.38144840247961, 5.82017448282066, -1.42553161017309E-15));
#200 = CARTESIAN_POINT ('', (-3.92921675374061, 6.95070109353433, -1.70243076920537E-15));
#201 = CARTESIAN_POINT ('', (-5.71817396254515, 7.76663224709526, -1.90227626431197E-15));
#202 = CARTESIAN_POINT ('', (-7.12595697776219, 8., -1.95943487863577E-15));
#203 = CARTESIAN_POINT ('', (-8., 8., -1.95943487863577E-15));
#204 = (
   BOUNDED_SURFACE ()
   B_SPLINE_SURFACE (5, 3, ((#150, #151, #152, #153, #154, #155, #156, #157, #158), (#159, #160, #161, #162, #163, #164, #165, #166, #167), (#168, #169, #170, #171, #172, #173, #174, #175, #176), (#177, #178, #179, #180, #181, #182, #183, #184, #185), (#186, #187, #188, #189, #190, #191, #192, #193, #194), (#195, #196, #197, #198, #199, #200, #201, #202, #203)), .UNSPECIFIED., .T., .F., .U.)
   B_SPLINE_SURFACE_WITH_KNOTS ((6, 6), (4, 1, 1, 1, 1, 1, 4), (0., 1.), (0., 0.208662401196191, 0.33617370428258, 0.532939663384363, 0.66382629571742, 0.791337598803809, 1.), .UNSPECIFIED.)
   SURFACE ()
   GEOMETRIC_REPRESENTATION_ITEM ()
   RATIONAL_B_SPLINE_SURFACE (((5., 5., 5., 5., 5., 5., 5., 5., 5.), (1., 1., 1., 1., 1., 1., 1., 1., 1.), (1., 1., 1., 1., 1., 1., 1., 1., 1.), (1., 1., 1., 1., 1., 1., 1., 1., 1.), (1., 1., 1., 1., 1., 1., 1., 1., 1.), (5., 5., 5., 5., 5., 5., 5., 5., 5.)))
   REPRESENTATION_ITEM ('')
);
#205 = ADVANCED_FACE ('', (#149), #204, .F.);
#206 = CLOSED_SHELL ('', (#58, #83, #131, #205));
#207 = MANIFOLD_SOLID_BREP ('', #206);
#208 = (
   LENGTH_UNIT ()
   NAMED_UNIT (*)
   SI_UNIT (.MILLI., .METRE.)
);
#209 = (
   NAMED_UNIT (*)
   SI_UNIT ($, .STERADIAN.)
   SOLID_ANGLE_UNIT ()
);
#210 = (
   NAMED_UNIT (*)
   SI_UNIT ($, .RADIAN.)
   PLANE_ANGLE_UNIT ()
);
#211 = UNCERTAINTY_MEASURE_WITH_UNIT (LENGTH_MEASURE(0.001), #208, 'DISTANCE_ACCURACY_VALUE', '');
#212 = (
   GEOMETRIC_REPRESENTATION_CONTEXT (3)
   GLOBAL_UNCERTAINTY_ASSIGNED_CONTEXT ((#211))
   GLOBAL_UNIT_ASSIGNED_CONTEXT ((#208, #209, #210))
   REPRESENTATION_CONTEXT ('', '3D')
);
#213 = SHAPE_REPRESENTATION ('', (), #212);
#214 = APPLICATION_CONTEXT ('configuration controlled 3D designs of mechanical parts and assemblies');
#215 = APPLICATION_PROTOCOL_DEFINITION ('International Standard', 'config_control_design', 1997, #214);
#216 = MECHANICAL_CONTEXT ('', #214, 'mechanical');
#217 = PRODUCT ('', '', '', (#216));
#218 = PERSON_AND_ORGANIZATION_ROLE ('design_owner');
#219 = PERSON ('', '', $, $, $, $);
#220 = ORGANIZATION ($, '', '');
#221 = PERSON_AND_ORGANIZATION (#219, #220);
#222 = CC_DESIGN_PERSON_AND_ORGANIZATION_ASSIGNMENT (#221, #218, (#217));
#223 = PRODUCT_RELATED_PRODUCT_CATEGORY ('detail', $, (#217));
#224 = PRODUCT_DEFINITION_FORMATION_WITH_SPECIFIED_SOURCE ('', '', #217, .NOT_KNOWN.);
#225 = APPROVAL_STATUS ('approved');
#226 = APPROVAL (#225, '');
#227 = CALENDAR_DATE (2020, 8, 7);
#228 = COORDINATED_UNIVERSAL_TIME_OFFSET (0, $, .AHEAD.);
#229 = LOCAL_TIME (9, 36, 9., #228);
#230 = DATE_AND_TIME (#227, #229);
#231 = APPROVAL_DATE_TIME (#230, #226);
#232 = APPROVAL_ROLE ('');
#233 = PERSON ('', '', $, $, $, $);
#234 = ORGANIZATION ($, '', '');
#235 = PERSON_AND_ORGANIZATION (#233, #234);
#236 = APPROVAL_PERSON_ORGANIZATION (#235, #226, #232);
#237 = CC_DESIGN_APPROVAL (#226, (#224));
#238 = PERSON_AND_ORGANIZATION_ROLE ('creator');
#239 = PERSON ('', '', $, $, $, $);
#240 = ORGANIZATION ($, '', '');
#241 = PERSON_AND_ORGANIZATION (#239, #240);
#242 = CC_DESIGN_PERSON_AND_ORGANIZATION_ASSIGNMENT (#241, #238, (#224));
#243 = PERSON_AND_ORGANIZATION_ROLE ('part_supplier');
#244 = PERSON ('', '', $, $, $, $);
#245 = ORGANIZATION ($, '', '');
#246 = PERSON_AND_ORGANIZATION (#244, #245);
#247 = CC_DESIGN_PERSON_AND_ORGANIZATION_ASSIGNMENT (#246, #243, (#224));
#248 = SECURITY_CLASSIFICATION_LEVEL ('unclassified');
#249 = SECURITY_CLASSIFICATION ('', '', #248);
#250 = APPROVAL_STATUS ('approved');
#251 = APPROVAL (#250, '');
#252 = CALENDAR_DATE (2020, 8, 7);
#253 = COORDINATED_UNIVERSAL_TIME_OFFSET (0, $, .AHEAD.);
#254 = LOCAL_TIME (9, 36, 9., #253);
#255 = DATE_AND_TIME (#252, #254);
#256 = APPROVAL_DATE_TIME (#255, #251);
#257 = APPROVAL_ROLE ('');
#258 = PERSON ('', '', $, $, $, $);
#259 = ORGANIZATION ($, '', '');
#260 = PERSON_AND_ORGANIZATION (#258, #259);
#261 = APPROVAL_PERSON_ORGANIZATION (#260, #251, #257);
#262 = CC_DESIGN_APPROVAL (#251, (#249));
#263 = DATE_TIME_ROLE ('classification_date');
#264 = CALENDAR_DATE (2020, 8, 7);
#265 = COORDINATED_UNIVERSAL_TIME_OFFSET (0, $, .AHEAD.);
#266 = LOCAL_TIME (9, 36, 9., #265);
#267 = DATE_AND_TIME (#264, #266);
#268 = CC_DESIGN_DATE_AND_TIME_ASSIGNMENT (#267, #263, (#249));
#269 = PERSON_AND_ORGANIZATION_ROLE ('classification_officer');
#270 = PERSON ('', '', $, $, $, $);
#271 = ORGANIZATION ($, '', '');
#272 = PERSON_AND_ORGANIZATION (#270, #271);
#273 = CC_DESIGN_PERSON_AND_ORGANIZATION_ASSIGNMENT (#272, #269, (#249));
#274 = CC_DESIGN_SECURITY_CLASSIFICATION (#249, (#224));
#275 = DESIGN_CONTEXT ('', #214, 'design');
#276 = PRODUCT_DEFINITION ('', '', #224, #275);
#277 = APPROVAL_STATUS ('approved');
#278 = APPROVAL (#277, '');
#279 = CALENDAR_DATE (2020, 8, 7);
#280 = COORDINATED_UNIVERSAL_TIME_OFFSET (0, $, .AHEAD.);
#281 = LOCAL_TIME (9, 36, 9., #280);
#282 = DATE_AND_TIME (#279, #281);
#283 = APPROVAL_DATE_TIME (#282, #278);
#284 = APPROVAL_ROLE ('');
#285 = PERSON ('', '', $, $, $, $);
#286 = ORGANIZATION ($, '', '');
#287 = PERSON_AND_ORGANIZATION (#285, #286);
#288 = APPROVAL_PERSON_ORGANIZATION (#287, #278, #284);
#289 = CC_DESIGN_APPROVAL (#278, (#276));
#290 = DATE_TIME_ROLE ('creation_date');
#291 = CALENDAR_DATE (2020, 8, 7);
#292 = COORDINATED_UNIVERSAL_TIME_OFFSET (0, $, .AHEAD.);
#293 = LOCAL_TIME (9, 36, 9., #292);
#294 = DATE_AND_TIME (#291, #293);
#295 = CC_DESIGN_DATE_AND_TIME_ASSIGNMENT (#294, #290, (#276));
#296 = PERSON_AND_ORGANIZATION_ROLE ('creator');
#297 = PERSON ('', '', $, $, $, $);
#298 = ORGANIZATION ($, '', '');
#299 = PERSON_AND_ORGANIZATION (#297, #298);
#300 = CC_DESIGN_PERSON_AND_ORGANIZATION_ASSIGNMENT (#299, #296, (#276));
#301 = PRODUCT_DEFINITION_SHAPE ('', '', #276);
#302 = SHAPE_DEFINITION_REPRESENTATION (#301, #213);
#303 = SHAPE_REPRESENTATION_RELATIONSHIP ('', '', #213, #304);
#304 = ADVANCED_BREP_SHAPE_REPRESENTATION ('', (#207), #212);
ENDSEC;
END-ISO-10303-21;
